ISO-10303-21;
HEADER;
/* Generated by software containing ST-Developer
 * from STEP Tools, Inc. (www.steptools.com) 
 */

FILE_DESCRIPTION(
/* description */ (''),
/* implementation_level */ '2;1');

FILE_NAME(
/* name */ 
'G:\\FLANGES & FITTINGS\\LIQUID FEEDTHROUGHS SECTION 3.5\\Step files\\
FL-LF1-16KF.stp',
/* time_stamp */ '2018-10-04T11:59:30+01:00',
/* author */ ('paul'),
/* organization */ (''),
/* preprocessor_version */ 'ST-DEVELOPER v17.2',
/* originating_system */ 'Autodesk Inventor 2019',
/* authorisation */ '');

FILE_SCHEMA (('AUTOMOTIVE_DESIGN { 1 0 10303 214 3 1 1 }'));
ENDSEC;

DATA;
#10=MECHANICAL_DESIGN_GEOMETRIC_PRESENTATION_REPRESENTATION('',(#23,#24),
#415);
#11=ITEM_DEFINED_TRANSFORMATION($,$,#253,#282);
#12=ITEM_DEFINED_TRANSFORMATION($,$,#273,#283);
#13=(
REPRESENTATION_RELATIONSHIP($,$,#429,#428)
REPRESENTATION_RELATIONSHIP_WITH_TRANSFORMATION(#11)
SHAPE_REPRESENTATION_RELATIONSHIP()
);
#14=(
REPRESENTATION_RELATIONSHIP($,$,#430,#428)
REPRESENTATION_RELATIONSHIP_WITH_TRANSFORMATION(#12)
SHAPE_REPRESENTATION_RELATIONSHIP()
);
#15=CONTEXT_DEPENDENT_SHAPE_REPRESENTATION(#13,#426);
#16=CONTEXT_DEPENDENT_SHAPE_REPRESENTATION(#14,#427);
#17=NEXT_ASSEMBLY_USAGE_OCCURRENCE('FL-16KF:1','FL-16KF:1','FL-16KF:1',
#432,#433,'FL-16KF:1');
#18=NEXT_ASSEMBLY_USAGE_OCCURRENCE('6.35 tube for tube end version:1',
'6.35 tube for tube end version:1','6.35 tube for tube end version:1',#432,
#434,'6.35 tube for tube end version:1');
#19=SHAPE_REPRESENTATION_RELATIONSHIP('SRR','None',#429,#21);
#20=SHAPE_REPRESENTATION_RELATIONSHIP('SRR','None',#430,#22);
#21=ADVANCED_BREP_SHAPE_REPRESENTATION('',(#25),#413);
#22=ADVANCED_BREP_SHAPE_REPRESENTATION('',(#26),#414);
#23=STYLED_ITEM('',(#216),#25);
#24=STYLED_ITEM('',(#217),#26);
#25=MANIFOLD_SOLID_BREP('Solid1',#191);
#26=MANIFOLD_SOLID_BREP('Solid1',#192);
#27=FACE_BOUND('',#53,.T.);
#28=FACE_BOUND('',#55,.T.);
#29=FACE_BOUND('',#58,.T.);
#30=FACE_BOUND('',#62,.T.);
#31=FACE_BOUND('',#64,.T.);
#32=PLANE('',#265);
#33=PLANE('',#266);
#34=PLANE('',#272);
#35=PLANE('',#280);
#36=PLANE('',#281);
#37=CONICAL_SURFACE('',#262,11.2679491924311,1.30899693899575);
#38=FACE_OUTER_BOUND('',#49,.T.);
#39=FACE_OUTER_BOUND('',#50,.T.);
#40=FACE_OUTER_BOUND('',#51,.T.);
#41=FACE_OUTER_BOUND('',#52,.T.);
#42=FACE_OUTER_BOUND('',#54,.T.);
#43=FACE_OUTER_BOUND('',#56,.T.);
#44=FACE_OUTER_BOUND('',#57,.T.);
#45=FACE_OUTER_BOUND('',#59,.T.);
#46=FACE_OUTER_BOUND('',#60,.T.);
#47=FACE_OUTER_BOUND('',#61,.T.);
#48=FACE_OUTER_BOUND('',#63,.T.);
#49=EDGE_LOOP('',(#131,#132,#133,#134));
#50=EDGE_LOOP('',(#135,#136,#137,#138,#139,#140));
#51=EDGE_LOOP('',(#141,#142,#143,#144,#145,#146));
#52=EDGE_LOOP('',(#147,#148));
#53=EDGE_LOOP('',(#149));
#54=EDGE_LOOP('',(#150,#151));
#55=EDGE_LOOP('',(#152));
#56=EDGE_LOOP('',(#153,#154,#155,#156,#157,#158));
#57=EDGE_LOOP('',(#159,#160));
#58=EDGE_LOOP('',(#161,#162));
#59=EDGE_LOOP('',(#163,#164,#165,#166));
#60=EDGE_LOOP('',(#167,#168,#169,#170));
#61=EDGE_LOOP('',(#171));
#62=EDGE_LOOP('',(#172));
#63=EDGE_LOOP('',(#173));
#64=EDGE_LOOP('',(#174));
#65=LINE('',#360,#71);
#66=LINE('',#368,#72);
#67=LINE('',#377,#73);
#68=LINE('',#386,#74);
#69=LINE('',#396,#75);
#70=LINE('',#402,#76);
#71=VECTOR('',#292,3.175);
#72=VECTOR('',#301,15.);
#73=VECTOR('',#312,11.2679491924311);
#74=VECTOR('',#323,8.6);
#75=VECTOR('',#336,1.975);
#76=VECTOR('',#343,3.175);
#77=CIRCLE('',#255,3.175);
#78=CIRCLE('',#256,3.175);
#79=CIRCLE('',#258,15.);
#80=CIRCLE('',#259,15.);
#81=CIRCLE('',#260,15.);
#82=CIRCLE('',#261,15.);
#83=CIRCLE('',#263,7.53589838486224);
#84=CIRCLE('',#264,7.53589838486224);
#85=CIRCLE('',#267,8.6);
#86=CIRCLE('',#268,8.6);
#87=CIRCLE('',#270,8.6);
#88=CIRCLE('',#271,8.6);
#89=CIRCLE('',#275,1.975);
#90=CIRCLE('',#276,1.975);
#91=CIRCLE('',#278,3.175);
#92=CIRCLE('',#279,3.175);
#93=VERTEX_POINT('',#357);
#94=VERTEX_POINT('',#359);
#95=VERTEX_POINT('',#363);
#96=VERTEX_POINT('',#364);
#97=VERTEX_POINT('',#367);
#98=VERTEX_POINT('',#369);
#99=VERTEX_POINT('',#373);
#100=VERTEX_POINT('',#374);
#101=VERTEX_POINT('',#380);
#102=VERTEX_POINT('',#381);
#103=VERTEX_POINT('',#385);
#104=VERTEX_POINT('',#387);
#105=VERTEX_POINT('',#393);
#106=VERTEX_POINT('',#395);
#107=VERTEX_POINT('',#399);
#108=VERTEX_POINT('',#401);
#109=EDGE_CURVE('',#93,#93,#77,.T.);
#110=EDGE_CURVE('',#93,#94,#65,.T.);
#111=EDGE_CURVE('',#94,#94,#78,.T.);
#112=EDGE_CURVE('',#95,#96,#79,.T.);
#113=EDGE_CURVE('',#96,#95,#80,.T.);
#114=EDGE_CURVE('',#96,#97,#66,.T.);
#115=EDGE_CURVE('',#97,#98,#81,.T.);
#116=EDGE_CURVE('',#98,#97,#82,.T.);
#117=EDGE_CURVE('',#99,#100,#83,.T.);
#118=EDGE_CURVE('',#100,#99,#84,.T.);
#119=EDGE_CURVE('',#100,#96,#67,.T.);
#120=EDGE_CURVE('',#101,#102,#85,.T.);
#121=EDGE_CURVE('',#102,#101,#86,.T.);
#122=EDGE_CURVE('',#102,#103,#68,.T.);
#123=EDGE_CURVE('',#104,#103,#87,.T.);
#124=EDGE_CURVE('',#103,#104,#88,.T.);
#125=EDGE_CURVE('',#105,#105,#89,.T.);
#126=EDGE_CURVE('',#105,#106,#69,.T.);
#127=EDGE_CURVE('',#106,#106,#90,.T.);
#128=EDGE_CURVE('',#107,#107,#91,.T.);
#129=EDGE_CURVE('',#107,#108,#70,.T.);
#130=EDGE_CURVE('',#108,#108,#92,.T.);
#131=ORIENTED_EDGE('',*,*,#109,.F.);
#132=ORIENTED_EDGE('',*,*,#110,.T.);
#133=ORIENTED_EDGE('',*,*,#111,.F.);
#134=ORIENTED_EDGE('',*,*,#110,.F.);
#135=ORIENTED_EDGE('',*,*,#112,.F.);
#136=ORIENTED_EDGE('',*,*,#113,.F.);
#137=ORIENTED_EDGE('',*,*,#114,.T.);
#138=ORIENTED_EDGE('',*,*,#115,.T.);
#139=ORIENTED_EDGE('',*,*,#116,.T.);
#140=ORIENTED_EDGE('',*,*,#114,.F.);
#141=ORIENTED_EDGE('',*,*,#117,.F.);
#142=ORIENTED_EDGE('',*,*,#118,.F.);
#143=ORIENTED_EDGE('',*,*,#119,.T.);
#144=ORIENTED_EDGE('',*,*,#113,.T.);
#145=ORIENTED_EDGE('',*,*,#112,.T.);
#146=ORIENTED_EDGE('',*,*,#119,.F.);
#147=ORIENTED_EDGE('',*,*,#117,.T.);
#148=ORIENTED_EDGE('',*,*,#118,.T.);
#149=ORIENTED_EDGE('',*,*,#109,.T.);
#150=ORIENTED_EDGE('',*,*,#120,.F.);
#151=ORIENTED_EDGE('',*,*,#121,.F.);
#152=ORIENTED_EDGE('',*,*,#111,.T.);
#153=ORIENTED_EDGE('',*,*,#120,.T.);
#154=ORIENTED_EDGE('',*,*,#122,.T.);
#155=ORIENTED_EDGE('',*,*,#123,.F.);
#156=ORIENTED_EDGE('',*,*,#124,.F.);
#157=ORIENTED_EDGE('',*,*,#122,.F.);
#158=ORIENTED_EDGE('',*,*,#121,.T.);
#159=ORIENTED_EDGE('',*,*,#116,.F.);
#160=ORIENTED_EDGE('',*,*,#115,.F.);
#161=ORIENTED_EDGE('',*,*,#123,.T.);
#162=ORIENTED_EDGE('',*,*,#124,.T.);
#163=ORIENTED_EDGE('',*,*,#125,.F.);
#164=ORIENTED_EDGE('',*,*,#126,.T.);
#165=ORIENTED_EDGE('',*,*,#127,.F.);
#166=ORIENTED_EDGE('',*,*,#126,.F.);
#167=ORIENTED_EDGE('',*,*,#128,.F.);
#168=ORIENTED_EDGE('',*,*,#129,.T.);
#169=ORIENTED_EDGE('',*,*,#130,.T.);
#170=ORIENTED_EDGE('',*,*,#129,.F.);
#171=ORIENTED_EDGE('',*,*,#128,.T.);
#172=ORIENTED_EDGE('',*,*,#127,.T.);
#173=ORIENTED_EDGE('',*,*,#130,.F.);
#174=ORIENTED_EDGE('',*,*,#125,.T.);
#175=CYLINDRICAL_SURFACE('',#254,3.175);
#176=CYLINDRICAL_SURFACE('',#257,15.);
#177=CYLINDRICAL_SURFACE('',#269,8.6);
#178=CYLINDRICAL_SURFACE('',#274,1.975);
#179=CYLINDRICAL_SURFACE('',#277,3.175);
#180=ADVANCED_FACE('',(#38),#175,.F.);
#181=ADVANCED_FACE('',(#39),#176,.T.);
#182=ADVANCED_FACE('',(#40),#37,.T.);
#183=ADVANCED_FACE('',(#41,#27),#32,.T.);
#184=ADVANCED_FACE('',(#42,#28),#33,.T.);
#185=ADVANCED_FACE('',(#43),#177,.F.);
#186=ADVANCED_FACE('',(#44,#29),#34,.T.);
#187=ADVANCED_FACE('',(#45),#178,.F.);
#188=ADVANCED_FACE('',(#46),#179,.T.);
#189=ADVANCED_FACE('',(#47,#30),#35,.F.);
#190=ADVANCED_FACE('',(#48,#31),#36,.T.);
#191=CLOSED_SHELL('',(#180,#181,#182,#183,#184,#185,#186));
#192=CLOSED_SHELL('',(#187,#188,#189,#190));
#193=DERIVED_UNIT_ELEMENT(#197,1.);
#194=DERIVED_UNIT_ELEMENT(#417,3.);
#195=DERIVED_UNIT_ELEMENT(#197,1.);
#196=DERIVED_UNIT_ELEMENT(#417,3.);
#197=(
MASS_UNIT()
NAMED_UNIT(*)
SI_UNIT($,.GRAM.)
);
#198=DERIVED_UNIT((#193,#194));
#199=DERIVED_UNIT((#195,#196));
#200=MEASURE_REPRESENTATION_ITEM('density measure',
POSITIVE_RATIO_MEASURE(8.),#198);
#201=MEASURE_REPRESENTATION_ITEM('density measure',
POSITIVE_RATIO_MEASURE(8.),#199);
#202=PROPERTY_DEFINITION_REPRESENTATION(#212,#206);
#203=PROPERTY_DEFINITION_REPRESENTATION(#213,#207);
#204=PROPERTY_DEFINITION_REPRESENTATION(#214,#208);
#205=PROPERTY_DEFINITION_REPRESENTATION(#215,#209);
#206=REPRESENTATION('material name',(#210),#413);
#207=REPRESENTATION('density',(#200),#413);
#208=REPRESENTATION('material name',(#211),#414);
#209=REPRESENTATION('density',(#201),#414);
#210=DESCRIPTIVE_REPRESENTATION_ITEM('Stainless Steel AISI 304',
'Stainless Steel AISI 304');
#211=DESCRIPTIVE_REPRESENTATION_ITEM('Stainless Steel AISI 304',
'Stainless Steel AISI 304');
#212=PROPERTY_DEFINITION('material property','material name',#433);
#213=PROPERTY_DEFINITION('material property','density of part',#433);
#214=PROPERTY_DEFINITION('material property','material name',#434);
#215=PROPERTY_DEFINITION('material property','density of part',#434);
#216=PRESENTATION_STYLE_ASSIGNMENT((#218));
#217=PRESENTATION_STYLE_ASSIGNMENT((#219));
#218=SURFACE_STYLE_USAGE(.BOTH.,#224);
#219=SURFACE_STYLE_USAGE(.BOTH.,#225);
#220=SURFACE_STYLE_RENDERING_WITH_PROPERTIES($,#232,(#222));
#221=SURFACE_STYLE_RENDERING_WITH_PROPERTIES($,#233,(#223));
#222=SURFACE_STYLE_TRANSPARENT(1.);
#223=SURFACE_STYLE_TRANSPARENT(1.);
#224=SURFACE_SIDE_STYLE('',(#226,#220));
#225=SURFACE_SIDE_STYLE('',(#227,#221));
#226=SURFACE_STYLE_FILL_AREA(#228);
#227=SURFACE_STYLE_FILL_AREA(#229);
#228=FILL_AREA_STYLE('',(#230));
#229=FILL_AREA_STYLE('',(#231));
#230=FILL_AREA_STYLE_COLOUR('',#232);
#231=FILL_AREA_STYLE_COLOUR('',#233);
#232=COLOUR_RGB('',0.745098039215686,0.737254901960784,0.729411764705882);
#233=COLOUR_RGB('',0.745098039215686,0.737254901960784,0.729411764705882);
#234=DATE_TIME_ROLE('creation_date');
#235=DATE_TIME_ROLE('creation_date');
#236=DATE_TIME_ROLE('creation_date');
#237=APPLIED_DATE_AND_TIME_ASSIGNMENT(#240,#234,(#432));
#238=APPLIED_DATE_AND_TIME_ASSIGNMENT(#241,#235,(#433));
#239=APPLIED_DATE_AND_TIME_ASSIGNMENT(#242,#236,(#434));
#240=DATE_AND_TIME(#243,#246);
#241=DATE_AND_TIME(#244,#247);
#242=DATE_AND_TIME(#245,#248);
#243=CALENDAR_DATE(2018,4,10);
#244=CALENDAR_DATE(2014,20,11);
#245=CALENDAR_DATE(2015,24,3);
#246=LOCAL_TIME(10,55,50.,#249);
#247=LOCAL_TIME(11,0,44.,#250);
#248=LOCAL_TIME(9,31,52.,#251);
#249=COORDINATED_UNIVERSAL_TIME_OFFSET(0,0,.BEHIND.);
#250=COORDINATED_UNIVERSAL_TIME_OFFSET(0,0,.BEHIND.);
#251=COORDINATED_UNIVERSAL_TIME_OFFSET(0,0,.BEHIND.);
#252=AXIS2_PLACEMENT_3D('placement',#354,#284,#285);
#253=AXIS2_PLACEMENT_3D('placement',#355,#286,#287);
#254=AXIS2_PLACEMENT_3D('',#356,#288,#289);
#255=AXIS2_PLACEMENT_3D('',#358,#290,#291);
#256=AXIS2_PLACEMENT_3D('',#361,#293,#294);
#257=AXIS2_PLACEMENT_3D('',#362,#295,#296);
#258=AXIS2_PLACEMENT_3D('',#365,#297,#298);
#259=AXIS2_PLACEMENT_3D('',#366,#299,#300);
#260=AXIS2_PLACEMENT_3D('',#370,#302,#303);
#261=AXIS2_PLACEMENT_3D('',#371,#304,#305);
#262=AXIS2_PLACEMENT_3D('',#372,#306,#307);
#263=AXIS2_PLACEMENT_3D('',#375,#308,#309);
#264=AXIS2_PLACEMENT_3D('',#376,#310,#311);
#265=AXIS2_PLACEMENT_3D('',#378,#313,#314);
#266=AXIS2_PLACEMENT_3D('',#379,#315,#316);
#267=AXIS2_PLACEMENT_3D('',#382,#317,#318);
#268=AXIS2_PLACEMENT_3D('',#383,#319,#320);
#269=AXIS2_PLACEMENT_3D('',#384,#321,#322);
#270=AXIS2_PLACEMENT_3D('',#388,#324,#325);
#271=AXIS2_PLACEMENT_3D('',#389,#326,#327);
#272=AXIS2_PLACEMENT_3D('',#390,#328,#329);
#273=AXIS2_PLACEMENT_3D('placement',#391,#330,#331);
#274=AXIS2_PLACEMENT_3D('',#392,#332,#333);
#275=AXIS2_PLACEMENT_3D('',#394,#334,#335);
#276=AXIS2_PLACEMENT_3D('',#397,#337,#338);
#277=AXIS2_PLACEMENT_3D('',#398,#339,#340);
#278=AXIS2_PLACEMENT_3D('',#400,#341,#342);
#279=AXIS2_PLACEMENT_3D('',#403,#344,#345);
#280=AXIS2_PLACEMENT_3D('',#404,#346,#347);
#281=AXIS2_PLACEMENT_3D('',#405,#348,#349);
#282=AXIS2_PLACEMENT_3D('',#406,#350,#351);
#283=AXIS2_PLACEMENT_3D('',#407,#352,#353);
#284=DIRECTION('axis',(0.,0.,1.));
#285=DIRECTION('refdir',(1.,0.,0.));
#286=DIRECTION('axis',(0.,0.,1.));
#287=DIRECTION('refdir',(1.,0.,0.));
#288=DIRECTION('center_axis',(0.,-1.,0.));
#289=DIRECTION('ref_axis',(-1.,0.,0.));
#290=DIRECTION('center_axis',(0.,-1.,0.));
#291=DIRECTION('ref_axis',(-1.,0.,0.));
#292=DIRECTION('',(0.,-1.,0.));
#293=DIRECTION('center_axis',(0.,1.,0.));
#294=DIRECTION('ref_axis',(-1.,0.,0.));
#295=DIRECTION('center_axis',(0.,1.,0.));
#296=DIRECTION('ref_axis',(-1.,0.,0.));
#297=DIRECTION('center_axis',(0.,1.,0.));
#298=DIRECTION('ref_axis',(1.,0.,0.));
#299=DIRECTION('center_axis',(0.,1.,0.));
#300=DIRECTION('ref_axis',(1.,0.,0.));
#301=DIRECTION('',(0.,-1.,0.));
#302=DIRECTION('center_axis',(0.,1.,0.));
#303=DIRECTION('ref_axis',(1.,0.,0.));
#304=DIRECTION('center_axis',(0.,1.,0.));
#305=DIRECTION('ref_axis',(1.,0.,0.));
#306=DIRECTION('center_axis',(0.,-1.,0.));
#307=DIRECTION('ref_axis',(-1.,0.,0.));
#308=DIRECTION('center_axis',(0.,1.,0.));
#309=DIRECTION('ref_axis',(1.,0.,0.));
#310=DIRECTION('center_axis',(0.,1.,0.));
#311=DIRECTION('ref_axis',(1.,0.,0.));
#312=DIRECTION('',(0.965925826289068,-0.258819045102521,-1.18291797137867E-16));
#313=DIRECTION('center_axis',(0.,1.,0.));
#314=DIRECTION('ref_axis',(0.,0.,1.));
#315=DIRECTION('center_axis',(0.,-1.,0.));
#316=DIRECTION('ref_axis',(0.,0.,-1.));
#317=DIRECTION('center_axis',(0.,1.,0.));
#318=DIRECTION('ref_axis',(1.,0.,0.));
#319=DIRECTION('center_axis',(0.,1.,0.));
#320=DIRECTION('ref_axis',(1.,0.,0.));
#321=DIRECTION('center_axis',(0.,1.,0.));
#322=DIRECTION('ref_axis',(-1.,0.,0.));
#323=DIRECTION('',(0.,-1.,0.));
#324=DIRECTION('center_axis',(0.,1.,0.));
#325=DIRECTION('ref_axis',(1.,0.,0.));
#326=DIRECTION('center_axis',(0.,1.,0.));
#327=DIRECTION('ref_axis',(1.,0.,0.));
#328=DIRECTION('center_axis',(0.,-1.,0.));
#329=DIRECTION('ref_axis',(0.,0.,-1.));
#330=DIRECTION('axis',(0.,0.,1.));
#331=DIRECTION('refdir',(1.,0.,0.));
#332=DIRECTION('center_axis',(0.,0.,-1.));
#333=DIRECTION('ref_axis',(-1.,0.,0.));
#334=DIRECTION('center_axis',(0.,0.,-1.));
#335=DIRECTION('ref_axis',(-1.,0.,0.));
#336=DIRECTION('',(0.,0.,-1.));
#337=DIRECTION('center_axis',(0.,0.,1.));
#338=DIRECTION('ref_axis',(-1.,0.,0.));
#339=DIRECTION('center_axis',(0.,0.,-1.));
#340=DIRECTION('ref_axis',(-1.,0.,0.));
#341=DIRECTION('center_axis',(0.,0.,-1.));
#342=DIRECTION('ref_axis',(-1.,0.,0.));
#343=DIRECTION('',(0.,0.,1.));
#344=DIRECTION('center_axis',(0.,0.,-1.));
#345=DIRECTION('ref_axis',(-1.,0.,0.));
#346=DIRECTION('center_axis',(0.,0.,1.));
#347=DIRECTION('ref_axis',(1.,0.,0.));
#348=DIRECTION('center_axis',(0.,0.,1.));
#349=DIRECTION('ref_axis',(1.,0.,0.));
#350=DIRECTION('',(0.,0.,1.));
#351=DIRECTION('',(1.,0.,0.));
#352=DIRECTION('',(0.,-1.,0.));
#353=DIRECTION('',(1.,0.,0.));
#354=CARTESIAN_POINT('',(0.,0.,0.));
#355=CARTESIAN_POINT('',(0.,0.,0.));
#356=CARTESIAN_POINT('Origin',(0.,5.,0.));
#357=CARTESIAN_POINT('',(3.175,5.,-3.88825358729285E-16));
#358=CARTESIAN_POINT('Origin',(0.,5.,0.));
#359=CARTESIAN_POINT('',(3.175,2.5,-3.88825358729285E-16));
#360=CARTESIAN_POINT('',(3.175,5.,3.88825358729285E-16));
#361=CARTESIAN_POINT('Origin',(0.,2.5,0.));
#362=CARTESIAN_POINT('Origin',(0.,1.5,0.));
#363=CARTESIAN_POINT('',(-15.,3.,0.));
#364=CARTESIAN_POINT('',(15.,3.,-1.83697019872103E-15));
#365=CARTESIAN_POINT('Origin',(0.,3.,0.));
#366=CARTESIAN_POINT('Origin',(0.,3.,0.));
#367=CARTESIAN_POINT('',(15.,0.,-1.83697019872103E-15));
#368=CARTESIAN_POINT('',(15.,1.5,-1.83697019872103E-15));
#369=CARTESIAN_POINT('',(-15.,0.,0.));
#370=CARTESIAN_POINT('Origin',(0.,0.,0.));
#371=CARTESIAN_POINT('Origin',(0.,0.,0.));
#372=CARTESIAN_POINT('Origin',(0.,4.,0.));
#373=CARTESIAN_POINT('',(-7.53589838486224,5.,0.));
#374=CARTESIAN_POINT('',(7.53589838486223,5.,-9.22881383572125E-16));
#375=CARTESIAN_POINT('Origin',(0.,5.,0.));
#376=CARTESIAN_POINT('Origin',(0.,5.,0.));
#377=CARTESIAN_POINT('',(11.2679491924311,4.,-1.37992579114658E-15));
#378=CARTESIAN_POINT('Origin',(0.,5.,0.));
#379=CARTESIAN_POINT('Origin',(-8.6,2.5,0.));
#380=CARTESIAN_POINT('',(-8.6,2.5,0.));
#381=CARTESIAN_POINT('',(8.6,2.5,-1.05319624726672E-15));
#382=CARTESIAN_POINT('Origin',(0.,2.5,0.));
#383=CARTESIAN_POINT('Origin',(0.,2.5,0.));
#384=CARTESIAN_POINT('Origin',(0.,1.25,0.));
#385=CARTESIAN_POINT('',(8.6,0.,-1.05319624726672E-15));
#386=CARTESIAN_POINT('',(8.6,1.25,-1.05319624726672E-15));
#387=CARTESIAN_POINT('',(-8.6,0.,0.));
#388=CARTESIAN_POINT('Origin',(0.,0.,0.));
#389=CARTESIAN_POINT('Origin',(0.,0.,0.));
#390=CARTESIAN_POINT('Origin',(-15.,0.,0.));
#391=CARTESIAN_POINT('',(0.,0.,0.));
#392=CARTESIAN_POINT('Origin',(0.,0.,0.));
#393=CARTESIAN_POINT('',(1.975,2.41867742831602E-16,0.));
#394=CARTESIAN_POINT('Origin',(0.,0.,0.));
#395=CARTESIAN_POINT('',(1.975,2.41867742831602E-16,-152.4));
#396=CARTESIAN_POINT('',(1.975,-2.41867742831602E-16,0.));
#397=CARTESIAN_POINT('Origin',(0.,0.,-152.4));
#398=CARTESIAN_POINT('Origin',(0.,0.,0.));
#399=CARTESIAN_POINT('',(3.175,3.88825358729285E-16,-152.4));
#400=CARTESIAN_POINT('Origin',(0.,0.,-152.4));
#401=CARTESIAN_POINT('',(3.175,3.88825358729285E-16,0.));
#402=CARTESIAN_POINT('',(3.175,-3.88825358729285E-16,0.));
#403=CARTESIAN_POINT('Origin',(0.,0.,0.));
#404=CARTESIAN_POINT('Origin',(-3.23799232551628E-16,7.2849279831047E-17,
-152.4));
#405=CARTESIAN_POINT('Origin',(-3.23799232551628E-16,7.2849279831047E-17,
0.));
#406=CARTESIAN_POINT('',(-3.34507037268978,-4.37793424431707,0.));
#407=CARTESIAN_POINT('',(-3.34507037268978,-55.1779342443171,0.));
#408=UNCERTAINTY_MEASURE_WITH_UNIT(LENGTH_MEASURE(0.01),#416,
'DISTANCE_ACCURACY_VALUE',
'Maximum model space distance between geometric entities at asserted c
onnectivities');
#409=UNCERTAINTY_MEASURE_WITH_UNIT(LENGTH_MEASURE(0.01),#416,
'DISTANCE_ACCURACY_VALUE',
'Maximum model space distance between geometric entities at asserted c
onnectivities');
#410=UNCERTAINTY_MEASURE_WITH_UNIT(LENGTH_MEASURE(0.01),#416,
'DISTANCE_ACCURACY_VALUE',
'Maximum model space distance between geometric entities at asserted c
onnectivities');
#411=UNCERTAINTY_MEASURE_WITH_UNIT(LENGTH_MEASURE(0.01),#416,
'DISTANCE_ACCURACY_VALUE',
'Maximum model space distance between geometric entities at asserted c
onnectivities');
#412=(
GEOMETRIC_REPRESENTATION_CONTEXT(3)
GLOBAL_UNCERTAINTY_ASSIGNED_CONTEXT((#408))
GLOBAL_UNIT_ASSIGNED_CONTEXT((#416,#418,#419))
REPRESENTATION_CONTEXT('','3D')
);
#413=(
GEOMETRIC_REPRESENTATION_CONTEXT(3)
GLOBAL_UNCERTAINTY_ASSIGNED_CONTEXT((#409))
GLOBAL_UNIT_ASSIGNED_CONTEXT((#416,#418,#419))
REPRESENTATION_CONTEXT('','3D')
);
#414=(
GEOMETRIC_REPRESENTATION_CONTEXT(3)
GLOBAL_UNCERTAINTY_ASSIGNED_CONTEXT((#410))
GLOBAL_UNIT_ASSIGNED_CONTEXT((#416,#418,#419))
REPRESENTATION_CONTEXT('','3D')
);
#415=(
GEOMETRIC_REPRESENTATION_CONTEXT(3)
GLOBAL_UNCERTAINTY_ASSIGNED_CONTEXT((#411))
GLOBAL_UNIT_ASSIGNED_CONTEXT((#416,#418,#419))
REPRESENTATION_CONTEXT('','3D')
);
#416=(
LENGTH_UNIT()
NAMED_UNIT(*)
SI_UNIT(.MILLI.,.METRE.)
);
#417=(
LENGTH_UNIT()
NAMED_UNIT(*)
SI_UNIT(.CENTI.,.METRE.)
);
#418=(
NAMED_UNIT(*)
PLANE_ANGLE_UNIT()
SI_UNIT($,.RADIAN.)
);
#419=(
NAMED_UNIT(*)
SI_UNIT($,.STERADIAN.)
SOLID_ANGLE_UNIT()
);
#420=SHAPE_DEFINITION_REPRESENTATION(#423,#428);
#421=SHAPE_DEFINITION_REPRESENTATION(#424,#429);
#422=SHAPE_DEFINITION_REPRESENTATION(#425,#430);
#423=PRODUCT_DEFINITION_SHAPE('',$,#432);
#424=PRODUCT_DEFINITION_SHAPE('',$,#433);
#425=PRODUCT_DEFINITION_SHAPE('',$,#434);
#426=PRODUCT_DEFINITION_SHAPE($,$,#17);
#427=PRODUCT_DEFINITION_SHAPE($,$,#18);
#428=SHAPE_REPRESENTATION('',(#252,#282,#283),#412);
#429=SHAPE_REPRESENTATION('',(#253),#413);
#430=SHAPE_REPRESENTATION('',(#273),#414);
#431=PRODUCT_DEFINITION_CONTEXT('part definition',#442,'design');
#432=PRODUCT_DEFINITION('FL-LF1-16KF','FL-LF1-16KF',#435,#431);
#433=PRODUCT_DEFINITION('FL-16KF','FL-16KF',#436,#431);
#434=PRODUCT_DEFINITION('6.35 tube for tube end version',
'6.35 tube for tube end version',#437,#431);
#435=PRODUCT_DEFINITION_FORMATION('',$,#444);
#436=PRODUCT_DEFINITION_FORMATION('',$,#445);
#437=PRODUCT_DEFINITION_FORMATION('',$,#446);
#438=PRODUCT_RELATED_PRODUCT_CATEGORY('FL-LF1-16KF','FL-LF1-16KF',(#444));
#439=PRODUCT_RELATED_PRODUCT_CATEGORY('FL-16KF','FL-16KF',(#445));
#440=PRODUCT_RELATED_PRODUCT_CATEGORY('6.35 tube for tube end version',
'6.35 tube for tube end version',(#446));
#441=APPLICATION_PROTOCOL_DEFINITION('international standard',
'automotive_design',2009,#442);
#442=APPLICATION_CONTEXT(
'Core Data for Automotive Mechanical Design Process');
#443=PRODUCT_CONTEXT('part definition',#442,'mechanical');
#444=PRODUCT('FL-LF1-16KF','FL-LF1-16KF',$,(#443));
#445=PRODUCT('FL-16KF','FL-16KF',$,(#443));
#446=PRODUCT('6.35 tube for tube end version',
'6.35 tube for tube end version',$,(#443));
ENDSEC;
END-ISO-10303-21;
