ISO-10303-21;
HEADER;
/* Generated by software containing ST-Developer
 * from STEP Tools, Inc. (www.steptools.com) 
 */

FILE_DESCRIPTION(
/* description */ (''),
/* implementation_level */ '2;1');

FILE_NAME(
/* name */ 
'G:\\FLANGES & FITTINGS\\Half Nipples\\Step files\\FL-HN63LFB.stp',
/* time_stamp */ '2018-07-25T14:18:41+01:00',
/* author */ ('paul'),
/* organization */ (''),
/* preprocessor_version */ 'ST-DEVELOPER v17',
/* originating_system */ 'Autodesk Inventor 2019',
/* authorisation */ '');

FILE_SCHEMA (('AUTOMOTIVE_DESIGN { 1 0 10303 214 3 1 1 }'));
ENDSEC;

DATA;
#10=MECHANICAL_DESIGN_GEOMETRIC_PRESENTATION_REPRESENTATION('',(#13),#547);
#11=SHAPE_REPRESENTATION_RELATIONSHIP('SRR','None',#554,#12);
#12=ADVANCED_BREP_SHAPE_REPRESENTATION('',(#14),#546);
#13=STYLED_ITEM('',(#563),#14);
#14=MANIFOLD_SOLID_BREP('Solid1',#295);
#15=FACE_BOUND('',#54,.T.);
#16=FACE_BOUND('',#55,.T.);
#17=FACE_BOUND('',#56,.T.);
#18=FACE_BOUND('',#57,.T.);
#19=FACE_BOUND('',#58,.T.);
#20=FACE_BOUND('',#61,.T.);
#21=FACE_BOUND('',#62,.T.);
#22=FACE_BOUND('',#63,.T.);
#23=FACE_BOUND('',#64,.T.);
#24=FACE_BOUND('',#65,.T.);
#25=FACE_BOUND('',#68,.T.);
#26=FACE_BOUND('',#71,.T.);
#27=PLANE('',#338);
#28=PLANE('',#343);
#29=PLANE('',#349);
#30=PLANE('',#355);
#31=CONICAL_SURFACE('',#331,64.75,0.785398163397428);
#32=CONICAL_SURFACE('',#341,64.75,0.785398163397457);
#33=FACE_OUTER_BOUND('',#47,.T.);
#34=FACE_OUTER_BOUND('',#48,.T.);
#35=FACE_OUTER_BOUND('',#49,.T.);
#36=FACE_OUTER_BOUND('',#50,.T.);
#37=FACE_OUTER_BOUND('',#51,.T.);
#38=FACE_OUTER_BOUND('',#52,.T.);
#39=FACE_OUTER_BOUND('',#53,.T.);
#40=FACE_OUTER_BOUND('',#59,.T.);
#41=FACE_OUTER_BOUND('',#60,.T.);
#42=FACE_OUTER_BOUND('',#66,.T.);
#43=FACE_OUTER_BOUND('',#67,.T.);
#44=FACE_OUTER_BOUND('',#69,.T.);
#45=FACE_OUTER_BOUND('',#70,.T.);
#46=FACE_OUTER_BOUND('',#72,.T.);
#47=EDGE_LOOP('',(#193,#194,#195,#196,#197));
#48=EDGE_LOOP('',(#198,#199,#200,#201,#202));
#49=EDGE_LOOP('',(#203,#204,#205,#206,#207));
#50=EDGE_LOOP('',(#208,#209,#210,#211,#212));
#51=EDGE_LOOP('',(#213,#214,#215,#216,#217));
#52=EDGE_LOOP('',(#218,#219,#220,#221,#222,#223));
#53=EDGE_LOOP('',(#224));
#54=EDGE_LOOP('',(#225,#226));
#55=EDGE_LOOP('',(#227,#228));
#56=EDGE_LOOP('',(#229,#230));
#57=EDGE_LOOP('',(#231,#232));
#58=EDGE_LOOP('',(#233,#234));
#59=EDGE_LOOP('',(#235,#236,#237,#238,#239));
#60=EDGE_LOOP('',(#240));
#61=EDGE_LOOP('',(#241));
#62=EDGE_LOOP('',(#242));
#63=EDGE_LOOP('',(#243));
#64=EDGE_LOOP('',(#244));
#65=EDGE_LOOP('',(#245,#246));
#66=EDGE_LOOP('',(#247,#248,#249,#250,#251,#252));
#67=EDGE_LOOP('',(#253,#254));
#68=EDGE_LOOP('',(#255,#256));
#69=EDGE_LOOP('',(#257,#258,#259,#260,#261,#262));
#70=EDGE_LOOP('',(#263,#264));
#71=EDGE_LOOP('',(#265,#266));
#72=EDGE_LOOP('',(#267,#268,#269,#270,#271,#272));
#73=LINE('',#466,#83);
#74=LINE('',#474,#84);
#75=LINE('',#482,#85);
#76=LINE('',#490,#86);
#77=LINE('',#498,#87);
#78=LINE('',#505,#88);
#79=LINE('',#514,#89);
#80=LINE('',#525,#90);
#81=LINE('',#533,#91);
#82=LINE('',#543,#92);
#83=VECTOR('',#367,4.5);
#84=VECTOR('',#376,4.5);
#85=VECTOR('',#385,4.5);
#86=VECTOR('',#394,4.5);
#87=VECTOR('',#403,64.75);
#88=VECTOR('',#412,65.);
#89=VECTOR('',#423,64.75);
#90=VECTOR('',#436,31.75);
#91=VECTOR('',#445,30.);
#92=VECTOR('',#458,35.);
#93=CIRCLE('',#316,4.5);
#94=CIRCLE('',#317,4.5);
#95=CIRCLE('',#318,4.5);
#96=CIRCLE('',#320,4.5);
#97=CIRCLE('',#321,4.5);
#98=CIRCLE('',#322,4.5);
#99=CIRCLE('',#324,4.5);
#100=CIRCLE('',#325,4.5);
#101=CIRCLE('',#326,4.5);
#102=CIRCLE('',#328,4.5);
#103=CIRCLE('',#329,4.5);
#104=CIRCLE('',#330,4.5);
#105=CIRCLE('',#332,65.);
#106=CIRCLE('',#333,65.);
#107=CIRCLE('',#334,64.5);
#108=CIRCLE('',#336,65.);
#109=CIRCLE('',#337,65.);
#110=CIRCLE('',#339,35.);
#111=CIRCLE('',#340,35.);
#112=CIRCLE('',#342,64.5);
#113=CIRCLE('',#344,31.75);
#114=CIRCLE('',#345,31.75);
#115=CIRCLE('',#347,31.75);
#116=CIRCLE('',#348,31.75);
#117=CIRCLE('',#350,30.);
#118=CIRCLE('',#351,30.);
#119=CIRCLE('',#353,30.);
#120=CIRCLE('',#354,30.);
#121=CIRCLE('',#356,35.);
#122=CIRCLE('',#357,35.);
#123=VERTEX_POINT('',#461);
#124=VERTEX_POINT('',#462);
#125=VERTEX_POINT('',#465);
#126=VERTEX_POINT('',#469);
#127=VERTEX_POINT('',#470);
#128=VERTEX_POINT('',#473);
#129=VERTEX_POINT('',#477);
#130=VERTEX_POINT('',#478);
#131=VERTEX_POINT('',#481);
#132=VERTEX_POINT('',#485);
#133=VERTEX_POINT('',#486);
#134=VERTEX_POINT('',#489);
#135=VERTEX_POINT('',#493);
#136=VERTEX_POINT('',#494);
#137=VERTEX_POINT('',#497);
#138=VERTEX_POINT('',#501);
#139=VERTEX_POINT('',#502);
#140=VERTEX_POINT('',#507);
#141=VERTEX_POINT('',#508);
#142=VERTEX_POINT('',#512);
#143=VERTEX_POINT('',#516);
#144=VERTEX_POINT('',#517);
#145=VERTEX_POINT('',#521);
#146=VERTEX_POINT('',#522);
#147=VERTEX_POINT('',#527);
#148=VERTEX_POINT('',#528);
#149=VERTEX_POINT('',#532);
#150=VERTEX_POINT('',#534);
#151=VERTEX_POINT('',#538);
#152=VERTEX_POINT('',#539);
#153=EDGE_CURVE('',#123,#124,#93,.T.);
#154=EDGE_CURVE('',#124,#123,#94,.T.);
#155=EDGE_CURVE('',#124,#125,#73,.T.);
#156=EDGE_CURVE('',#125,#125,#95,.T.);
#157=EDGE_CURVE('',#126,#127,#96,.T.);
#158=EDGE_CURVE('',#127,#126,#97,.T.);
#159=EDGE_CURVE('',#127,#128,#74,.T.);
#160=EDGE_CURVE('',#128,#128,#98,.T.);
#161=EDGE_CURVE('',#129,#130,#99,.T.);
#162=EDGE_CURVE('',#130,#129,#100,.T.);
#163=EDGE_CURVE('',#130,#131,#75,.T.);
#164=EDGE_CURVE('',#131,#131,#101,.T.);
#165=EDGE_CURVE('',#132,#133,#102,.T.);
#166=EDGE_CURVE('',#133,#132,#103,.T.);
#167=EDGE_CURVE('',#133,#134,#76,.T.);
#168=EDGE_CURVE('',#134,#134,#104,.T.);
#169=EDGE_CURVE('',#135,#136,#105,.T.);
#170=EDGE_CURVE('',#136,#135,#106,.T.);
#171=EDGE_CURVE('',#135,#137,#77,.T.);
#172=EDGE_CURVE('',#137,#137,#107,.T.);
#173=EDGE_CURVE('',#138,#139,#108,.T.);
#174=EDGE_CURVE('',#139,#138,#109,.T.);
#175=EDGE_CURVE('',#139,#136,#78,.T.);
#176=EDGE_CURVE('',#140,#141,#110,.T.);
#177=EDGE_CURVE('',#141,#140,#111,.T.);
#178=EDGE_CURVE('',#142,#142,#112,.T.);
#179=EDGE_CURVE('',#142,#138,#79,.T.);
#180=EDGE_CURVE('',#143,#144,#113,.T.);
#181=EDGE_CURVE('',#144,#143,#114,.T.);
#182=EDGE_CURVE('',#145,#146,#115,.T.);
#183=EDGE_CURVE('',#146,#145,#116,.T.);
#184=EDGE_CURVE('',#146,#144,#80,.T.);
#185=EDGE_CURVE('',#147,#148,#117,.T.);
#186=EDGE_CURVE('',#148,#147,#118,.T.);
#187=EDGE_CURVE('',#148,#149,#81,.T.);
#188=EDGE_CURVE('',#150,#149,#119,.T.);
#189=EDGE_CURVE('',#149,#150,#120,.T.);
#190=EDGE_CURVE('',#151,#152,#121,.T.);
#191=EDGE_CURVE('',#152,#151,#122,.T.);
#192=EDGE_CURVE('',#152,#141,#82,.T.);
#193=ORIENTED_EDGE('',*,*,#153,.F.);
#194=ORIENTED_EDGE('',*,*,#154,.F.);
#195=ORIENTED_EDGE('',*,*,#155,.T.);
#196=ORIENTED_EDGE('',*,*,#156,.F.);
#197=ORIENTED_EDGE('',*,*,#155,.F.);
#198=ORIENTED_EDGE('',*,*,#157,.F.);
#199=ORIENTED_EDGE('',*,*,#158,.F.);
#200=ORIENTED_EDGE('',*,*,#159,.T.);
#201=ORIENTED_EDGE('',*,*,#160,.F.);
#202=ORIENTED_EDGE('',*,*,#159,.F.);
#203=ORIENTED_EDGE('',*,*,#161,.F.);
#204=ORIENTED_EDGE('',*,*,#162,.F.);
#205=ORIENTED_EDGE('',*,*,#163,.T.);
#206=ORIENTED_EDGE('',*,*,#164,.F.);
#207=ORIENTED_EDGE('',*,*,#163,.F.);
#208=ORIENTED_EDGE('',*,*,#165,.F.);
#209=ORIENTED_EDGE('',*,*,#166,.F.);
#210=ORIENTED_EDGE('',*,*,#167,.T.);
#211=ORIENTED_EDGE('',*,*,#168,.F.);
#212=ORIENTED_EDGE('',*,*,#167,.F.);
#213=ORIENTED_EDGE('',*,*,#169,.T.);
#214=ORIENTED_EDGE('',*,*,#170,.T.);
#215=ORIENTED_EDGE('',*,*,#171,.T.);
#216=ORIENTED_EDGE('',*,*,#172,.T.);
#217=ORIENTED_EDGE('',*,*,#171,.F.);
#218=ORIENTED_EDGE('',*,*,#173,.F.);
#219=ORIENTED_EDGE('',*,*,#174,.F.);
#220=ORIENTED_EDGE('',*,*,#175,.T.);
#221=ORIENTED_EDGE('',*,*,#169,.F.);
#222=ORIENTED_EDGE('',*,*,#170,.F.);
#223=ORIENTED_EDGE('',*,*,#175,.F.);
#224=ORIENTED_EDGE('',*,*,#172,.F.);
#225=ORIENTED_EDGE('',*,*,#153,.T.);
#226=ORIENTED_EDGE('',*,*,#154,.T.);
#227=ORIENTED_EDGE('',*,*,#157,.T.);
#228=ORIENTED_EDGE('',*,*,#158,.T.);
#229=ORIENTED_EDGE('',*,*,#161,.T.);
#230=ORIENTED_EDGE('',*,*,#162,.T.);
#231=ORIENTED_EDGE('',*,*,#165,.T.);
#232=ORIENTED_EDGE('',*,*,#166,.T.);
#233=ORIENTED_EDGE('',*,*,#176,.T.);
#234=ORIENTED_EDGE('',*,*,#177,.T.);
#235=ORIENTED_EDGE('',*,*,#178,.T.);
#236=ORIENTED_EDGE('',*,*,#179,.T.);
#237=ORIENTED_EDGE('',*,*,#173,.T.);
#238=ORIENTED_EDGE('',*,*,#174,.T.);
#239=ORIENTED_EDGE('',*,*,#179,.F.);
#240=ORIENTED_EDGE('',*,*,#178,.F.);
#241=ORIENTED_EDGE('',*,*,#156,.T.);
#242=ORIENTED_EDGE('',*,*,#160,.T.);
#243=ORIENTED_EDGE('',*,*,#164,.T.);
#244=ORIENTED_EDGE('',*,*,#168,.T.);
#245=ORIENTED_EDGE('',*,*,#180,.F.);
#246=ORIENTED_EDGE('',*,*,#181,.F.);
#247=ORIENTED_EDGE('',*,*,#182,.F.);
#248=ORIENTED_EDGE('',*,*,#183,.F.);
#249=ORIENTED_EDGE('',*,*,#184,.T.);
#250=ORIENTED_EDGE('',*,*,#181,.T.);
#251=ORIENTED_EDGE('',*,*,#180,.T.);
#252=ORIENTED_EDGE('',*,*,#184,.F.);
#253=ORIENTED_EDGE('',*,*,#182,.T.);
#254=ORIENTED_EDGE('',*,*,#183,.T.);
#255=ORIENTED_EDGE('',*,*,#185,.F.);
#256=ORIENTED_EDGE('',*,*,#186,.F.);
#257=ORIENTED_EDGE('',*,*,#185,.T.);
#258=ORIENTED_EDGE('',*,*,#187,.T.);
#259=ORIENTED_EDGE('',*,*,#188,.F.);
#260=ORIENTED_EDGE('',*,*,#189,.F.);
#261=ORIENTED_EDGE('',*,*,#187,.F.);
#262=ORIENTED_EDGE('',*,*,#186,.T.);
#263=ORIENTED_EDGE('',*,*,#190,.F.);
#264=ORIENTED_EDGE('',*,*,#191,.F.);
#265=ORIENTED_EDGE('',*,*,#188,.T.);
#266=ORIENTED_EDGE('',*,*,#189,.T.);
#267=ORIENTED_EDGE('',*,*,#190,.T.);
#268=ORIENTED_EDGE('',*,*,#192,.T.);
#269=ORIENTED_EDGE('',*,*,#176,.F.);
#270=ORIENTED_EDGE('',*,*,#177,.F.);
#271=ORIENTED_EDGE('',*,*,#192,.F.);
#272=ORIENTED_EDGE('',*,*,#191,.T.);
#273=CYLINDRICAL_SURFACE('',#315,4.5);
#274=CYLINDRICAL_SURFACE('',#319,4.5);
#275=CYLINDRICAL_SURFACE('',#323,4.5);
#276=CYLINDRICAL_SURFACE('',#327,4.5);
#277=CYLINDRICAL_SURFACE('',#335,65.);
#278=CYLINDRICAL_SURFACE('',#346,31.75);
#279=CYLINDRICAL_SURFACE('',#352,30.);
#280=CYLINDRICAL_SURFACE('',#358,35.);
#281=ADVANCED_FACE('',(#33),#273,.F.);
#282=ADVANCED_FACE('',(#34),#274,.F.);
#283=ADVANCED_FACE('',(#35),#275,.F.);
#284=ADVANCED_FACE('',(#36),#276,.F.);
#285=ADVANCED_FACE('',(#37),#31,.T.);
#286=ADVANCED_FACE('',(#38),#277,.T.);
#287=ADVANCED_FACE('',(#39,#15,#16,#17,#18,#19),#27,.T.);
#288=ADVANCED_FACE('',(#40),#32,.T.);
#289=ADVANCED_FACE('',(#41,#20,#21,#22,#23,#24),#28,.T.);
#290=ADVANCED_FACE('',(#42),#278,.T.);
#291=ADVANCED_FACE('',(#43,#25),#29,.T.);
#292=ADVANCED_FACE('',(#44),#279,.F.);
#293=ADVANCED_FACE('',(#45,#26),#30,.T.);
#294=ADVANCED_FACE('',(#46),#280,.F.);
#295=CLOSED_SHELL('',(#281,#282,#283,#284,#285,#286,#287,#288,#289,#290,
#291,#292,#293,#294));
#296=DERIVED_UNIT_ELEMENT(#298,1.);
#297=DERIVED_UNIT_ELEMENT(#549,3.);
#298=(
MASS_UNIT()
NAMED_UNIT(*)
SI_UNIT($,.GRAM.)
);
#299=DERIVED_UNIT((#296,#297));
#300=MEASURE_REPRESENTATION_ITEM('density measure',
POSITIVE_RATIO_MEASURE(8.),#299);
#301=PROPERTY_DEFINITION_REPRESENTATION(#306,#303);
#302=PROPERTY_DEFINITION_REPRESENTATION(#307,#304);
#303=REPRESENTATION('material name',(#305),#546);
#304=REPRESENTATION('density',(#300),#546);
#305=DESCRIPTIVE_REPRESENTATION_ITEM('Stainless Steel, Austenitic',
'Stainless Steel, Austenitic');
#306=PROPERTY_DEFINITION('material property','material name',#556);
#307=PROPERTY_DEFINITION('material property','density of part',#556);
#308=DATE_TIME_ROLE('creation_date');
#309=APPLIED_DATE_AND_TIME_ASSIGNMENT(#310,#308,(#556));
#310=DATE_AND_TIME(#311,#312);
#311=CALENDAR_DATE(2014,1,10);
#312=LOCAL_TIME(9,2,29.,#313);
#313=COORDINATED_UNIVERSAL_TIME_OFFSET(0,0,.BEHIND.);
#314=AXIS2_PLACEMENT_3D('placement',#459,#359,#360);
#315=AXIS2_PLACEMENT_3D('',#460,#361,#362);
#316=AXIS2_PLACEMENT_3D('',#463,#363,#364);
#317=AXIS2_PLACEMENT_3D('',#464,#365,#366);
#318=AXIS2_PLACEMENT_3D('',#467,#368,#369);
#319=AXIS2_PLACEMENT_3D('',#468,#370,#371);
#320=AXIS2_PLACEMENT_3D('',#471,#372,#373);
#321=AXIS2_PLACEMENT_3D('',#472,#374,#375);
#322=AXIS2_PLACEMENT_3D('',#475,#377,#378);
#323=AXIS2_PLACEMENT_3D('',#476,#379,#380);
#324=AXIS2_PLACEMENT_3D('',#479,#381,#382);
#325=AXIS2_PLACEMENT_3D('',#480,#383,#384);
#326=AXIS2_PLACEMENT_3D('',#483,#386,#387);
#327=AXIS2_PLACEMENT_3D('',#484,#388,#389);
#328=AXIS2_PLACEMENT_3D('',#487,#390,#391);
#329=AXIS2_PLACEMENT_3D('',#488,#392,#393);
#330=AXIS2_PLACEMENT_3D('',#491,#395,#396);
#331=AXIS2_PLACEMENT_3D('',#492,#397,#398);
#332=AXIS2_PLACEMENT_3D('',#495,#399,#400);
#333=AXIS2_PLACEMENT_3D('',#496,#401,#402);
#334=AXIS2_PLACEMENT_3D('',#499,#404,#405);
#335=AXIS2_PLACEMENT_3D('',#500,#406,#407);
#336=AXIS2_PLACEMENT_3D('',#503,#408,#409);
#337=AXIS2_PLACEMENT_3D('',#504,#410,#411);
#338=AXIS2_PLACEMENT_3D('',#506,#413,#414);
#339=AXIS2_PLACEMENT_3D('',#509,#415,#416);
#340=AXIS2_PLACEMENT_3D('',#510,#417,#418);
#341=AXIS2_PLACEMENT_3D('',#511,#419,#420);
#342=AXIS2_PLACEMENT_3D('',#513,#421,#422);
#343=AXIS2_PLACEMENT_3D('',#515,#424,#425);
#344=AXIS2_PLACEMENT_3D('',#518,#426,#427);
#345=AXIS2_PLACEMENT_3D('',#519,#428,#429);
#346=AXIS2_PLACEMENT_3D('',#520,#430,#431);
#347=AXIS2_PLACEMENT_3D('',#523,#432,#433);
#348=AXIS2_PLACEMENT_3D('',#524,#434,#435);
#349=AXIS2_PLACEMENT_3D('',#526,#437,#438);
#350=AXIS2_PLACEMENT_3D('',#529,#439,#440);
#351=AXIS2_PLACEMENT_3D('',#530,#441,#442);
#352=AXIS2_PLACEMENT_3D('',#531,#443,#444);
#353=AXIS2_PLACEMENT_3D('',#535,#446,#447);
#354=AXIS2_PLACEMENT_3D('',#536,#448,#449);
#355=AXIS2_PLACEMENT_3D('',#537,#450,#451);
#356=AXIS2_PLACEMENT_3D('',#540,#452,#453);
#357=AXIS2_PLACEMENT_3D('',#541,#454,#455);
#358=AXIS2_PLACEMENT_3D('',#542,#456,#457);
#359=DIRECTION('axis',(0.,0.,1.));
#360=DIRECTION('refdir',(1.,0.,0.));
#361=DIRECTION('center_axis',(0.,-1.,0.));
#362=DIRECTION('ref_axis',(-1.83697019872103E-16,0.,1.));
#363=DIRECTION('center_axis',(0.,1.,0.));
#364=DIRECTION('ref_axis',(-1.83697019872103E-16,0.,1.));
#365=DIRECTION('center_axis',(0.,1.,0.));
#366=DIRECTION('ref_axis',(-1.83697019872103E-16,0.,1.));
#367=DIRECTION('',(0.,1.,0.));
#368=DIRECTION('center_axis',(0.,-1.,0.));
#369=DIRECTION('ref_axis',(-1.83697019872103E-16,0.,1.));
#370=DIRECTION('center_axis',(0.,-1.,0.));
#371=DIRECTION('ref_axis',(-1.,0.,-1.22464679914735E-16));
#372=DIRECTION('center_axis',(0.,1.,0.));
#373=DIRECTION('ref_axis',(-1.,0.,-1.22464679914735E-16));
#374=DIRECTION('center_axis',(0.,1.,0.));
#375=DIRECTION('ref_axis',(-1.,0.,-1.22464679914735E-16));
#376=DIRECTION('',(0.,1.,0.));
#377=DIRECTION('center_axis',(0.,-1.,0.));
#378=DIRECTION('ref_axis',(-1.,0.,-1.22464679914735E-16));
#379=DIRECTION('center_axis',(0.,-1.,0.));
#380=DIRECTION('ref_axis',(6.12323399573677E-17,0.,-1.));
#381=DIRECTION('center_axis',(0.,1.,0.));
#382=DIRECTION('ref_axis',(6.12323399573677E-17,0.,-1.));
#383=DIRECTION('center_axis',(0.,1.,0.));
#384=DIRECTION('ref_axis',(6.12323399573677E-17,0.,-1.));
#385=DIRECTION('',(0.,1.,0.));
#386=DIRECTION('center_axis',(0.,-1.,0.));
#387=DIRECTION('ref_axis',(6.12323399573677E-17,0.,-1.));
#388=DIRECTION('center_axis',(0.,-1.,0.));
#389=DIRECTION('ref_axis',(1.,0.,0.));
#390=DIRECTION('center_axis',(0.,1.,0.));
#391=DIRECTION('ref_axis',(1.,0.,0.));
#392=DIRECTION('center_axis',(0.,1.,0.));
#393=DIRECTION('ref_axis',(1.,0.,0.));
#394=DIRECTION('',(0.,1.,0.));
#395=DIRECTION('center_axis',(0.,-1.,0.));
#396=DIRECTION('ref_axis',(1.,0.,0.));
#397=DIRECTION('center_axis',(0.,1.,0.));
#398=DIRECTION('ref_axis',(1.,0.,0.));
#399=DIRECTION('center_axis',(0.,-1.,0.));
#400=DIRECTION('ref_axis',(1.,0.,0.));
#401=DIRECTION('center_axis',(0.,-1.,0.));
#402=DIRECTION('ref_axis',(1.,0.,0.));
#403=DIRECTION('',(0.707106781186533,-0.707106781186562,-8.65956056235476E-17));
#404=DIRECTION('center_axis',(0.,1.,0.));
#405=DIRECTION('ref_axis',(1.,0.,0.));
#406=DIRECTION('center_axis',(0.,1.,0.));
#407=DIRECTION('ref_axis',(-1.,0.,0.));
#408=DIRECTION('center_axis',(0.,1.,0.));
#409=DIRECTION('ref_axis',(1.,0.,0.));
#410=DIRECTION('center_axis',(0.,1.,0.));
#411=DIRECTION('ref_axis',(1.,0.,0.));
#412=DIRECTION('',(0.,-1.,0.));
#413=DIRECTION('center_axis',(0.,-1.,0.));
#414=DIRECTION('ref_axis',(0.,0.,-1.));
#415=DIRECTION('center_axis',(0.,1.,0.));
#416=DIRECTION('ref_axis',(1.,0.,0.));
#417=DIRECTION('center_axis',(0.,1.,0.));
#418=DIRECTION('ref_axis',(1.,0.,0.));
#419=DIRECTION('center_axis',(0.,-1.,0.));
#420=DIRECTION('ref_axis',(1.,0.,0.));
#421=DIRECTION('center_axis',(0.,-1.,0.));
#422=DIRECTION('ref_axis',(1.,0.,0.));
#423=DIRECTION('',(-0.707106781186554,-0.707106781186541,8.65956056235501E-17));
#424=DIRECTION('center_axis',(0.,1.,0.));
#425=DIRECTION('ref_axis',(0.,0.,1.));
#426=DIRECTION('center_axis',(0.,1.,0.));
#427=DIRECTION('ref_axis',(1.,0.,0.));
#428=DIRECTION('center_axis',(0.,1.,0.));
#429=DIRECTION('ref_axis',(1.,0.,0.));
#430=DIRECTION('center_axis',(0.,1.,0.));
#431=DIRECTION('ref_axis',(-1.,0.,0.));
#432=DIRECTION('center_axis',(0.,1.,0.));
#433=DIRECTION('ref_axis',(1.,0.,0.));
#434=DIRECTION('center_axis',(0.,1.,0.));
#435=DIRECTION('ref_axis',(1.,0.,0.));
#436=DIRECTION('',(0.,-1.,0.));
#437=DIRECTION('center_axis',(0.,1.,0.));
#438=DIRECTION('ref_axis',(0.,0.,1.));
#439=DIRECTION('center_axis',(0.,1.,0.));
#440=DIRECTION('ref_axis',(1.,0.,0.));
#441=DIRECTION('center_axis',(0.,1.,0.));
#442=DIRECTION('ref_axis',(1.,0.,0.));
#443=DIRECTION('center_axis',(0.,1.,0.));
#444=DIRECTION('ref_axis',(-1.,0.,0.));
#445=DIRECTION('',(0.,-1.,0.));
#446=DIRECTION('center_axis',(0.,1.,0.));
#447=DIRECTION('ref_axis',(1.,0.,0.));
#448=DIRECTION('center_axis',(0.,1.,0.));
#449=DIRECTION('ref_axis',(1.,0.,0.));
#450=DIRECTION('center_axis',(0.,-1.,0.));
#451=DIRECTION('ref_axis',(0.,0.,-1.));
#452=DIRECTION('center_axis',(0.,1.,0.));
#453=DIRECTION('ref_axis',(1.,0.,0.));
#454=DIRECTION('center_axis',(0.,1.,0.));
#455=DIRECTION('ref_axis',(1.,0.,0.));
#456=DIRECTION('center_axis',(0.,1.,0.));
#457=DIRECTION('ref_axis',(-1.,0.,0.));
#458=DIRECTION('',(0.,-1.,0.));
#459=CARTESIAN_POINT('',(0.,0.,0.));
#460=CARTESIAN_POINT('Origin',(1.01033360929657E-14,209.284495364564,-55.));
#461=CARTESIAN_POINT('',(9.2766995035412E-15,0.,-50.5));
#462=CARTESIAN_POINT('',(1.14810637420064E-14,0.,-59.5));
#463=CARTESIAN_POINT('Origin',(1.01033360929657E-14,0.,-55.));
#464=CARTESIAN_POINT('Origin',(1.01033360929657E-14,0.,-55.));
#465=CARTESIAN_POINT('',(1.14810637420064E-14,12.,-59.5));
#466=CARTESIAN_POINT('',(1.14810637420064E-14,209.284495364564,-59.5));
#467=CARTESIAN_POINT('Origin',(1.01033360929657E-14,12.,-55.));
#468=CARTESIAN_POINT('Origin',(55.,209.284495364564,6.73555739531044E-15));
#469=CARTESIAN_POINT('',(50.5,0.,6.18446633569413E-15));
#470=CARTESIAN_POINT('',(59.5,0.,7.83773951454306E-15));
#471=CARTESIAN_POINT('Origin',(55.,0.,6.73555739531044E-15));
#472=CARTESIAN_POINT('Origin',(55.,0.,6.73555739531044E-15));
#473=CARTESIAN_POINT('',(59.5,12.,7.83773951454306E-15));
#474=CARTESIAN_POINT('',(59.5,209.284495364564,7.83773951454306E-15));
#475=CARTESIAN_POINT('Origin',(55.,12.,6.73555739531044E-15));
#476=CARTESIAN_POINT('Origin',(-3.36777869765522E-15,209.284495364564,55.));
#477=CARTESIAN_POINT('',(-3.09223316784707E-15,0.,50.5));
#478=CARTESIAN_POINT('',(-4.19441528707969E-15,0.,59.5));
#479=CARTESIAN_POINT('Origin',(-3.36777869765522E-15,0.,55.));
#480=CARTESIAN_POINT('Origin',(-3.36777869765522E-15,0.,55.));
#481=CARTESIAN_POINT('',(-4.19441528707969E-15,12.,59.5));
#482=CARTESIAN_POINT('',(-4.19441528707969E-15,209.284495364564,59.5));
#483=CARTESIAN_POINT('Origin',(-3.36777869765522E-15,12.,55.));
#484=CARTESIAN_POINT('Origin',(-55.,209.284495364564,0.));
#485=CARTESIAN_POINT('',(-50.5,0.,0.));
#486=CARTESIAN_POINT('',(-59.5,0.,-5.51091059616309E-16));
#487=CARTESIAN_POINT('Origin',(-55.,0.,0.));
#488=CARTESIAN_POINT('Origin',(-55.,0.,0.));
#489=CARTESIAN_POINT('',(-59.5,12.,-5.51091059616309E-16));
#490=CARTESIAN_POINT('',(-59.5,209.284495364564,-5.51091059616309E-16));
#491=CARTESIAN_POINT('Origin',(-55.,12.,0.));
#492=CARTESIAN_POINT('Origin',(0.,0.25,0.));
#493=CARTESIAN_POINT('',(-65.,0.5,-7.9602041944578E-15));
#494=CARTESIAN_POINT('',(65.,0.5,-7.9602041944578E-15));
#495=CARTESIAN_POINT('Origin',(0.,0.5,0.));
#496=CARTESIAN_POINT('Origin',(0.,0.5,0.));
#497=CARTESIAN_POINT('',(-64.5,0.,7.89897185450043E-15));
#498=CARTESIAN_POINT('',(-64.75,0.25,7.92958802447912E-15));
#499=CARTESIAN_POINT('Origin',(0.,0.,0.));
#500=CARTESIAN_POINT('Origin',(0.,5.99999999999999,0.));
#501=CARTESIAN_POINT('',(-65.,11.5,7.9602041944578E-15));
#502=CARTESIAN_POINT('',(65.,11.5,-7.9602041944578E-15));
#503=CARTESIAN_POINT('Origin',(0.,11.5,0.));
#504=CARTESIAN_POINT('Origin',(0.,11.5,0.));
#505=CARTESIAN_POINT('',(65.,5.99999999999999,-7.9602041944578E-15));
#506=CARTESIAN_POINT('Origin',(-65.,0.,0.));
#507=CARTESIAN_POINT('',(-35.,0.,0.));
#508=CARTESIAN_POINT('',(35.,0.,-4.28626379701574E-15));
#509=CARTESIAN_POINT('Origin',(0.,0.,0.));
#510=CARTESIAN_POINT('Origin',(0.,0.,0.));
#511=CARTESIAN_POINT('Origin',(0.,11.75,0.));
#512=CARTESIAN_POINT('',(-64.5,12.,-7.89897185450043E-15));
#513=CARTESIAN_POINT('Origin',(0.,12.,0.));
#514=CARTESIAN_POINT('',(-64.75,11.75,7.92958802447911E-15));
#515=CARTESIAN_POINT('Origin',(-31.75,12.,0.));
#516=CARTESIAN_POINT('',(-31.75,12.,0.));
#517=CARTESIAN_POINT('',(31.75,12.,-3.88825358729285E-15));
#518=CARTESIAN_POINT('Origin',(0.,12.,0.));
#519=CARTESIAN_POINT('Origin',(0.,12.,0.));
#520=CARTESIAN_POINT('Origin',(0.,56.,0.));
#521=CARTESIAN_POINT('',(-31.75,100.,0.));
#522=CARTESIAN_POINT('',(31.75,100.,-3.88825358729285E-15));
#523=CARTESIAN_POINT('Origin',(0.,100.,0.));
#524=CARTESIAN_POINT('Origin',(0.,100.,0.));
#525=CARTESIAN_POINT('',(31.75,56.,-3.88825358729285E-15));
#526=CARTESIAN_POINT('Origin',(-30.,100.,0.));
#527=CARTESIAN_POINT('',(-30.,100.,0.));
#528=CARTESIAN_POINT('',(30.,100.,-3.67394039744206E-15));
#529=CARTESIAN_POINT('Origin',(0.,100.,0.));
#530=CARTESIAN_POINT('Origin',(0.,100.,0.));
#531=CARTESIAN_POINT('Origin',(0.,52.3,0.));
#532=CARTESIAN_POINT('',(30.,4.60000000000001,-3.67394039744206E-15));
#533=CARTESIAN_POINT('',(30.,52.3,-3.67394039744206E-15));
#534=CARTESIAN_POINT('',(-30.,4.60000000000001,0.));
#535=CARTESIAN_POINT('Origin',(0.,4.60000000000001,0.));
#536=CARTESIAN_POINT('Origin',(0.,4.60000000000001,0.));
#537=CARTESIAN_POINT('Origin',(-35.,4.6,0.));
#538=CARTESIAN_POINT('',(-35.,4.6,0.));
#539=CARTESIAN_POINT('',(35.,4.6,-4.28626379701574E-15));
#540=CARTESIAN_POINT('Origin',(0.,4.6,0.));
#541=CARTESIAN_POINT('Origin',(0.,4.6,0.));
#542=CARTESIAN_POINT('Origin',(0.,2.3,0.));
#543=CARTESIAN_POINT('',(35.,2.3,-4.28626379701574E-15));
#544=UNCERTAINTY_MEASURE_WITH_UNIT(LENGTH_MEASURE(0.01),#548,
'DISTANCE_ACCURACY_VALUE',
'Maximum model space distance between geometric entities at asserted c
onnectivities');
#545=UNCERTAINTY_MEASURE_WITH_UNIT(LENGTH_MEASURE(0.01),#548,
'DISTANCE_ACCURACY_VALUE',
'Maximum model space distance between geometric entities at asserted c
onnectivities');
#546=(
GEOMETRIC_REPRESENTATION_CONTEXT(3)
GLOBAL_UNCERTAINTY_ASSIGNED_CONTEXT((#544))
GLOBAL_UNIT_ASSIGNED_CONTEXT((#548,#551,#550))
REPRESENTATION_CONTEXT('','3D')
);
#547=(
GEOMETRIC_REPRESENTATION_CONTEXT(3)
GLOBAL_UNCERTAINTY_ASSIGNED_CONTEXT((#545))
GLOBAL_UNIT_ASSIGNED_CONTEXT((#548,#551,#550))
REPRESENTATION_CONTEXT('','3D')
);
#548=(
LENGTH_UNIT()
NAMED_UNIT(*)
SI_UNIT(.MILLI.,.METRE.)
);
#549=(
LENGTH_UNIT()
NAMED_UNIT(*)
SI_UNIT(.CENTI.,.METRE.)
);
#550=(
NAMED_UNIT(*)
SI_UNIT($,.STERADIAN.)
SOLID_ANGLE_UNIT()
);
#551=(
NAMED_UNIT(*)
PLANE_ANGLE_UNIT()
SI_UNIT($,.RADIAN.)
);
#552=SHAPE_DEFINITION_REPRESENTATION(#553,#554);
#553=PRODUCT_DEFINITION_SHAPE('',$,#556);
#554=SHAPE_REPRESENTATION('',(#314),#546);
#555=PRODUCT_DEFINITION_CONTEXT('part definition',#560,'design');
#556=PRODUCT_DEFINITION('FL-HN63LFB','FL-HN63LFB',#557,#555);
#557=PRODUCT_DEFINITION_FORMATION('',$,#562);
#558=PRODUCT_RELATED_PRODUCT_CATEGORY('FL-HN63LFB','FL-HN63LFB',(#562));
#559=APPLICATION_PROTOCOL_DEFINITION('international standard',
'automotive_design',2009,#560);
#560=APPLICATION_CONTEXT(
'Core Data for Automotive Mechanical Design Process');
#561=PRODUCT_CONTEXT('part definition',#560,'mechanical');
#562=PRODUCT('FL-HN63LFB','FL-HN63LFB',$,(#561));
#563=PRESENTATION_STYLE_ASSIGNMENT((#564));
#564=SURFACE_STYLE_USAGE(.BOTH.,#565);
#565=SURFACE_SIDE_STYLE('',(#566));
#566=SURFACE_STYLE_FILL_AREA(#567);
#567=FILL_AREA_STYLE('',(#568));
#568=FILL_AREA_STYLE_COLOUR('',#569);
#569=COLOUR_RGB('',0.745098039215686,0.737254901960784,0.729411764705882);
ENDSEC;
END-ISO-10303-21;
