ISO-10303-21;
HEADER;
/* Generated by software containing ST-Developer
 * from STEP Tools, Inc. (www.steptools.com) 
 */

FILE_DESCRIPTION(
/* description */ (''),
/* implementation_level */ '2;1');

FILE_NAME(
/* name */ 
'G:\\FLANGES & FITTINGS\\Elbows KFLF\\Step files\\FL-EL45-25KF.stp',
/* time_stamp */ '2018-12-04T13:12:40+00:00',
/* author */ ('paul'),
/* organization */ (''),
/* preprocessor_version */ 'ST-DEVELOPER v17.2',
/* originating_system */ 'Autodesk Inventor 2019',
/* authorisation */ '');

FILE_SCHEMA (('AUTOMOTIVE_DESIGN { 1 0 10303 214 3 1 1 }'));
ENDSEC;

DATA;
#10=MECHANICAL_DESIGN_GEOMETRIC_PRESENTATION_REPRESENTATION('',(#29,#30),
#571);
#11=ITEM_DEFINED_TRANSFORMATION($,$,#331,#375);
#12=ITEM_DEFINED_TRANSFORMATION($,$,#331,#376);
#13=ITEM_DEFINED_TRANSFORMATION($,$,#356,#377);
#14=(
REPRESENTATION_RELATIONSHIP($,$,#586,#585)
REPRESENTATION_RELATIONSHIP_WITH_TRANSFORMATION(#11)
SHAPE_REPRESENTATION_RELATIONSHIP()
);
#15=(
REPRESENTATION_RELATIONSHIP($,$,#586,#585)
REPRESENTATION_RELATIONSHIP_WITH_TRANSFORMATION(#12)
SHAPE_REPRESENTATION_RELATIONSHIP()
);
#16=(
REPRESENTATION_RELATIONSHIP($,$,#587,#585)
REPRESENTATION_RELATIONSHIP_WITH_TRANSFORMATION(#13)
SHAPE_REPRESENTATION_RELATIONSHIP()
);
#17=CONTEXT_DEPENDENT_SHAPE_REPRESENTATION(#14,#582);
#18=CONTEXT_DEPENDENT_SHAPE_REPRESENTATION(#15,#583);
#19=CONTEXT_DEPENDENT_SHAPE_REPRESENTATION(#16,#584);
#20=NEXT_ASSEMBLY_USAGE_OCCURRENCE('FL-25KF-25W:1','FL-25KF-25W:1',
'FL-25KF-25W:1',#589,#590,'FL-25KF-25W:1');
#21=NEXT_ASSEMBLY_USAGE_OCCURRENCE('FL-25KF-25W:2','FL-25KF-25W:2',
'FL-25KF-25W:2',#589,#590,'FL-25KF-25W:2');
#22=NEXT_ASSEMBLY_USAGE_OCCURRENCE('tube:1','tube:1','tube:1',#589,#591,
'tube:1');
#23=TOROIDAL_SURFACE('',#360,35.595164763629,11.1);
#24=TOROIDAL_SURFACE('',#368,35.595164763629,12.7);
#25=SHAPE_REPRESENTATION_RELATIONSHIP('SRR','None',#586,#27);
#26=SHAPE_REPRESENTATION_RELATIONSHIP('SRR','None',#587,#28);
#27=ADVANCED_BREP_SHAPE_REPRESENTATION('',(#31),#569);
#28=ADVANCED_BREP_SHAPE_REPRESENTATION('',(#32),#570);
#29=STYLED_ITEM('',(#303),#31);
#30=STYLED_ITEM('',(#303),#32);
#31=MANIFOLD_SOLID_BREP('Solid1',#278);
#32=MANIFOLD_SOLID_BREP('Solid3',#279);
#33=FACE_BOUND('',#64,.T.);
#34=FACE_BOUND('',#67,.T.);
#35=FACE_BOUND('',#70,.T.);
#36=FACE_BOUND('',#78,.T.);
#37=FACE_BOUND('',#80,.T.);
#38=PLANE('',#343);
#39=PLANE('',#349);
#40=PLANE('',#355);
#41=PLANE('',#373);
#42=PLANE('',#374);
#43=CONICAL_SURFACE('',#337,16.4,1.30899693899575);
#44=FACE_OUTER_BOUND('',#60,.T.);
#45=FACE_OUTER_BOUND('',#61,.T.);
#46=FACE_OUTER_BOUND('',#62,.T.);
#47=FACE_OUTER_BOUND('',#63,.T.);
#48=FACE_OUTER_BOUND('',#65,.T.);
#49=FACE_OUTER_BOUND('',#66,.T.);
#50=FACE_OUTER_BOUND('',#68,.T.);
#51=FACE_OUTER_BOUND('',#69,.T.);
#52=FACE_OUTER_BOUND('',#71,.T.);
#53=FACE_OUTER_BOUND('',#72,.T.);
#54=FACE_OUTER_BOUND('',#73,.T.);
#55=FACE_OUTER_BOUND('',#74,.T.);
#56=FACE_OUTER_BOUND('',#75,.T.);
#57=FACE_OUTER_BOUND('',#76,.T.);
#58=FACE_OUTER_BOUND('',#77,.T.);
#59=FACE_OUTER_BOUND('',#79,.T.);
#60=EDGE_LOOP('',(#184,#185,#186,#187,#188,#189));
#61=EDGE_LOOP('',(#190,#191,#192,#193,#194,#195));
#62=EDGE_LOOP('',(#196,#197,#198,#199,#200,#201));
#63=EDGE_LOOP('',(#202,#203));
#64=EDGE_LOOP('',(#204,#205));
#65=EDGE_LOOP('',(#206,#207,#208,#209,#210,#211));
#66=EDGE_LOOP('',(#212,#213));
#67=EDGE_LOOP('',(#214,#215));
#68=EDGE_LOOP('',(#216,#217,#218,#219,#220,#221));
#69=EDGE_LOOP('',(#222,#223));
#70=EDGE_LOOP('',(#224,#225));
#71=EDGE_LOOP('',(#226,#227,#228,#229));
#72=EDGE_LOOP('',(#230,#231,#232,#233));
#73=EDGE_LOOP('',(#234,#235,#236,#237));
#74=EDGE_LOOP('',(#238,#239,#240,#241));
#75=EDGE_LOOP('',(#242,#243,#244,#245));
#76=EDGE_LOOP('',(#246,#247,#248,#249));
#77=EDGE_LOOP('',(#250));
#78=EDGE_LOOP('',(#251));
#79=EDGE_LOOP('',(#252));
#80=EDGE_LOOP('',(#253));
#81=LINE('',#491,#90);
#82=LINE('',#500,#91);
#83=LINE('',#503,#92);
#84=LINE('',#514,#93);
#85=LINE('',#525,#94);
#86=LINE('',#535,#95);
#87=LINE('',#544,#96);
#88=LINE('',#549,#97);
#89=LINE('',#557,#98);
#90=VECTOR('',#388,20.);
#91=VECTOR('',#399,16.4);
#92=VECTOR('',#402,12.8);
#93=VECTOR('',#415,11.875);
#94=VECTOR('',#428,13.1);
#95=VECTOR('',#441,11.1);
#96=VECTOR('',#454,11.1);
#97=VECTOR('',#459,12.7);
#98=VECTOR('',#470,12.7);
#99=CIRCLE('',#333,20.);
#100=CIRCLE('',#334,20.);
#101=CIRCLE('',#335,20.);
#102=CIRCLE('',#336,20.);
#103=CIRCLE('',#338,12.8);
#104=CIRCLE('',#339,12.8);
#105=CIRCLE('',#341,12.8);
#106=CIRCLE('',#342,12.8);
#107=CIRCLE('',#344,11.875);
#108=CIRCLE('',#345,11.875);
#109=CIRCLE('',#347,11.875);
#110=CIRCLE('',#348,11.875);
#111=CIRCLE('',#350,13.1);
#112=CIRCLE('',#351,13.1);
#113=CIRCLE('',#353,13.1);
#114=CIRCLE('',#354,13.1);
#115=CIRCLE('',#358,11.1);
#116=CIRCLE('',#359,11.1);
#117=CIRCLE('',#361,11.1);
#118=CIRCLE('',#362,24.4951647636289);
#119=CIRCLE('',#364,11.1);
#120=CIRCLE('',#366,12.7);
#121=CIRCLE('',#367,12.7);
#122=CIRCLE('',#369,22.895164763629);
#123=CIRCLE('',#370,12.7);
#124=CIRCLE('',#372,12.7);
#125=VERTEX_POINT('',#486);
#126=VERTEX_POINT('',#487);
#127=VERTEX_POINT('',#490);
#128=VERTEX_POINT('',#492);
#129=VERTEX_POINT('',#496);
#130=VERTEX_POINT('',#497);
#131=VERTEX_POINT('',#502);
#132=VERTEX_POINT('',#504);
#133=VERTEX_POINT('',#508);
#134=VERTEX_POINT('',#509);
#135=VERTEX_POINT('',#513);
#136=VERTEX_POINT('',#515);
#137=VERTEX_POINT('',#519);
#138=VERTEX_POINT('',#520);
#139=VERTEX_POINT('',#524);
#140=VERTEX_POINT('',#526);
#141=VERTEX_POINT('',#532);
#142=VERTEX_POINT('',#534);
#143=VERTEX_POINT('',#538);
#144=VERTEX_POINT('',#542);
#145=VERTEX_POINT('',#546);
#146=VERTEX_POINT('',#548);
#147=VERTEX_POINT('',#552);
#148=VERTEX_POINT('',#556);
#149=EDGE_CURVE('',#125,#126,#99,.T.);
#150=EDGE_CURVE('',#126,#125,#100,.T.);
#151=EDGE_CURVE('',#126,#127,#81,.T.);
#152=EDGE_CURVE('',#127,#128,#101,.T.);
#153=EDGE_CURVE('',#128,#127,#102,.T.);
#154=EDGE_CURVE('',#129,#130,#103,.T.);
#155=EDGE_CURVE('',#130,#129,#104,.T.);
#156=EDGE_CURVE('',#130,#126,#82,.T.);
#157=EDGE_CURVE('',#130,#131,#83,.T.);
#158=EDGE_CURVE('',#132,#131,#105,.T.);
#159=EDGE_CURVE('',#131,#132,#106,.T.);
#160=EDGE_CURVE('',#133,#134,#107,.T.);
#161=EDGE_CURVE('',#134,#133,#108,.T.);
#162=EDGE_CURVE('',#134,#135,#84,.T.);
#163=EDGE_CURVE('',#136,#135,#109,.T.);
#164=EDGE_CURVE('',#135,#136,#110,.T.);
#165=EDGE_CURVE('',#137,#138,#111,.T.);
#166=EDGE_CURVE('',#138,#137,#112,.T.);
#167=EDGE_CURVE('',#138,#139,#85,.T.);
#168=EDGE_CURVE('',#140,#139,#113,.T.);
#169=EDGE_CURVE('',#139,#140,#114,.T.);
#170=EDGE_CURVE('',#141,#141,#115,.T.);
#171=EDGE_CURVE('',#141,#142,#86,.T.);
#172=EDGE_CURVE('',#142,#142,#116,.T.);
#173=EDGE_CURVE('',#143,#143,#117,.T.);
#174=EDGE_CURVE('',#143,#141,#118,.T.);
#175=EDGE_CURVE('',#144,#144,#119,.T.);
#176=EDGE_CURVE('',#144,#143,#87,.T.);
#177=EDGE_CURVE('',#145,#145,#120,.T.);
#178=EDGE_CURVE('',#145,#146,#88,.T.);
#179=EDGE_CURVE('',#146,#146,#121,.T.);
#180=EDGE_CURVE('',#146,#147,#122,.T.);
#181=EDGE_CURVE('',#147,#147,#123,.T.);
#182=EDGE_CURVE('',#147,#148,#89,.T.);
#183=EDGE_CURVE('',#148,#148,#124,.T.);
#184=ORIENTED_EDGE('',*,*,#149,.F.);
#185=ORIENTED_EDGE('',*,*,#150,.F.);
#186=ORIENTED_EDGE('',*,*,#151,.T.);
#187=ORIENTED_EDGE('',*,*,#152,.T.);
#188=ORIENTED_EDGE('',*,*,#153,.T.);
#189=ORIENTED_EDGE('',*,*,#151,.F.);
#190=ORIENTED_EDGE('',*,*,#154,.F.);
#191=ORIENTED_EDGE('',*,*,#155,.F.);
#192=ORIENTED_EDGE('',*,*,#156,.T.);
#193=ORIENTED_EDGE('',*,*,#150,.T.);
#194=ORIENTED_EDGE('',*,*,#149,.T.);
#195=ORIENTED_EDGE('',*,*,#156,.F.);
#196=ORIENTED_EDGE('',*,*,#154,.T.);
#197=ORIENTED_EDGE('',*,*,#157,.T.);
#198=ORIENTED_EDGE('',*,*,#158,.F.);
#199=ORIENTED_EDGE('',*,*,#159,.F.);
#200=ORIENTED_EDGE('',*,*,#157,.F.);
#201=ORIENTED_EDGE('',*,*,#155,.T.);
#202=ORIENTED_EDGE('',*,*,#158,.T.);
#203=ORIENTED_EDGE('',*,*,#159,.T.);
#204=ORIENTED_EDGE('',*,*,#160,.F.);
#205=ORIENTED_EDGE('',*,*,#161,.F.);
#206=ORIENTED_EDGE('',*,*,#160,.T.);
#207=ORIENTED_EDGE('',*,*,#162,.T.);
#208=ORIENTED_EDGE('',*,*,#163,.F.);
#209=ORIENTED_EDGE('',*,*,#164,.F.);
#210=ORIENTED_EDGE('',*,*,#162,.F.);
#211=ORIENTED_EDGE('',*,*,#161,.T.);
#212=ORIENTED_EDGE('',*,*,#165,.F.);
#213=ORIENTED_EDGE('',*,*,#166,.F.);
#214=ORIENTED_EDGE('',*,*,#163,.T.);
#215=ORIENTED_EDGE('',*,*,#164,.T.);
#216=ORIENTED_EDGE('',*,*,#165,.T.);
#217=ORIENTED_EDGE('',*,*,#167,.T.);
#218=ORIENTED_EDGE('',*,*,#168,.F.);
#219=ORIENTED_EDGE('',*,*,#169,.F.);
#220=ORIENTED_EDGE('',*,*,#167,.F.);
#221=ORIENTED_EDGE('',*,*,#166,.T.);
#222=ORIENTED_EDGE('',*,*,#153,.F.);
#223=ORIENTED_EDGE('',*,*,#152,.F.);
#224=ORIENTED_EDGE('',*,*,#168,.T.);
#225=ORIENTED_EDGE('',*,*,#169,.T.);
#226=ORIENTED_EDGE('',*,*,#170,.F.);
#227=ORIENTED_EDGE('',*,*,#171,.T.);
#228=ORIENTED_EDGE('',*,*,#172,.F.);
#229=ORIENTED_EDGE('',*,*,#171,.F.);
#230=ORIENTED_EDGE('',*,*,#173,.F.);
#231=ORIENTED_EDGE('',*,*,#174,.T.);
#232=ORIENTED_EDGE('',*,*,#170,.T.);
#233=ORIENTED_EDGE('',*,*,#174,.F.);
#234=ORIENTED_EDGE('',*,*,#175,.F.);
#235=ORIENTED_EDGE('',*,*,#176,.T.);
#236=ORIENTED_EDGE('',*,*,#173,.T.);
#237=ORIENTED_EDGE('',*,*,#176,.F.);
#238=ORIENTED_EDGE('',*,*,#177,.F.);
#239=ORIENTED_EDGE('',*,*,#178,.T.);
#240=ORIENTED_EDGE('',*,*,#179,.T.);
#241=ORIENTED_EDGE('',*,*,#178,.F.);
#242=ORIENTED_EDGE('',*,*,#179,.F.);
#243=ORIENTED_EDGE('',*,*,#180,.T.);
#244=ORIENTED_EDGE('',*,*,#181,.T.);
#245=ORIENTED_EDGE('',*,*,#180,.F.);
#246=ORIENTED_EDGE('',*,*,#181,.F.);
#247=ORIENTED_EDGE('',*,*,#182,.T.);
#248=ORIENTED_EDGE('',*,*,#183,.F.);
#249=ORIENTED_EDGE('',*,*,#182,.F.);
#250=ORIENTED_EDGE('',*,*,#177,.T.);
#251=ORIENTED_EDGE('',*,*,#172,.T.);
#252=ORIENTED_EDGE('',*,*,#183,.T.);
#253=ORIENTED_EDGE('',*,*,#175,.T.);
#254=CYLINDRICAL_SURFACE('',#332,20.);
#255=CYLINDRICAL_SURFACE('',#340,12.8);
#256=CYLINDRICAL_SURFACE('',#346,11.875);
#257=CYLINDRICAL_SURFACE('',#352,13.1);
#258=CYLINDRICAL_SURFACE('',#357,11.1);
#259=CYLINDRICAL_SURFACE('',#363,11.1);
#260=CYLINDRICAL_SURFACE('',#365,12.7);
#261=CYLINDRICAL_SURFACE('',#371,12.7);
#262=ADVANCED_FACE('',(#44),#254,.T.);
#263=ADVANCED_FACE('',(#45),#43,.T.);
#264=ADVANCED_FACE('',(#46),#255,.F.);
#265=ADVANCED_FACE('',(#47,#33),#38,.T.);
#266=ADVANCED_FACE('',(#48),#256,.F.);
#267=ADVANCED_FACE('',(#49,#34),#39,.T.);
#268=ADVANCED_FACE('',(#50),#257,.F.);
#269=ADVANCED_FACE('',(#51,#35),#40,.T.);
#270=ADVANCED_FACE('',(#52),#258,.F.);
#271=ADVANCED_FACE('',(#53),#23,.F.);
#272=ADVANCED_FACE('',(#54),#259,.F.);
#273=ADVANCED_FACE('',(#55),#260,.T.);
#274=ADVANCED_FACE('',(#56),#24,.T.);
#275=ADVANCED_FACE('',(#57),#261,.T.);
#276=ADVANCED_FACE('',(#58,#36),#41,.T.);
#277=ADVANCED_FACE('',(#59,#37),#42,.F.);
#278=CLOSED_SHELL('',(#262,#263,#264,#265,#266,#267,#268,#269));
#279=CLOSED_SHELL('',(#270,#271,#272,#273,#274,#275,#276,#277));
#280=DERIVED_UNIT_ELEMENT(#284,1.);
#281=DERIVED_UNIT_ELEMENT(#573,3.);
#282=DERIVED_UNIT_ELEMENT(#284,1.);
#283=DERIVED_UNIT_ELEMENT(#573,3.);
#284=(
MASS_UNIT()
NAMED_UNIT(*)
SI_UNIT($,.GRAM.)
);
#285=DERIVED_UNIT((#280,#281));
#286=DERIVED_UNIT((#282,#283));
#287=MEASURE_REPRESENTATION_ITEM('density measure',
POSITIVE_RATIO_MEASURE(8.),#285);
#288=MEASURE_REPRESENTATION_ITEM('density measure',
POSITIVE_RATIO_MEASURE(8.),#286);
#289=PROPERTY_DEFINITION_REPRESENTATION(#299,#293);
#290=PROPERTY_DEFINITION_REPRESENTATION(#300,#294);
#291=PROPERTY_DEFINITION_REPRESENTATION(#301,#295);
#292=PROPERTY_DEFINITION_REPRESENTATION(#302,#296);
#293=REPRESENTATION('material name',(#297),#569);
#294=REPRESENTATION('density',(#287),#569);
#295=REPRESENTATION('material name',(#298),#570);
#296=REPRESENTATION('density',(#288),#570);
#297=DESCRIPTIVE_REPRESENTATION_ITEM('Stainless Steel AISI 304',
'Stainless Steel AISI 304');
#298=DESCRIPTIVE_REPRESENTATION_ITEM('Stainless Steel AISI 304',
'Stainless Steel AISI 304');
#299=PROPERTY_DEFINITION('material property','material name',#590);
#300=PROPERTY_DEFINITION('material property','density of part',#590);
#301=PROPERTY_DEFINITION('material property','material name',#591);
#302=PROPERTY_DEFINITION('material property','density of part',#591);
#303=PRESENTATION_STYLE_ASSIGNMENT((#304));
#304=SURFACE_STYLE_USAGE(.BOTH.,#307);
#305=SURFACE_STYLE_RENDERING_WITH_PROPERTIES($,#311,(#306));
#306=SURFACE_STYLE_TRANSPARENT(1.);
#307=SURFACE_SIDE_STYLE('',(#308,#305));
#308=SURFACE_STYLE_FILL_AREA(#309);
#309=FILL_AREA_STYLE('',(#310));
#310=FILL_AREA_STYLE_COLOUR('',#311);
#311=COLOUR_RGB('',0.745098039215686,0.737254901960784,0.729411764705882);
#312=DATE_TIME_ROLE('creation_date');
#313=DATE_TIME_ROLE('creation_date');
#314=DATE_TIME_ROLE('creation_date');
#315=APPLIED_DATE_AND_TIME_ASSIGNMENT(#318,#312,(#589));
#316=APPLIED_DATE_AND_TIME_ASSIGNMENT(#319,#313,(#590));
#317=APPLIED_DATE_AND_TIME_ASSIGNMENT(#320,#314,(#591));
#318=DATE_AND_TIME(#321,#324);
#319=DATE_AND_TIME(#322,#325);
#320=DATE_AND_TIME(#323,#326);
#321=CALENDAR_DATE(2018,21,11);
#322=CALENDAR_DATE(2014,18,11);
#323=CALENDAR_DATE(2018,20,11);
#324=LOCAL_TIME(17,18,6.,#327);
#325=LOCAL_TIME(10,34,47.,#328);
#326=LOCAL_TIME(16,3,56.,#329);
#327=COORDINATED_UNIVERSAL_TIME_OFFSET(0,0,.BEHIND.);
#328=COORDINATED_UNIVERSAL_TIME_OFFSET(0,0,.BEHIND.);
#329=COORDINATED_UNIVERSAL_TIME_OFFSET(0,0,.BEHIND.);
#330=AXIS2_PLACEMENT_3D('placement',#483,#378,#379);
#331=AXIS2_PLACEMENT_3D('placement',#484,#380,#381);
#332=AXIS2_PLACEMENT_3D('',#485,#382,#383);
#333=AXIS2_PLACEMENT_3D('',#488,#384,#385);
#334=AXIS2_PLACEMENT_3D('',#489,#386,#387);
#335=AXIS2_PLACEMENT_3D('',#493,#389,#390);
#336=AXIS2_PLACEMENT_3D('',#494,#391,#392);
#337=AXIS2_PLACEMENT_3D('',#495,#393,#394);
#338=AXIS2_PLACEMENT_3D('',#498,#395,#396);
#339=AXIS2_PLACEMENT_3D('',#499,#397,#398);
#340=AXIS2_PLACEMENT_3D('',#501,#400,#401);
#341=AXIS2_PLACEMENT_3D('',#505,#403,#404);
#342=AXIS2_PLACEMENT_3D('',#506,#405,#406);
#343=AXIS2_PLACEMENT_3D('',#507,#407,#408);
#344=AXIS2_PLACEMENT_3D('',#510,#409,#410);
#345=AXIS2_PLACEMENT_3D('',#511,#411,#412);
#346=AXIS2_PLACEMENT_3D('',#512,#413,#414);
#347=AXIS2_PLACEMENT_3D('',#516,#416,#417);
#348=AXIS2_PLACEMENT_3D('',#517,#418,#419);
#349=AXIS2_PLACEMENT_3D('',#518,#420,#421);
#350=AXIS2_PLACEMENT_3D('',#521,#422,#423);
#351=AXIS2_PLACEMENT_3D('',#522,#424,#425);
#352=AXIS2_PLACEMENT_3D('',#523,#426,#427);
#353=AXIS2_PLACEMENT_3D('',#527,#429,#430);
#354=AXIS2_PLACEMENT_3D('',#528,#431,#432);
#355=AXIS2_PLACEMENT_3D('',#529,#433,#434);
#356=AXIS2_PLACEMENT_3D('placement',#530,#435,#436);
#357=AXIS2_PLACEMENT_3D('',#531,#437,#438);
#358=AXIS2_PLACEMENT_3D('',#533,#439,#440);
#359=AXIS2_PLACEMENT_3D('',#536,#442,#443);
#360=AXIS2_PLACEMENT_3D('',#537,#444,#445);
#361=AXIS2_PLACEMENT_3D('',#539,#446,#447);
#362=AXIS2_PLACEMENT_3D('',#540,#448,#449);
#363=AXIS2_PLACEMENT_3D('',#541,#450,#451);
#364=AXIS2_PLACEMENT_3D('',#543,#452,#453);
#365=AXIS2_PLACEMENT_3D('',#545,#455,#456);
#366=AXIS2_PLACEMENT_3D('',#547,#457,#458);
#367=AXIS2_PLACEMENT_3D('',#550,#460,#461);
#368=AXIS2_PLACEMENT_3D('',#551,#462,#463);
#369=AXIS2_PLACEMENT_3D('',#553,#464,#465);
#370=AXIS2_PLACEMENT_3D('',#554,#466,#467);
#371=AXIS2_PLACEMENT_3D('',#555,#468,#469);
#372=AXIS2_PLACEMENT_3D('',#558,#471,#472);
#373=AXIS2_PLACEMENT_3D('',#559,#473,#474);
#374=AXIS2_PLACEMENT_3D('',#560,#475,#476);
#375=AXIS2_PLACEMENT_3D('',#561,#477,#478);
#376=AXIS2_PLACEMENT_3D('',#562,#479,#480);
#377=AXIS2_PLACEMENT_3D('',#563,#481,#482);
#378=DIRECTION('axis',(0.,0.,1.));
#379=DIRECTION('refdir',(1.,0.,0.));
#380=DIRECTION('axis',(0.,0.,1.));
#381=DIRECTION('refdir',(1.,0.,0.));
#382=DIRECTION('center_axis',(0.,1.,0.));
#383=DIRECTION('ref_axis',(-1.,0.,0.));
#384=DIRECTION('center_axis',(0.,1.,0.));
#385=DIRECTION('ref_axis',(1.,0.,0.));
#386=DIRECTION('center_axis',(0.,1.,0.));
#387=DIRECTION('ref_axis',(1.,0.,0.));
#388=DIRECTION('',(0.,-1.,0.));
#389=DIRECTION('center_axis',(0.,1.,0.));
#390=DIRECTION('ref_axis',(1.,0.,0.));
#391=DIRECTION('center_axis',(0.,1.,0.));
#392=DIRECTION('ref_axis',(1.,0.,0.));
#393=DIRECTION('center_axis',(0.,-1.,0.));
#394=DIRECTION('ref_axis',(-1.,0.,0.));
#395=DIRECTION('center_axis',(0.,1.,0.));
#396=DIRECTION('ref_axis',(1.,0.,0.));
#397=DIRECTION('center_axis',(0.,1.,0.));
#398=DIRECTION('ref_axis',(1.,0.,0.));
#399=DIRECTION('',(0.965925826289068,-0.25881904510252,-1.18291797137867E-16));
#400=DIRECTION('center_axis',(0.,1.,0.));
#401=DIRECTION('ref_axis',(-1.,0.,0.));
#402=DIRECTION('',(0.,-1.,0.));
#403=DIRECTION('center_axis',(0.,1.,0.));
#404=DIRECTION('ref_axis',(1.,0.,0.));
#405=DIRECTION('center_axis',(0.,1.,0.));
#406=DIRECTION('ref_axis',(1.,0.,0.));
#407=DIRECTION('center_axis',(0.,1.,0.));
#408=DIRECTION('ref_axis',(0.,0.,1.));
#409=DIRECTION('center_axis',(0.,1.,0.));
#410=DIRECTION('ref_axis',(1.,0.,0.));
#411=DIRECTION('center_axis',(0.,1.,0.));
#412=DIRECTION('ref_axis',(1.,0.,0.));
#413=DIRECTION('center_axis',(0.,1.,0.));
#414=DIRECTION('ref_axis',(-1.,0.,0.));
#415=DIRECTION('',(0.,-1.,0.));
#416=DIRECTION('center_axis',(0.,1.,0.));
#417=DIRECTION('ref_axis',(1.,0.,0.));
#418=DIRECTION('center_axis',(0.,1.,0.));
#419=DIRECTION('ref_axis',(1.,0.,0.));
#420=DIRECTION('center_axis',(0.,-1.,0.));
#421=DIRECTION('ref_axis',(0.,0.,-1.));
#422=DIRECTION('center_axis',(0.,1.,0.));
#423=DIRECTION('ref_axis',(1.,0.,0.));
#424=DIRECTION('center_axis',(0.,1.,0.));
#425=DIRECTION('ref_axis',(1.,0.,0.));
#426=DIRECTION('center_axis',(0.,1.,0.));
#427=DIRECTION('ref_axis',(-1.,0.,0.));
#428=DIRECTION('',(0.,-1.,0.));
#429=DIRECTION('center_axis',(0.,1.,0.));
#430=DIRECTION('ref_axis',(1.,0.,0.));
#431=DIRECTION('center_axis',(0.,1.,0.));
#432=DIRECTION('ref_axis',(1.,0.,0.));
#433=DIRECTION('center_axis',(0.,-1.,0.));
#434=DIRECTION('ref_axis',(0.,0.,-1.));
#435=DIRECTION('axis',(0.,0.,1.));
#436=DIRECTION('refdir',(1.,0.,0.));
#437=DIRECTION('center_axis',(0.,-1.,0.));
#438=DIRECTION('ref_axis',(-1.,0.,0.));
#439=DIRECTION('center_axis',(1.60982338570648E-15,-1.,0.));
#440=DIRECTION('ref_axis',(-1.,-1.60032147693716E-15,0.));
#441=DIRECTION('',(0.,-1.,0.));
#442=DIRECTION('center_axis',(-1.60982338570648E-15,1.,0.));
#443=DIRECTION('ref_axis',(-1.,0.,0.));
#444=DIRECTION('center_axis',(0.,0.,1.));
#445=DIRECTION('ref_axis',(1.,0.,0.));
#446=DIRECTION('center_axis',(-0.707106781186547,-0.707106781186548,0.));
#447=DIRECTION('ref_axis',(-0.707106781186548,0.707106781186547,0.));
#448=DIRECTION('center_axis',(0.,0.,1.));
#449=DIRECTION('ref_axis',(1.,0.,0.));
#450=DIRECTION('center_axis',(-0.707106781186547,-0.707106781186548,0.));
#451=DIRECTION('ref_axis',(-0.707106781186548,0.707106781186547,0.));
#452=DIRECTION('center_axis',(-0.707106781186547,-0.707106781186548,0.));
#453=DIRECTION('ref_axis',(-0.707106781186548,0.707106781186547,0.));
#454=DIRECTION('',(-0.707106781186547,-0.707106781186548,0.));
#455=DIRECTION('center_axis',(0.,-1.,0.));
#456=DIRECTION('ref_axis',(-1.,0.,0.));
#457=DIRECTION('center_axis',(1.60982338570648E-15,-1.,0.));
#458=DIRECTION('ref_axis',(-1.,-1.57354444435061E-15,0.));
#459=DIRECTION('',(0.,1.,0.));
#460=DIRECTION('center_axis',(1.60982338570648E-15,-1.,0.));
#461=DIRECTION('ref_axis',(-1.,-1.57354444435061E-15,0.));
#462=DIRECTION('center_axis',(0.,0.,1.));
#463=DIRECTION('ref_axis',(1.,0.,0.));
#464=DIRECTION('center_axis',(0.,0.,-1.));
#465=DIRECTION('ref_axis',(1.,0.,0.));
#466=DIRECTION('center_axis',(-0.707106781186547,-0.707106781186548,0.));
#467=DIRECTION('ref_axis',(-0.707106781186548,0.707106781186547,0.));
#468=DIRECTION('center_axis',(-0.707106781186547,-0.707106781186548,0.));
#469=DIRECTION('ref_axis',(-0.707106781186548,0.707106781186547,0.));
#470=DIRECTION('',(0.707106781186547,0.707106781186548,0.));
#471=DIRECTION('center_axis',(0.707106781186547,0.707106781186548,0.));
#472=DIRECTION('ref_axis',(-0.707106781186548,0.707106781186547,0.));
#473=DIRECTION('center_axis',(1.60982338570648E-15,-1.,0.));
#474=DIRECTION('ref_axis',(0.,0.,1.));
#475=DIRECTION('center_axis',(-0.707106781186547,-0.707106781186548,0.));
#476=DIRECTION('ref_axis',(0.,0.,1.));
#477=DIRECTION('',(4.67366304311698E-34,-6.22104194701458E-34,-1.));
#478=DIRECTION('',(0.707106781186548,-0.707106781186547,7.70371977754894E-34));
#479=DIRECTION('',(0.,0.,1.));
#480=DIRECTION('',(1.,1.60982338570648E-15,0.));
#481=DIRECTION('',(0.,0.,1.));
#482=DIRECTION('',(1.,0.,0.));
#483=CARTESIAN_POINT('',(0.,0.,0.));
#484=CARTESIAN_POINT('',(0.,0.,0.));
#485=CARTESIAN_POINT('Origin',(0.,1.5,0.));
#486=CARTESIAN_POINT('',(-20.,3.,0.));
#487=CARTESIAN_POINT('',(20.,3.,-2.44929359829471E-15));
#488=CARTESIAN_POINT('Origin',(0.,3.,0.));
#489=CARTESIAN_POINT('Origin',(0.,3.,0.));
#490=CARTESIAN_POINT('',(20.,0.,-2.44929359829471E-15));
#491=CARTESIAN_POINT('',(20.,1.5,-2.44929359829471E-15));
#492=CARTESIAN_POINT('',(-20.,0.,0.));
#493=CARTESIAN_POINT('Origin',(0.,0.,0.));
#494=CARTESIAN_POINT('Origin',(0.,0.,0.));
#495=CARTESIAN_POINT('Origin',(0.,3.96461709275204,0.));
#496=CARTESIAN_POINT('',(-12.8,4.92923418550408,0.));
#497=CARTESIAN_POINT('',(12.8,4.92923418550408,-1.56754790290861E-15));
#498=CARTESIAN_POINT('Origin',(0.,4.92923418550408,0.));
#499=CARTESIAN_POINT('Origin',(0.,4.92923418550408,0.));
#500=CARTESIAN_POINT('',(16.4,3.96461709275204,-2.00842075060166E-15));
#501=CARTESIAN_POINT('Origin',(0.,4.31461709275204,0.));
#502=CARTESIAN_POINT('',(12.8,3.7,-1.56754790290861E-15));
#503=CARTESIAN_POINT('',(12.8,4.31461709275204,-1.56754790290861E-15));
#504=CARTESIAN_POINT('',(-12.8,3.7,0.));
#505=CARTESIAN_POINT('Origin',(0.,3.7,0.));
#506=CARTESIAN_POINT('Origin',(0.,3.7,0.));
#507=CARTESIAN_POINT('Origin',(-11.875,3.7,0.));
#508=CARTESIAN_POINT('',(-11.875,3.7,0.));
#509=CARTESIAN_POINT('',(11.875,3.7,-1.45426807398748E-15));
#510=CARTESIAN_POINT('Origin',(0.,3.7,0.));
#511=CARTESIAN_POINT('Origin',(0.,3.7,0.));
#512=CARTESIAN_POINT('Origin',(0.,3.1,0.));
#513=CARTESIAN_POINT('',(11.875,2.5,-1.45426807398748E-15));
#514=CARTESIAN_POINT('',(11.875,3.1,-1.45426807398748E-15));
#515=CARTESIAN_POINT('',(-11.875,2.5,0.));
#516=CARTESIAN_POINT('Origin',(0.,2.5,0.));
#517=CARTESIAN_POINT('Origin',(0.,2.5,0.));
#518=CARTESIAN_POINT('Origin',(-13.1,2.5,0.));
#519=CARTESIAN_POINT('',(-13.1,2.5,0.));
#520=CARTESIAN_POINT('',(13.1,2.5,-1.60428730688303E-15));
#521=CARTESIAN_POINT('Origin',(0.,2.5,0.));
#522=CARTESIAN_POINT('Origin',(0.,2.5,0.));
#523=CARTESIAN_POINT('Origin',(0.,1.25,0.));
#524=CARTESIAN_POINT('',(13.1,0.,-1.60428730688303E-15));
#525=CARTESIAN_POINT('',(13.1,1.25,-1.60428730688303E-15));
#526=CARTESIAN_POINT('',(-13.1,0.,0.));
#527=CARTESIAN_POINT('Origin',(0.,0.,0.));
#528=CARTESIAN_POINT('Origin',(0.,0.,0.));
#529=CARTESIAN_POINT('Origin',(-20.,0.,0.));
#530=CARTESIAN_POINT('',(0.,0.,0.));
#531=CARTESIAN_POINT('Origin',(-68.8050865276333,13.756,0.));
#532=CARTESIAN_POINT('',(-57.7050865276333,13.756,1.35935794705356E-15));
#533=CARTESIAN_POINT('Origin',(-68.8050865276333,13.756,0.));
#534=CARTESIAN_POINT('',(-57.7050865276333,3.75600000000002,1.35935794705356E-15));
#535=CARTESIAN_POINT('',(-57.7050865276333,13.756,1.35935794705356E-15));
#536=CARTESIAN_POINT('Origin',(-68.8050865276333,3.75599999999999,0.));
#537=CARTESIAN_POINT('Origin',(-33.2099217640043,13.756,0.));
#538=CARTESIAN_POINT('',(-50.5306188746481,31.0766971106438,1.35935794705356E-15));
#539=CARTESIAN_POINT('Origin',(-58.3795041458188,38.9255823818145,0.));
#540=CARTESIAN_POINT('Origin',(-33.2099217640043,13.756,-1.35935794705356E-15));
#541=CARTESIAN_POINT('Origin',(-51.3084363339533,45.99665019368,0.));
#542=CARTESIAN_POINT('',(-43.4595510627826,38.1477649225093,1.35935794705356E-15));
#543=CARTESIAN_POINT('Origin',(-51.3084363339533,45.99665019368,0.));
#544=CARTESIAN_POINT('',(-43.4595510627826,38.1477649225093,1.35935794705356E-15));
#545=CARTESIAN_POINT('Origin',(-68.8050865276333,13.756,0.));
#546=CARTESIAN_POINT('',(-56.1050865276333,3.75600000000003,1.55530143491714E-15));
#547=CARTESIAN_POINT('Origin',(-68.8050865276333,3.75600000000001,0.));
#548=CARTESIAN_POINT('',(-56.1050865276333,13.756,1.55530143491714E-15));
#549=CARTESIAN_POINT('',(-56.1050865276333,13.756,1.55530143491714E-15));
#550=CARTESIAN_POINT('Origin',(-68.8050865276333,13.756,0.));
#551=CARTESIAN_POINT('Origin',(-33.2099217640043,13.756,0.));
#552=CARTESIAN_POINT('',(-49.3992480247496,29.9453262607454,1.55530143491714E-15));
#553=CARTESIAN_POINT('Origin',(-33.2099217640043,13.756,-1.55530143491714E-15));
#554=CARTESIAN_POINT('Origin',(-58.3795041458188,38.9255823818145,0.));
#555=CARTESIAN_POINT('Origin',(-51.3084363339533,45.99665019368,0.));
#556=CARTESIAN_POINT('',(-42.3281802128841,37.0163940726108,1.55530143491714E-15));
#557=CARTESIAN_POINT('',(-42.3281802128841,37.0163940726108,1.55530143491714E-15));
#558=CARTESIAN_POINT('Origin',(-51.3084363339533,45.99665019368,0.));
#559=CARTESIAN_POINT('Origin',(-68.8050865276333,3.75599999999999,0.));
#560=CARTESIAN_POINT('Origin',(-51.3084363339533,45.99665019368,0.));
#561=CARTESIAN_POINT('',(-26.3731156896981,41.0277624453603,-27.793257202918));
#562=CARTESIAN_POINT('',(-46.4860609737682,-7.52918283870985,-27.793257202918));
#563=CARTESIAN_POINT('',(22.319025553865,-7.58518283870987,-27.793257202918));
#564=UNCERTAINTY_MEASURE_WITH_UNIT(LENGTH_MEASURE(0.01),#572,
'DISTANCE_ACCURACY_VALUE',
'Maximum model space distance between geometric entities at asserted c
onnectivities');
#565=UNCERTAINTY_MEASURE_WITH_UNIT(LENGTH_MEASURE(0.01),#572,
'DISTANCE_ACCURACY_VALUE',
'Maximum model space distance between geometric entities at asserted c
onnectivities');
#566=UNCERTAINTY_MEASURE_WITH_UNIT(LENGTH_MEASURE(0.01),#572,
'DISTANCE_ACCURACY_VALUE',
'Maximum model space distance between geometric entities at asserted c
onnectivities');
#567=UNCERTAINTY_MEASURE_WITH_UNIT(LENGTH_MEASURE(0.01),#572,
'DISTANCE_ACCURACY_VALUE',
'Maximum model space distance between geometric entities at asserted c
onnectivities');
#568=(
GEOMETRIC_REPRESENTATION_CONTEXT(3)
GLOBAL_UNCERTAINTY_ASSIGNED_CONTEXT((#564))
GLOBAL_UNIT_ASSIGNED_CONTEXT((#572,#574,#575))
REPRESENTATION_CONTEXT('','3D')
);
#569=(
GEOMETRIC_REPRESENTATION_CONTEXT(3)
GLOBAL_UNCERTAINTY_ASSIGNED_CONTEXT((#565))
GLOBAL_UNIT_ASSIGNED_CONTEXT((#572,#574,#575))
REPRESENTATION_CONTEXT('','3D')
);
#570=(
GEOMETRIC_REPRESENTATION_CONTEXT(3)
GLOBAL_UNCERTAINTY_ASSIGNED_CONTEXT((#566))
GLOBAL_UNIT_ASSIGNED_CONTEXT((#572,#574,#575))
REPRESENTATION_CONTEXT('','3D')
);
#571=(
GEOMETRIC_REPRESENTATION_CONTEXT(3)
GLOBAL_UNCERTAINTY_ASSIGNED_CONTEXT((#567))
GLOBAL_UNIT_ASSIGNED_CONTEXT((#572,#574,#575))
REPRESENTATION_CONTEXT('','3D')
);
#572=(
LENGTH_UNIT()
NAMED_UNIT(*)
SI_UNIT(.MILLI.,.METRE.)
);
#573=(
LENGTH_UNIT()
NAMED_UNIT(*)
SI_UNIT(.CENTI.,.METRE.)
);
#574=(
NAMED_UNIT(*)
PLANE_ANGLE_UNIT()
SI_UNIT($,.RADIAN.)
);
#575=(
NAMED_UNIT(*)
SI_UNIT($,.STERADIAN.)
SOLID_ANGLE_UNIT()
);
#576=SHAPE_DEFINITION_REPRESENTATION(#579,#585);
#577=SHAPE_DEFINITION_REPRESENTATION(#580,#586);
#578=SHAPE_DEFINITION_REPRESENTATION(#581,#587);
#579=PRODUCT_DEFINITION_SHAPE('',$,#589);
#580=PRODUCT_DEFINITION_SHAPE('',$,#590);
#581=PRODUCT_DEFINITION_SHAPE('',$,#591);
#582=PRODUCT_DEFINITION_SHAPE($,$,#20);
#583=PRODUCT_DEFINITION_SHAPE($,$,#21);
#584=PRODUCT_DEFINITION_SHAPE($,$,#22);
#585=SHAPE_REPRESENTATION('',(#330,#375,#376,#377),#568);
#586=SHAPE_REPRESENTATION('',(#331),#569);
#587=SHAPE_REPRESENTATION('',(#356),#570);
#588=PRODUCT_DEFINITION_CONTEXT('part definition',#599,'design');
#589=PRODUCT_DEFINITION('FL-EL45-25KF','FL-EL45-25KF',#592,#588);
#590=PRODUCT_DEFINITION('FL-25KF-25W','FL-25KF-25W',#593,#588);
#591=PRODUCT_DEFINITION('tube','tube',#594,#588);
#592=PRODUCT_DEFINITION_FORMATION('',$,#601);
#593=PRODUCT_DEFINITION_FORMATION('',$,#602);
#594=PRODUCT_DEFINITION_FORMATION('',$,#603);
#595=PRODUCT_RELATED_PRODUCT_CATEGORY('FL-EL45-25KF','FL-EL45-25KF',(#601));
#596=PRODUCT_RELATED_PRODUCT_CATEGORY('FL-25KF-25W','FL-25KF-25W',(#602));
#597=PRODUCT_RELATED_PRODUCT_CATEGORY('tube','tube',(#603));
#598=APPLICATION_PROTOCOL_DEFINITION('international standard',
'automotive_design',2009,#599);
#599=APPLICATION_CONTEXT(
'Core Data for Automotive Mechanical Design Process');
#600=PRODUCT_CONTEXT('part definition',#599,'mechanical');
#601=PRODUCT('FL-EL45-25KF','FL-EL45-25KF',$,(#600));
#602=PRODUCT('FL-25KF-25W','FL-25KF-25W',$,(#600));
#603=PRODUCT('tube','tube',$,(#600));
ENDSEC;
END-ISO-10303-21;
