ISO-10303-21;
HEADER;
/* Generated by software containing ST-Developer
 * from STEP Tools, Inc. (www.steptools.com) 
 */

FILE_DESCRIPTION(
/* description */ (''),
/* implementation_level */ '2;1');

FILE_NAME(
/* name */ 
'G:\\FLANGES & FITTINGS\\Elbows KFLF\\Step files\\FL-E50KF-80.stp',
/* time_stamp */ '2018-12-03T16:11:31+00:00',
/* author */ ('paul'),
/* organization */ (''),
/* preprocessor_version */ 'ST-DEVELOPER v17.2',
/* originating_system */ 'Autodesk Inventor 2019',
/* authorisation */ '');

FILE_SCHEMA (('AUTOMOTIVE_DESIGN { 1 0 10303 214 3 1 1 }'));
ENDSEC;

DATA;
#10=MECHANICAL_DESIGN_GEOMETRIC_PRESENTATION_REPRESENTATION('',(#28,#29),
#641);
#11=ITEM_DEFINED_TRANSFORMATION($,$,#367,#418);
#12=ITEM_DEFINED_TRANSFORMATION($,$,#390,#419);
#13=ITEM_DEFINED_TRANSFORMATION($,$,#390,#420);
#14=(
REPRESENTATION_RELATIONSHIP($,$,#656,#655)
REPRESENTATION_RELATIONSHIP_WITH_TRANSFORMATION(#11)
SHAPE_REPRESENTATION_RELATIONSHIP()
);
#15=(
REPRESENTATION_RELATIONSHIP($,$,#657,#655)
REPRESENTATION_RELATIONSHIP_WITH_TRANSFORMATION(#12)
SHAPE_REPRESENTATION_RELATIONSHIP()
);
#16=(
REPRESENTATION_RELATIONSHIP($,$,#657,#655)
REPRESENTATION_RELATIONSHIP_WITH_TRANSFORMATION(#13)
SHAPE_REPRESENTATION_RELATIONSHIP()
);
#17=CONTEXT_DEPENDENT_SHAPE_REPRESENTATION(#14,#652);
#18=CONTEXT_DEPENDENT_SHAPE_REPRESENTATION(#15,#653);
#19=CONTEXT_DEPENDENT_SHAPE_REPRESENTATION(#16,#654);
#20=NEXT_ASSEMBLY_USAGE_OCCURRENCE('tube:1','tube:1','tube:1',#659,#660,
'tube:1');
#21=NEXT_ASSEMBLY_USAGE_OCCURRENCE('FL-50KF-51W:1','FL-50KF-51W:1',
'FL-50KF-51W:1',#659,#661,'FL-50KF-51W:1');
#22=NEXT_ASSEMBLY_USAGE_OCCURRENCE('FL-50KF-51W:2','FL-50KF-51W:2',
'FL-50KF-51W:2',#659,#661,'FL-50KF-51W:2');
#23=CONICAL_SURFACE('',#399,33.7679491924311,1.30899693899575);
#24=SHAPE_REPRESENTATION_RELATIONSHIP('SRR','None',#656,#26);
#25=SHAPE_REPRESENTATION_RELATIONSHIP('SRR','None',#657,#27);
#26=ADVANCED_BREP_SHAPE_REPRESENTATION('',(#30),#639);
#27=ADVANCED_BREP_SHAPE_REPRESENTATION('',(#31),#640);
#28=STYLED_ITEM('',(#339),#30);
#29=STYLED_ITEM('',(#339),#31);
#30=MANIFOLD_SOLID_BREP('Solid2',#314);
#31=MANIFOLD_SOLID_BREP('Solid1',#315);
#32=FACE_BOUND('',#70,.T.);
#33=FACE_BOUND('',#72,.T.);
#34=FACE_BOUND('',#74,.T.);
#35=FACE_BOUND('',#78,.T.);
#36=FACE_BOUND('',#81,.T.);
#37=FACE_BOUND('',#84,.T.);
#38=PLANE('',#388);
#39=PLANE('',#389);
#40=PLANE('',#391);
#41=PLANE('',#402);
#42=PLANE('',#408);
#43=PLANE('',#414);
#44=TOROIDAL_SURFACE('',#372,71.2,23.75);
#45=TOROIDAL_SURFACE('',#382,71.2,25.4);
#46=FACE_OUTER_BOUND('',#63,.T.);
#47=FACE_OUTER_BOUND('',#64,.T.);
#48=FACE_OUTER_BOUND('',#65,.T.);
#49=FACE_OUTER_BOUND('',#66,.T.);
#50=FACE_OUTER_BOUND('',#67,.T.);
#51=FACE_OUTER_BOUND('',#68,.T.);
#52=FACE_OUTER_BOUND('',#69,.T.);
#53=FACE_OUTER_BOUND('',#71,.T.);
#54=FACE_OUTER_BOUND('',#73,.T.);
#55=FACE_OUTER_BOUND('',#75,.T.);
#56=FACE_OUTER_BOUND('',#76,.T.);
#57=FACE_OUTER_BOUND('',#77,.T.);
#58=FACE_OUTER_BOUND('',#79,.T.);
#59=FACE_OUTER_BOUND('',#80,.T.);
#60=FACE_OUTER_BOUND('',#82,.T.);
#61=FACE_OUTER_BOUND('',#83,.T.);
#62=FACE_OUTER_BOUND('',#85,.T.);
#63=EDGE_LOOP('',(#207,#208,#209,#210,#211));
#64=EDGE_LOOP('',(#212,#213,#214,#215,#216,#217));
#65=EDGE_LOOP('',(#218,#219,#220,#221,#222));
#66=EDGE_LOOP('',(#223,#224,#225,#226,#227));
#67=EDGE_LOOP('',(#228,#229,#230,#231,#232,#233));
#68=EDGE_LOOP('',(#234,#235,#236,#237,#238));
#69=EDGE_LOOP('',(#239));
#70=EDGE_LOOP('',(#240));
#71=EDGE_LOOP('',(#241));
#72=EDGE_LOOP('',(#242));
#73=EDGE_LOOP('',(#243,#244));
#74=EDGE_LOOP('',(#245,#246));
#75=EDGE_LOOP('',(#247,#248,#249,#250,#251,#252));
#76=EDGE_LOOP('',(#253,#254,#255,#256,#257,#258));
#77=EDGE_LOOP('',(#259,#260));
#78=EDGE_LOOP('',(#261,#262));
#79=EDGE_LOOP('',(#263,#264,#265,#266,#267,#268));
#80=EDGE_LOOP('',(#269,#270));
#81=EDGE_LOOP('',(#271,#272));
#82=EDGE_LOOP('',(#273,#274,#275,#276,#277,#278));
#83=EDGE_LOOP('',(#279,#280));
#84=EDGE_LOOP('',(#281,#282));
#85=EDGE_LOOP('',(#283,#284,#285,#286,#287,#288));
#86=LINE('',#547,#95);
#87=LINE('',#559,#96);
#88=LINE('',#564,#97);
#89=LINE('',#576,#98);
#90=LINE('',#595,#99);
#91=LINE('',#601,#100);
#92=LINE('',#609,#101);
#93=LINE('',#620,#102);
#94=LINE('',#630,#103);
#95=VECTOR('',#429,23.75);
#96=VECTOR('',#446,23.75);
#97=VECTOR('',#451,25.4);
#98=VECTOR('',#466,25.4);
#99=VECTOR('',#491,37.5);
#100=VECTOR('',#498,33.7679491924311);
#101=VECTOR('',#507,25.5);
#102=VECTOR('',#520,24.55);
#103=VECTOR('',#533,25.6);
#104=CIRCLE('',#369,23.75);
#105=CIRCLE('',#370,23.75);
#106=CIRCLE('',#371,23.75);
#107=CIRCLE('',#373,23.75);
#108=CIRCLE('',#374,23.75);
#109=CIRCLE('',#375,47.45);
#110=CIRCLE('',#377,23.75);
#111=CIRCLE('',#379,25.4);
#112=CIRCLE('',#380,25.4);
#113=CIRCLE('',#381,25.4);
#114=CIRCLE('',#383,45.8);
#115=CIRCLE('',#384,25.4);
#116=CIRCLE('',#385,25.4);
#117=CIRCLE('',#387,25.4);
#118=CIRCLE('',#392,37.5);
#119=CIRCLE('',#393,37.5);
#120=CIRCLE('',#394,25.6);
#121=CIRCLE('',#395,25.6);
#122=CIRCLE('',#397,37.5);
#123=CIRCLE('',#398,37.5);
#124=CIRCLE('',#400,30.0358983848622);
#125=CIRCLE('',#401,30.0358983848622);
#126=CIRCLE('',#403,25.5);
#127=CIRCLE('',#404,25.5);
#128=CIRCLE('',#406,25.5);
#129=CIRCLE('',#407,25.5);
#130=CIRCLE('',#409,24.55);
#131=CIRCLE('',#410,24.55);
#132=CIRCLE('',#412,24.55);
#133=CIRCLE('',#413,24.55);
#134=CIRCLE('',#415,25.6);
#135=CIRCLE('',#416,25.6);
#136=VERTEX_POINT('',#543);
#137=VERTEX_POINT('',#544);
#138=VERTEX_POINT('',#546);
#139=VERTEX_POINT('',#551);
#140=VERTEX_POINT('',#552);
#141=VERTEX_POINT('',#557);
#142=VERTEX_POINT('',#561);
#143=VERTEX_POINT('',#563);
#144=VERTEX_POINT('',#565);
#145=VERTEX_POINT('',#569);
#146=VERTEX_POINT('',#571);
#147=VERTEX_POINT('',#575);
#148=VERTEX_POINT('',#582);
#149=VERTEX_POINT('',#583);
#150=VERTEX_POINT('',#586);
#151=VERTEX_POINT('',#587);
#152=VERTEX_POINT('',#591);
#153=VERTEX_POINT('',#592);
#154=VERTEX_POINT('',#597);
#155=VERTEX_POINT('',#598);
#156=VERTEX_POINT('',#603);
#157=VERTEX_POINT('',#604);
#158=VERTEX_POINT('',#608);
#159=VERTEX_POINT('',#610);
#160=VERTEX_POINT('',#614);
#161=VERTEX_POINT('',#615);
#162=VERTEX_POINT('',#619);
#163=VERTEX_POINT('',#621);
#164=VERTEX_POINT('',#625);
#165=VERTEX_POINT('',#626);
#166=EDGE_CURVE('',#136,#137,#104,.T.);
#167=EDGE_CURVE('',#136,#138,#86,.T.);
#168=EDGE_CURVE('',#138,#138,#105,.T.);
#169=EDGE_CURVE('',#137,#136,#106,.T.);
#170=EDGE_CURVE('',#139,#140,#107,.T.);
#171=EDGE_CURVE('',#140,#139,#108,.T.);
#172=EDGE_CURVE('',#140,#137,#109,.T.);
#173=EDGE_CURVE('',#141,#141,#110,.T.);
#174=EDGE_CURVE('',#141,#139,#87,.T.);
#175=EDGE_CURVE('',#142,#142,#111,.T.);
#176=EDGE_CURVE('',#142,#143,#88,.T.);
#177=EDGE_CURVE('',#143,#144,#112,.T.);
#178=EDGE_CURVE('',#144,#143,#113,.T.);
#179=EDGE_CURVE('',#144,#145,#114,.T.);
#180=EDGE_CURVE('',#145,#146,#115,.T.);
#181=EDGE_CURVE('',#146,#145,#116,.T.);
#182=EDGE_CURVE('',#146,#147,#89,.T.);
#183=EDGE_CURVE('',#147,#147,#117,.T.);
#184=EDGE_CURVE('',#148,#149,#118,.T.);
#185=EDGE_CURVE('',#149,#148,#119,.T.);
#186=EDGE_CURVE('',#150,#151,#120,.T.);
#187=EDGE_CURVE('',#151,#150,#121,.T.);
#188=EDGE_CURVE('',#152,#153,#122,.T.);
#189=EDGE_CURVE('',#153,#152,#123,.T.);
#190=EDGE_CURVE('',#153,#149,#90,.T.);
#191=EDGE_CURVE('',#154,#155,#124,.T.);
#192=EDGE_CURVE('',#155,#154,#125,.T.);
#193=EDGE_CURVE('',#155,#153,#91,.T.);
#194=EDGE_CURVE('',#156,#157,#126,.T.);
#195=EDGE_CURVE('',#157,#156,#127,.T.);
#196=EDGE_CURVE('',#157,#158,#92,.T.);
#197=EDGE_CURVE('',#159,#158,#128,.T.);
#198=EDGE_CURVE('',#158,#159,#129,.T.);
#199=EDGE_CURVE('',#160,#161,#130,.T.);
#200=EDGE_CURVE('',#161,#160,#131,.T.);
#201=EDGE_CURVE('',#161,#162,#93,.T.);
#202=EDGE_CURVE('',#163,#162,#132,.T.);
#203=EDGE_CURVE('',#162,#163,#133,.T.);
#204=EDGE_CURVE('',#164,#165,#134,.T.);
#205=EDGE_CURVE('',#165,#164,#135,.T.);
#206=EDGE_CURVE('',#165,#151,#94,.T.);
#207=ORIENTED_EDGE('',*,*,#166,.F.);
#208=ORIENTED_EDGE('',*,*,#167,.T.);
#209=ORIENTED_EDGE('',*,*,#168,.F.);
#210=ORIENTED_EDGE('',*,*,#167,.F.);
#211=ORIENTED_EDGE('',*,*,#169,.F.);
#212=ORIENTED_EDGE('',*,*,#170,.F.);
#213=ORIENTED_EDGE('',*,*,#171,.F.);
#214=ORIENTED_EDGE('',*,*,#172,.T.);
#215=ORIENTED_EDGE('',*,*,#169,.T.);
#216=ORIENTED_EDGE('',*,*,#166,.T.);
#217=ORIENTED_EDGE('',*,*,#172,.F.);
#218=ORIENTED_EDGE('',*,*,#173,.F.);
#219=ORIENTED_EDGE('',*,*,#174,.T.);
#220=ORIENTED_EDGE('',*,*,#170,.T.);
#221=ORIENTED_EDGE('',*,*,#171,.T.);
#222=ORIENTED_EDGE('',*,*,#174,.F.);
#223=ORIENTED_EDGE('',*,*,#175,.F.);
#224=ORIENTED_EDGE('',*,*,#176,.T.);
#225=ORIENTED_EDGE('',*,*,#177,.T.);
#226=ORIENTED_EDGE('',*,*,#178,.T.);
#227=ORIENTED_EDGE('',*,*,#176,.F.);
#228=ORIENTED_EDGE('',*,*,#177,.F.);
#229=ORIENTED_EDGE('',*,*,#178,.F.);
#230=ORIENTED_EDGE('',*,*,#179,.T.);
#231=ORIENTED_EDGE('',*,*,#180,.T.);
#232=ORIENTED_EDGE('',*,*,#181,.T.);
#233=ORIENTED_EDGE('',*,*,#179,.F.);
#234=ORIENTED_EDGE('',*,*,#181,.F.);
#235=ORIENTED_EDGE('',*,*,#182,.T.);
#236=ORIENTED_EDGE('',*,*,#183,.F.);
#237=ORIENTED_EDGE('',*,*,#182,.F.);
#238=ORIENTED_EDGE('',*,*,#180,.F.);
#239=ORIENTED_EDGE('',*,*,#175,.T.);
#240=ORIENTED_EDGE('',*,*,#168,.T.);
#241=ORIENTED_EDGE('',*,*,#183,.T.);
#242=ORIENTED_EDGE('',*,*,#173,.T.);
#243=ORIENTED_EDGE('',*,*,#184,.F.);
#244=ORIENTED_EDGE('',*,*,#185,.F.);
#245=ORIENTED_EDGE('',*,*,#186,.T.);
#246=ORIENTED_EDGE('',*,*,#187,.T.);
#247=ORIENTED_EDGE('',*,*,#188,.F.);
#248=ORIENTED_EDGE('',*,*,#189,.F.);
#249=ORIENTED_EDGE('',*,*,#190,.T.);
#250=ORIENTED_EDGE('',*,*,#185,.T.);
#251=ORIENTED_EDGE('',*,*,#184,.T.);
#252=ORIENTED_EDGE('',*,*,#190,.F.);
#253=ORIENTED_EDGE('',*,*,#191,.F.);
#254=ORIENTED_EDGE('',*,*,#192,.F.);
#255=ORIENTED_EDGE('',*,*,#193,.T.);
#256=ORIENTED_EDGE('',*,*,#189,.T.);
#257=ORIENTED_EDGE('',*,*,#188,.T.);
#258=ORIENTED_EDGE('',*,*,#193,.F.);
#259=ORIENTED_EDGE('',*,*,#191,.T.);
#260=ORIENTED_EDGE('',*,*,#192,.T.);
#261=ORIENTED_EDGE('',*,*,#194,.F.);
#262=ORIENTED_EDGE('',*,*,#195,.F.);
#263=ORIENTED_EDGE('',*,*,#194,.T.);
#264=ORIENTED_EDGE('',*,*,#196,.T.);
#265=ORIENTED_EDGE('',*,*,#197,.F.);
#266=ORIENTED_EDGE('',*,*,#198,.F.);
#267=ORIENTED_EDGE('',*,*,#196,.F.);
#268=ORIENTED_EDGE('',*,*,#195,.T.);
#269=ORIENTED_EDGE('',*,*,#197,.T.);
#270=ORIENTED_EDGE('',*,*,#198,.T.);
#271=ORIENTED_EDGE('',*,*,#199,.F.);
#272=ORIENTED_EDGE('',*,*,#200,.F.);
#273=ORIENTED_EDGE('',*,*,#199,.T.);
#274=ORIENTED_EDGE('',*,*,#201,.T.);
#275=ORIENTED_EDGE('',*,*,#202,.F.);
#276=ORIENTED_EDGE('',*,*,#203,.F.);
#277=ORIENTED_EDGE('',*,*,#201,.F.);
#278=ORIENTED_EDGE('',*,*,#200,.T.);
#279=ORIENTED_EDGE('',*,*,#204,.F.);
#280=ORIENTED_EDGE('',*,*,#205,.F.);
#281=ORIENTED_EDGE('',*,*,#202,.T.);
#282=ORIENTED_EDGE('',*,*,#203,.T.);
#283=ORIENTED_EDGE('',*,*,#204,.T.);
#284=ORIENTED_EDGE('',*,*,#206,.T.);
#285=ORIENTED_EDGE('',*,*,#186,.F.);
#286=ORIENTED_EDGE('',*,*,#187,.F.);
#287=ORIENTED_EDGE('',*,*,#206,.F.);
#288=ORIENTED_EDGE('',*,*,#205,.T.);
#289=CYLINDRICAL_SURFACE('',#368,23.75);
#290=CYLINDRICAL_SURFACE('',#376,23.75);
#291=CYLINDRICAL_SURFACE('',#378,25.4);
#292=CYLINDRICAL_SURFACE('',#386,25.4);
#293=CYLINDRICAL_SURFACE('',#396,37.5);
#294=CYLINDRICAL_SURFACE('',#405,25.5);
#295=CYLINDRICAL_SURFACE('',#411,24.55);
#296=CYLINDRICAL_SURFACE('',#417,25.6);
#297=ADVANCED_FACE('',(#46),#289,.F.);
#298=ADVANCED_FACE('',(#47),#44,.F.);
#299=ADVANCED_FACE('',(#48),#290,.F.);
#300=ADVANCED_FACE('',(#49),#291,.T.);
#301=ADVANCED_FACE('',(#50),#45,.T.);
#302=ADVANCED_FACE('',(#51),#292,.T.);
#303=ADVANCED_FACE('',(#52,#32),#38,.T.);
#304=ADVANCED_FACE('',(#53,#33),#39,.F.);
#305=ADVANCED_FACE('',(#54,#34),#40,.T.);
#306=ADVANCED_FACE('',(#55),#293,.T.);
#307=ADVANCED_FACE('',(#56),#23,.T.);
#308=ADVANCED_FACE('',(#57,#35),#41,.T.);
#309=ADVANCED_FACE('',(#58),#294,.F.);
#310=ADVANCED_FACE('',(#59,#36),#42,.T.);
#311=ADVANCED_FACE('',(#60),#295,.F.);
#312=ADVANCED_FACE('',(#61,#37),#43,.T.);
#313=ADVANCED_FACE('',(#62),#296,.F.);
#314=CLOSED_SHELL('',(#297,#298,#299,#300,#301,#302,#303,#304));
#315=CLOSED_SHELL('',(#305,#306,#307,#308,#309,#310,#311,#312,#313));
#316=DERIVED_UNIT_ELEMENT(#320,1.);
#317=DERIVED_UNIT_ELEMENT(#643,3.);
#318=DERIVED_UNIT_ELEMENT(#320,1.);
#319=DERIVED_UNIT_ELEMENT(#643,3.);
#320=(
MASS_UNIT()
NAMED_UNIT(*)
SI_UNIT($,.GRAM.)
);
#321=DERIVED_UNIT((#316,#317));
#322=DERIVED_UNIT((#318,#319));
#323=MEASURE_REPRESENTATION_ITEM('density measure',
POSITIVE_RATIO_MEASURE(8.),#321);
#324=MEASURE_REPRESENTATION_ITEM('density measure',
POSITIVE_RATIO_MEASURE(8.),#322);
#325=PROPERTY_DEFINITION_REPRESENTATION(#335,#329);
#326=PROPERTY_DEFINITION_REPRESENTATION(#336,#330);
#327=PROPERTY_DEFINITION_REPRESENTATION(#337,#331);
#328=PROPERTY_DEFINITION_REPRESENTATION(#338,#332);
#329=REPRESENTATION('material name',(#333),#639);
#330=REPRESENTATION('density',(#323),#639);
#331=REPRESENTATION('material name',(#334),#640);
#332=REPRESENTATION('density',(#324),#640);
#333=DESCRIPTIVE_REPRESENTATION_ITEM('Stainless Steel AISI 304',
'Stainless Steel AISI 304');
#334=DESCRIPTIVE_REPRESENTATION_ITEM('Stainless Steel AISI 304',
'Stainless Steel AISI 304');
#335=PROPERTY_DEFINITION('material property','material name',#660);
#336=PROPERTY_DEFINITION('material property','density of part',#660);
#337=PROPERTY_DEFINITION('material property','material name',#661);
#338=PROPERTY_DEFINITION('material property','density of part',#661);
#339=PRESENTATION_STYLE_ASSIGNMENT((#340));
#340=SURFACE_STYLE_USAGE(.BOTH.,#343);
#341=SURFACE_STYLE_RENDERING_WITH_PROPERTIES($,#347,(#342));
#342=SURFACE_STYLE_TRANSPARENT(1.);
#343=SURFACE_SIDE_STYLE('',(#344,#341));
#344=SURFACE_STYLE_FILL_AREA(#345);
#345=FILL_AREA_STYLE('',(#346));
#346=FILL_AREA_STYLE_COLOUR('',#347);
#347=COLOUR_RGB('',0.745098039215686,0.737254901960784,0.729411764705882);
#348=DATE_TIME_ROLE('creation_date');
#349=DATE_TIME_ROLE('creation_date');
#350=DATE_TIME_ROLE('creation_date');
#351=APPLIED_DATE_AND_TIME_ASSIGNMENT(#354,#348,(#659));
#352=APPLIED_DATE_AND_TIME_ASSIGNMENT(#355,#349,(#660));
#353=APPLIED_DATE_AND_TIME_ASSIGNMENT(#356,#350,(#661));
#354=DATE_AND_TIME(#357,#360);
#355=DATE_AND_TIME(#358,#361);
#356=DATE_AND_TIME(#359,#362);
#357=CALENDAR_DATE(2018,3,12);
#358=CALENDAR_DATE(2018,3,12);
#359=CALENDAR_DATE(2014,15,8);
#360=LOCAL_TIME(16,9,43.,#363);
#361=LOCAL_TIME(14,45,18.,#364);
#362=LOCAL_TIME(10,33,6.,#365);
#363=COORDINATED_UNIVERSAL_TIME_OFFSET(0,0,.BEHIND.);
#364=COORDINATED_UNIVERSAL_TIME_OFFSET(0,0,.BEHIND.);
#365=COORDINATED_UNIVERSAL_TIME_OFFSET(0,0,.BEHIND.);
#366=AXIS2_PLACEMENT_3D('placement',#540,#421,#422);
#367=AXIS2_PLACEMENT_3D('placement',#541,#423,#424);
#368=AXIS2_PLACEMENT_3D('',#542,#425,#426);
#369=AXIS2_PLACEMENT_3D('',#545,#427,#428);
#370=AXIS2_PLACEMENT_3D('',#548,#430,#431);
#371=AXIS2_PLACEMENT_3D('',#549,#432,#433);
#372=AXIS2_PLACEMENT_3D('',#550,#434,#435);
#373=AXIS2_PLACEMENT_3D('',#553,#436,#437);
#374=AXIS2_PLACEMENT_3D('',#554,#438,#439);
#375=AXIS2_PLACEMENT_3D('',#555,#440,#441);
#376=AXIS2_PLACEMENT_3D('',#556,#442,#443);
#377=AXIS2_PLACEMENT_3D('',#558,#444,#445);
#378=AXIS2_PLACEMENT_3D('',#560,#447,#448);
#379=AXIS2_PLACEMENT_3D('',#562,#449,#450);
#380=AXIS2_PLACEMENT_3D('',#566,#452,#453);
#381=AXIS2_PLACEMENT_3D('',#567,#454,#455);
#382=AXIS2_PLACEMENT_3D('',#568,#456,#457);
#383=AXIS2_PLACEMENT_3D('',#570,#458,#459);
#384=AXIS2_PLACEMENT_3D('',#572,#460,#461);
#385=AXIS2_PLACEMENT_3D('',#573,#462,#463);
#386=AXIS2_PLACEMENT_3D('',#574,#464,#465);
#387=AXIS2_PLACEMENT_3D('',#577,#467,#468);
#388=AXIS2_PLACEMENT_3D('',#578,#469,#470);
#389=AXIS2_PLACEMENT_3D('',#579,#471,#472);
#390=AXIS2_PLACEMENT_3D('placement',#580,#473,#474);
#391=AXIS2_PLACEMENT_3D('',#581,#475,#476);
#392=AXIS2_PLACEMENT_3D('',#584,#477,#478);
#393=AXIS2_PLACEMENT_3D('',#585,#479,#480);
#394=AXIS2_PLACEMENT_3D('',#588,#481,#482);
#395=AXIS2_PLACEMENT_3D('',#589,#483,#484);
#396=AXIS2_PLACEMENT_3D('',#590,#485,#486);
#397=AXIS2_PLACEMENT_3D('',#593,#487,#488);
#398=AXIS2_PLACEMENT_3D('',#594,#489,#490);
#399=AXIS2_PLACEMENT_3D('',#596,#492,#493);
#400=AXIS2_PLACEMENT_3D('',#599,#494,#495);
#401=AXIS2_PLACEMENT_3D('',#600,#496,#497);
#402=AXIS2_PLACEMENT_3D('',#602,#499,#500);
#403=AXIS2_PLACEMENT_3D('',#605,#501,#502);
#404=AXIS2_PLACEMENT_3D('',#606,#503,#504);
#405=AXIS2_PLACEMENT_3D('',#607,#505,#506);
#406=AXIS2_PLACEMENT_3D('',#611,#508,#509);
#407=AXIS2_PLACEMENT_3D('',#612,#510,#511);
#408=AXIS2_PLACEMENT_3D('',#613,#512,#513);
#409=AXIS2_PLACEMENT_3D('',#616,#514,#515);
#410=AXIS2_PLACEMENT_3D('',#617,#516,#517);
#411=AXIS2_PLACEMENT_3D('',#618,#518,#519);
#412=AXIS2_PLACEMENT_3D('',#622,#521,#522);
#413=AXIS2_PLACEMENT_3D('',#623,#523,#524);
#414=AXIS2_PLACEMENT_3D('',#624,#525,#526);
#415=AXIS2_PLACEMENT_3D('',#627,#527,#528);
#416=AXIS2_PLACEMENT_3D('',#628,#529,#530);
#417=AXIS2_PLACEMENT_3D('',#629,#531,#532);
#418=AXIS2_PLACEMENT_3D('',#631,#534,#535);
#419=AXIS2_PLACEMENT_3D('',#632,#536,#537);
#420=AXIS2_PLACEMENT_3D('',#633,#538,#539);
#421=DIRECTION('axis',(0.,0.,1.));
#422=DIRECTION('refdir',(1.,0.,0.));
#423=DIRECTION('axis',(0.,0.,1.));
#424=DIRECTION('refdir',(1.,0.,0.));
#425=DIRECTION('center_axis',(1.,0.,0.));
#426=DIRECTION('ref_axis',(0.,-1.,0.));
#427=DIRECTION('center_axis',(1.,6.12323399573677E-17,0.));
#428=DIRECTION('ref_axis',(6.12323399573677E-17,-1.,0.));
#429=DIRECTION('',(1.,0.,0.));
#430=DIRECTION('center_axis',(-1.,-6.12323399573677E-17,0.));
#431=DIRECTION('ref_axis',(0.,-1.,0.));
#432=DIRECTION('center_axis',(1.,6.12323399573677E-17,0.));
#433=DIRECTION('ref_axis',(6.12323399573677E-17,-1.,0.));
#434=DIRECTION('center_axis',(0.,0.,-1.));
#435=DIRECTION('ref_axis',(-1.,0.,0.));
#436=DIRECTION('center_axis',(0.,1.,0.));
#437=DIRECTION('ref_axis',(1.,0.,0.));
#438=DIRECTION('center_axis',(0.,1.,0.));
#439=DIRECTION('ref_axis',(1.,0.,0.));
#440=DIRECTION('center_axis',(0.,0.,-1.));
#441=DIRECTION('ref_axis',(-1.,0.,0.));
#442=DIRECTION('center_axis',(0.,1.,0.));
#443=DIRECTION('ref_axis',(1.,0.,0.));
#444=DIRECTION('center_axis',(0.,1.,0.));
#445=DIRECTION('ref_axis',(1.,0.,0.));
#446=DIRECTION('',(0.,1.,0.));
#447=DIRECTION('center_axis',(1.,0.,0.));
#448=DIRECTION('ref_axis',(0.,-1.,0.));
#449=DIRECTION('center_axis',(1.,6.12323399573677E-17,0.));
#450=DIRECTION('ref_axis',(6.12323399573677E-17,-1.,0.));
#451=DIRECTION('',(-1.,0.,0.));
#452=DIRECTION('center_axis',(1.,6.12323399573677E-17,0.));
#453=DIRECTION('ref_axis',(6.12323399573677E-17,-1.,0.));
#454=DIRECTION('center_axis',(1.,6.12323399573677E-17,0.));
#455=DIRECTION('ref_axis',(6.12323399573677E-17,-1.,0.));
#456=DIRECTION('center_axis',(0.,0.,-1.));
#457=DIRECTION('ref_axis',(-1.,0.,0.));
#458=DIRECTION('center_axis',(0.,0.,1.));
#459=DIRECTION('ref_axis',(-1.,0.,0.));
#460=DIRECTION('center_axis',(0.,1.,0.));
#461=DIRECTION('ref_axis',(1.,0.,0.));
#462=DIRECTION('center_axis',(0.,1.,0.));
#463=DIRECTION('ref_axis',(1.,0.,0.));
#464=DIRECTION('center_axis',(0.,1.,0.));
#465=DIRECTION('ref_axis',(1.,0.,0.));
#466=DIRECTION('',(0.,-1.,0.));
#467=DIRECTION('center_axis',(0.,-1.,0.));
#468=DIRECTION('ref_axis',(1.,0.,0.));
#469=DIRECTION('center_axis',(1.,6.12323399573677E-17,0.));
#470=DIRECTION('ref_axis',(0.,0.,1.));
#471=DIRECTION('center_axis',(0.,1.,0.));
#472=DIRECTION('ref_axis',(0.,0.,1.));
#473=DIRECTION('axis',(0.,0.,1.));
#474=DIRECTION('refdir',(1.,0.,0.));
#475=DIRECTION('center_axis',(0.,-1.,0.));
#476=DIRECTION('ref_axis',(0.,0.,-1.));
#477=DIRECTION('center_axis',(0.,1.,0.));
#478=DIRECTION('ref_axis',(1.,0.,0.));
#479=DIRECTION('center_axis',(0.,1.,0.));
#480=DIRECTION('ref_axis',(1.,0.,0.));
#481=DIRECTION('center_axis',(0.,1.,0.));
#482=DIRECTION('ref_axis',(1.,0.,0.));
#483=DIRECTION('center_axis',(0.,1.,0.));
#484=DIRECTION('ref_axis',(1.,0.,0.));
#485=DIRECTION('center_axis',(0.,1.,0.));
#486=DIRECTION('ref_axis',(-1.,0.,0.));
#487=DIRECTION('center_axis',(0.,1.,0.));
#488=DIRECTION('ref_axis',(1.,0.,0.));
#489=DIRECTION('center_axis',(0.,1.,0.));
#490=DIRECTION('ref_axis',(1.,0.,0.));
#491=DIRECTION('',(0.,-1.,0.));
#492=DIRECTION('center_axis',(0.,-1.,0.));
#493=DIRECTION('ref_axis',(-1.,0.,0.));
#494=DIRECTION('center_axis',(0.,1.,0.));
#495=DIRECTION('ref_axis',(1.,0.,0.));
#496=DIRECTION('center_axis',(0.,1.,0.));
#497=DIRECTION('ref_axis',(1.,0.,0.));
#498=DIRECTION('',(0.965925826289069,-0.258819045102519,-1.18291797137867E-16));
#499=DIRECTION('center_axis',(0.,1.,0.));
#500=DIRECTION('ref_axis',(0.,0.,1.));
#501=DIRECTION('center_axis',(0.,1.,0.));
#502=DIRECTION('ref_axis',(1.,0.,0.));
#503=DIRECTION('center_axis',(0.,1.,0.));
#504=DIRECTION('ref_axis',(1.,0.,0.));
#505=DIRECTION('center_axis',(0.,1.,0.));
#506=DIRECTION('ref_axis',(-1.,0.,0.));
#507=DIRECTION('',(0.,-1.,0.));
#508=DIRECTION('center_axis',(0.,1.,0.));
#509=DIRECTION('ref_axis',(1.,0.,0.));
#510=DIRECTION('center_axis',(0.,1.,0.));
#511=DIRECTION('ref_axis',(1.,0.,0.));
#512=DIRECTION('center_axis',(0.,1.,0.));
#513=DIRECTION('ref_axis',(0.,0.,1.));
#514=DIRECTION('center_axis',(0.,1.,0.));
#515=DIRECTION('ref_axis',(1.,0.,0.));
#516=DIRECTION('center_axis',(0.,1.,0.));
#517=DIRECTION('ref_axis',(1.,0.,0.));
#518=DIRECTION('center_axis',(0.,1.,0.));
#519=DIRECTION('ref_axis',(-1.,0.,0.));
#520=DIRECTION('',(0.,-1.,0.));
#521=DIRECTION('center_axis',(0.,1.,0.));
#522=DIRECTION('ref_axis',(1.,0.,0.));
#523=DIRECTION('center_axis',(0.,1.,0.));
#524=DIRECTION('ref_axis',(1.,0.,0.));
#525=DIRECTION('center_axis',(0.,-1.,0.));
#526=DIRECTION('ref_axis',(0.,0.,-1.));
#527=DIRECTION('center_axis',(0.,1.,0.));
#528=DIRECTION('ref_axis',(1.,0.,0.));
#529=DIRECTION('center_axis',(0.,1.,0.));
#530=DIRECTION('ref_axis',(1.,0.,0.));
#531=DIRECTION('center_axis',(0.,1.,0.));
#532=DIRECTION('ref_axis',(-1.,0.,0.));
#533=DIRECTION('',(0.,-1.,0.));
#534=DIRECTION('',(0.,0.,1.));
#535=DIRECTION('',(1.,0.,0.));
#536=DIRECTION('',(1.,0.,0.));
#537=DIRECTION('',(0.,0.,-1.));
#538=DIRECTION('',(-6.12323399573677E-17,1.,0.));
#539=DIRECTION('',(0.,0.,-1.));
#540=CARTESIAN_POINT('',(0.,0.,0.));
#541=CARTESIAN_POINT('',(0.,0.,0.));
#542=CARTESIAN_POINT('Origin',(-8.8,80.,0.));
#543=CARTESIAN_POINT('',(-8.8,103.75,2.90853614797496E-15));
#544=CARTESIAN_POINT('',(-8.8,56.25,2.90853614797496E-15));
#545=CARTESIAN_POINT('Origin',(-8.8,80.,0.));
#546=CARTESIAN_POINT('',(-3.8,103.75,2.90853614797496E-15));
#547=CARTESIAN_POINT('',(-8.8,103.75,2.90853614797496E-15));
#548=CARTESIAN_POINT('Origin',(-3.8,80.,0.));
#549=CARTESIAN_POINT('Origin',(-8.8,80.,0.));
#550=CARTESIAN_POINT('Origin',(-8.8,8.8,0.));
#551=CARTESIAN_POINT('',(-103.75,8.8,2.90853614797496E-15));
#552=CARTESIAN_POINT('',(-56.25,8.8,2.90853614797496E-15));
#553=CARTESIAN_POINT('Origin',(-80.,8.8,0.));
#554=CARTESIAN_POINT('Origin',(-80.,8.8,0.));
#555=CARTESIAN_POINT('Origin',(-8.8,8.8,2.90853614797496E-15));
#556=CARTESIAN_POINT('Origin',(-80.,3.8,0.));
#557=CARTESIAN_POINT('',(-103.75,3.8,2.90853614797496E-15));
#558=CARTESIAN_POINT('Origin',(-80.,3.8,0.));
#559=CARTESIAN_POINT('',(-103.75,3.8,2.90853614797496E-15));
#560=CARTESIAN_POINT('Origin',(-8.8,80.,0.));
#561=CARTESIAN_POINT('',(-3.8,105.4,3.11060286983428E-15));
#562=CARTESIAN_POINT('Origin',(-3.8,80.,0.));
#563=CARTESIAN_POINT('',(-8.8,105.4,3.11060286983428E-15));
#564=CARTESIAN_POINT('',(-8.8,105.4,3.11060286983428E-15));
#565=CARTESIAN_POINT('',(-8.8,54.6,3.11060286983428E-15));
#566=CARTESIAN_POINT('Origin',(-8.8,80.,0.));
#567=CARTESIAN_POINT('Origin',(-8.8,80.,0.));
#568=CARTESIAN_POINT('Origin',(-8.8,8.8,0.));
#569=CARTESIAN_POINT('',(-54.6,8.8,3.11060286983428E-15));
#570=CARTESIAN_POINT('Origin',(-8.8,8.8,3.11060286983428E-15));
#571=CARTESIAN_POINT('',(-105.4,8.8,3.11060286983428E-15));
#572=CARTESIAN_POINT('Origin',(-80.,8.8,0.));
#573=CARTESIAN_POINT('Origin',(-80.,8.8,0.));
#574=CARTESIAN_POINT('Origin',(-80.,3.8,0.));
#575=CARTESIAN_POINT('',(-105.4,3.8,3.11060286983428E-15));
#576=CARTESIAN_POINT('',(-105.4,3.8,3.11060286983428E-15));
#577=CARTESIAN_POINT('Origin',(-80.,3.8,0.));
#578=CARTESIAN_POINT('Origin',(-3.8,80.,5.82794238648376E-16));
#579=CARTESIAN_POINT('Origin',(-80.,3.8,5.82794238648376E-16));
#580=CARTESIAN_POINT('',(0.,0.,0.));
#581=CARTESIAN_POINT('Origin',(-37.5,0.,0.));
#582=CARTESIAN_POINT('',(-37.5,0.,0.));
#583=CARTESIAN_POINT('',(37.5,0.,-4.59242549680258E-15));
#584=CARTESIAN_POINT('Origin',(0.,0.,0.));
#585=CARTESIAN_POINT('Origin',(0.,0.,0.));
#586=CARTESIAN_POINT('',(-25.6,0.,0.));
#587=CARTESIAN_POINT('',(25.6,0.,-3.13509580581722E-15));
#588=CARTESIAN_POINT('Origin',(0.,0.,0.));
#589=CARTESIAN_POINT('Origin',(0.,0.,0.));
#590=CARTESIAN_POINT('Origin',(0.,1.5,0.));
#591=CARTESIAN_POINT('',(-37.5,3.,0.));
#592=CARTESIAN_POINT('',(37.5,3.,-4.59242549680258E-15));
#593=CARTESIAN_POINT('Origin',(0.,3.,0.));
#594=CARTESIAN_POINT('Origin',(0.,3.,0.));
#595=CARTESIAN_POINT('',(37.5,1.5,-4.59242549680258E-15));
#596=CARTESIAN_POINT('Origin',(0.,4.,0.));
#597=CARTESIAN_POINT('',(-30.0358983848622,5.,0.));
#598=CARTESIAN_POINT('',(30.0358983848622,5.,-3.67833668165366E-15));
#599=CARTESIAN_POINT('Origin',(0.,5.,0.));
#600=CARTESIAN_POINT('Origin',(0.,5.,0.));
#601=CARTESIAN_POINT('',(33.7679491924311,4.,-4.13538108922812E-15));
#602=CARTESIAN_POINT('Origin',(-25.5,5.,0.));
#603=CARTESIAN_POINT('',(-25.5,5.,0.));
#604=CARTESIAN_POINT('',(25.5,5.,-3.12284933782575E-15));
#605=CARTESIAN_POINT('Origin',(0.,5.,0.));
#606=CARTESIAN_POINT('Origin',(0.,5.,0.));
#607=CARTESIAN_POINT('Origin',(0.,4.4,0.));
#608=CARTESIAN_POINT('',(25.5,3.8,-3.12284933782575E-15));
#609=CARTESIAN_POINT('',(25.5,4.4,-3.12284933782575E-15));
#610=CARTESIAN_POINT('',(-25.5,3.8,0.));
#611=CARTESIAN_POINT('Origin',(0.,3.8,0.));
#612=CARTESIAN_POINT('Origin',(0.,3.8,0.));
#613=CARTESIAN_POINT('Origin',(-24.55,3.8,0.));
#614=CARTESIAN_POINT('',(-24.55,3.8,0.));
#615=CARTESIAN_POINT('',(24.55,3.8,-3.00650789190675E-15));
#616=CARTESIAN_POINT('Origin',(0.,3.8,0.));
#617=CARTESIAN_POINT('Origin',(0.,3.8,0.));
#618=CARTESIAN_POINT('Origin',(0.,3.15,0.));
#619=CARTESIAN_POINT('',(24.55,2.5,-3.00650789190675E-15));
#620=CARTESIAN_POINT('',(24.55,3.15,-3.00650789190675E-15));
#621=CARTESIAN_POINT('',(-24.55,2.5,0.));
#622=CARTESIAN_POINT('Origin',(0.,2.5,0.));
#623=CARTESIAN_POINT('Origin',(0.,2.5,0.));
#624=CARTESIAN_POINT('Origin',(-25.6,2.5,0.));
#625=CARTESIAN_POINT('',(-25.6,2.5,0.));
#626=CARTESIAN_POINT('',(25.6,2.5,-3.13509580581722E-15));
#627=CARTESIAN_POINT('Origin',(0.,2.5,0.));
#628=CARTESIAN_POINT('Origin',(0.,2.5,0.));
#629=CARTESIAN_POINT('Origin',(0.,1.25,0.));
#630=CARTESIAN_POINT('',(25.6,1.25,-3.13509580581722E-15));
#631=CARTESIAN_POINT('',(44.9755870248074,-48.6140845962393,0.));
#632=CARTESIAN_POINT('',(-35.0244129751926,-48.6140845962393,0.));
#633=CARTESIAN_POINT('',(44.9755870248074,31.3859154037607,0.));
#634=UNCERTAINTY_MEASURE_WITH_UNIT(LENGTH_MEASURE(0.01),#642,
'DISTANCE_ACCURACY_VALUE',
'Maximum model space distance between geometric entities at asserted c
onnectivities');
#635=UNCERTAINTY_MEASURE_WITH_UNIT(LENGTH_MEASURE(0.01),#642,
'DISTANCE_ACCURACY_VALUE',
'Maximum model space distance between geometric entities at asserted c
onnectivities');
#636=UNCERTAINTY_MEASURE_WITH_UNIT(LENGTH_MEASURE(0.01),#642,
'DISTANCE_ACCURACY_VALUE',
'Maximum model space distance between geometric entities at asserted c
onnectivities');
#637=UNCERTAINTY_MEASURE_WITH_UNIT(LENGTH_MEASURE(0.01),#642,
'DISTANCE_ACCURACY_VALUE',
'Maximum model space distance between geometric entities at asserted c
onnectivities');
#638=(
GEOMETRIC_REPRESENTATION_CONTEXT(3)
GLOBAL_UNCERTAINTY_ASSIGNED_CONTEXT((#634))
GLOBAL_UNIT_ASSIGNED_CONTEXT((#642,#644,#645))
REPRESENTATION_CONTEXT('','3D')
);
#639=(
GEOMETRIC_REPRESENTATION_CONTEXT(3)
GLOBAL_UNCERTAINTY_ASSIGNED_CONTEXT((#635))
GLOBAL_UNIT_ASSIGNED_CONTEXT((#642,#644,#645))
REPRESENTATION_CONTEXT('','3D')
);
#640=(
GEOMETRIC_REPRESENTATION_CONTEXT(3)
GLOBAL_UNCERTAINTY_ASSIGNED_CONTEXT((#636))
GLOBAL_UNIT_ASSIGNED_CONTEXT((#642,#644,#645))
REPRESENTATION_CONTEXT('','3D')
);
#641=(
GEOMETRIC_REPRESENTATION_CONTEXT(3)
GLOBAL_UNCERTAINTY_ASSIGNED_CONTEXT((#637))
GLOBAL_UNIT_ASSIGNED_CONTEXT((#642,#644,#645))
REPRESENTATION_CONTEXT('','3D')
);
#642=(
LENGTH_UNIT()
NAMED_UNIT(*)
SI_UNIT(.MILLI.,.METRE.)
);
#643=(
LENGTH_UNIT()
NAMED_UNIT(*)
SI_UNIT(.CENTI.,.METRE.)
);
#644=(
NAMED_UNIT(*)
PLANE_ANGLE_UNIT()
SI_UNIT($,.RADIAN.)
);
#645=(
NAMED_UNIT(*)
SI_UNIT($,.STERADIAN.)
SOLID_ANGLE_UNIT()
);
#646=SHAPE_DEFINITION_REPRESENTATION(#649,#655);
#647=SHAPE_DEFINITION_REPRESENTATION(#650,#656);
#648=SHAPE_DEFINITION_REPRESENTATION(#651,#657);
#649=PRODUCT_DEFINITION_SHAPE('',$,#659);
#650=PRODUCT_DEFINITION_SHAPE('',$,#660);
#651=PRODUCT_DEFINITION_SHAPE('',$,#661);
#652=PRODUCT_DEFINITION_SHAPE($,$,#20);
#653=PRODUCT_DEFINITION_SHAPE($,$,#21);
#654=PRODUCT_DEFINITION_SHAPE($,$,#22);
#655=SHAPE_REPRESENTATION('',(#366,#418,#419,#420),#638);
#656=SHAPE_REPRESENTATION('',(#367),#639);
#657=SHAPE_REPRESENTATION('',(#390),#640);
#658=PRODUCT_DEFINITION_CONTEXT('part definition',#669,'design');
#659=PRODUCT_DEFINITION('FL-E50KF-80','FL-E50KF-80',#662,#658);
#660=PRODUCT_DEFINITION('tube','tube',#663,#658);
#661=PRODUCT_DEFINITION('FL-50KF-51W','FL-50KF-51W',#664,#658);
#662=PRODUCT_DEFINITION_FORMATION('',$,#671);
#663=PRODUCT_DEFINITION_FORMATION('',$,#672);
#664=PRODUCT_DEFINITION_FORMATION('',$,#673);
#665=PRODUCT_RELATED_PRODUCT_CATEGORY('FL-E50KF-80','FL-E50KF-80',(#671));
#666=PRODUCT_RELATED_PRODUCT_CATEGORY('tube','tube',(#672));
#667=PRODUCT_RELATED_PRODUCT_CATEGORY('FL-50KF-51W','FL-50KF-51W',(#673));
#668=APPLICATION_PROTOCOL_DEFINITION('international standard',
'automotive_design',2009,#669);
#669=APPLICATION_CONTEXT(
'Core Data for Automotive Mechanical Design Process');
#670=PRODUCT_CONTEXT('part definition',#669,'mechanical');
#671=PRODUCT('FL-E50KF-80','FL-E50KF-80',$,(#670));
#672=PRODUCT('tube','tube',$,(#670));
#673=PRODUCT('FL-50KF-51W','FL-50KF-51W',$,(#670));
ENDSEC;
END-ISO-10303-21;
