ISO-10303-21;
HEADER;
/* Generated by software containing ST-Developer
 * from STEP Tools, Inc. (www.steptools.com) 
 */

FILE_DESCRIPTION(
/* description */ (''),
/* implementation_level */ '2;1');

FILE_NAME(
/* name */ 
'G:\\FLANGES & FITTINGS\\Elbows KFLF\\Step files\\FL-E25KF-50.stp',
/* time_stamp */ '2018-12-03T16:04:39+00:00',
/* author */ ('paul'),
/* organization */ (''),
/* preprocessor_version */ 'ST-DEVELOPER v17.2',
/* originating_system */ 'Autodesk Inventor 2019',
/* authorisation */ '');

FILE_SCHEMA (('AUTOMOTIVE_DESIGN { 1 0 10303 214 3 1 1 }'));
ENDSEC;

DATA;
#10=MECHANICAL_DESIGN_GEOMETRIC_PRESENTATION_REPRESENTATION('',(#28,#29),
#611);
#11=ITEM_DEFINED_TRANSFORMATION($,$,#351,#399);
#12=ITEM_DEFINED_TRANSFORMATION($,$,#374,#400);
#13=ITEM_DEFINED_TRANSFORMATION($,$,#374,#401);
#14=(
REPRESENTATION_RELATIONSHIP($,$,#626,#625)
REPRESENTATION_RELATIONSHIP_WITH_TRANSFORMATION(#11)
SHAPE_REPRESENTATION_RELATIONSHIP()
);
#15=(
REPRESENTATION_RELATIONSHIP($,$,#627,#625)
REPRESENTATION_RELATIONSHIP_WITH_TRANSFORMATION(#12)
SHAPE_REPRESENTATION_RELATIONSHIP()
);
#16=(
REPRESENTATION_RELATIONSHIP($,$,#627,#625)
REPRESENTATION_RELATIONSHIP_WITH_TRANSFORMATION(#13)
SHAPE_REPRESENTATION_RELATIONSHIP()
);
#17=CONTEXT_DEPENDENT_SHAPE_REPRESENTATION(#14,#622);
#18=CONTEXT_DEPENDENT_SHAPE_REPRESENTATION(#15,#623);
#19=CONTEXT_DEPENDENT_SHAPE_REPRESENTATION(#16,#624);
#20=NEXT_ASSEMBLY_USAGE_OCCURRENCE('tube:1','tube:1','tube:1',#629,#630,
'tube:1');
#21=NEXT_ASSEMBLY_USAGE_OCCURRENCE('FL-25KF-25W:1','FL-25KF-25W:1',
'FL-25KF-25W:1',#629,#631,'FL-25KF-25W:1');
#22=NEXT_ASSEMBLY_USAGE_OCCURRENCE('FL-25KF-25W:2','FL-25KF-25W:2',
'FL-25KF-25W:2',#629,#631,'FL-25KF-25W:2');
#23=CONICAL_SURFACE('',#380,16.4,1.30899693899575);
#24=SHAPE_REPRESENTATION_RELATIONSHIP('SRR','None',#626,#26);
#25=SHAPE_REPRESENTATION_RELATIONSHIP('SRR','None',#627,#27);
#26=ADVANCED_BREP_SHAPE_REPRESENTATION('',(#30),#609);
#27=ADVANCED_BREP_SHAPE_REPRESENTATION('',(#31),#610);
#28=STYLED_ITEM('',(#323),#30);
#29=STYLED_ITEM('',(#323),#31);
#30=MANIFOLD_SOLID_BREP('Solid2',#298);
#31=MANIFOLD_SOLID_BREP('Solid1',#299);
#32=FACE_BOUND('',#67,.T.);
#33=FACE_BOUND('',#69,.T.);
#34=FACE_BOUND('',#74,.T.);
#35=FACE_BOUND('',#77,.T.);
#36=FACE_BOUND('',#80,.T.);
#37=PLANE('',#372);
#38=PLANE('',#373);
#39=PLANE('',#386);
#40=PLANE('',#392);
#41=PLANE('',#398);
#42=TOROIDAL_SURFACE('',#356,41.3,11.);
#43=TOROIDAL_SURFACE('',#366,41.3,12.7);
#44=FACE_OUTER_BOUND('',#60,.T.);
#45=FACE_OUTER_BOUND('',#61,.T.);
#46=FACE_OUTER_BOUND('',#62,.T.);
#47=FACE_OUTER_BOUND('',#63,.T.);
#48=FACE_OUTER_BOUND('',#64,.T.);
#49=FACE_OUTER_BOUND('',#65,.T.);
#50=FACE_OUTER_BOUND('',#66,.T.);
#51=FACE_OUTER_BOUND('',#68,.T.);
#52=FACE_OUTER_BOUND('',#70,.T.);
#53=FACE_OUTER_BOUND('',#71,.T.);
#54=FACE_OUTER_BOUND('',#72,.T.);
#55=FACE_OUTER_BOUND('',#73,.T.);
#56=FACE_OUTER_BOUND('',#75,.T.);
#57=FACE_OUTER_BOUND('',#76,.T.);
#58=FACE_OUTER_BOUND('',#78,.T.);
#59=FACE_OUTER_BOUND('',#79,.T.);
#60=EDGE_LOOP('',(#196,#197,#198,#199,#200));
#61=EDGE_LOOP('',(#201,#202,#203,#204,#205,#206));
#62=EDGE_LOOP('',(#207,#208,#209,#210,#211));
#63=EDGE_LOOP('',(#212,#213,#214,#215,#216));
#64=EDGE_LOOP('',(#217,#218,#219,#220,#221,#222));
#65=EDGE_LOOP('',(#223,#224,#225,#226,#227));
#66=EDGE_LOOP('',(#228));
#67=EDGE_LOOP('',(#229));
#68=EDGE_LOOP('',(#230));
#69=EDGE_LOOP('',(#231));
#70=EDGE_LOOP('',(#232,#233,#234,#235,#236,#237));
#71=EDGE_LOOP('',(#238,#239,#240,#241,#242,#243));
#72=EDGE_LOOP('',(#244,#245,#246,#247,#248,#249));
#73=EDGE_LOOP('',(#250,#251));
#74=EDGE_LOOP('',(#252,#253));
#75=EDGE_LOOP('',(#254,#255,#256,#257,#258,#259));
#76=EDGE_LOOP('',(#260,#261));
#77=EDGE_LOOP('',(#262,#263));
#78=EDGE_LOOP('',(#264,#265,#266,#267,#268,#269));
#79=EDGE_LOOP('',(#270,#271));
#80=EDGE_LOOP('',(#272,#273));
#81=LINE('',#522,#90);
#82=LINE('',#534,#91);
#83=LINE('',#539,#92);
#84=LINE('',#551,#93);
#85=LINE('',#562,#94);
#86=LINE('',#571,#95);
#87=LINE('',#574,#96);
#88=LINE('',#585,#97);
#89=LINE('',#596,#98);
#90=VECTOR('',#410,11.);
#91=VECTOR('',#427,11.);
#92=VECTOR('',#432,12.7);
#93=VECTOR('',#447,12.7);
#94=VECTOR('',#462,20.);
#95=VECTOR('',#473,16.4);
#96=VECTOR('',#476,12.8);
#97=VECTOR('',#489,11.875);
#98=VECTOR('',#502,13.1);
#99=CIRCLE('',#353,11.);
#100=CIRCLE('',#354,11.);
#101=CIRCLE('',#355,11.);
#102=CIRCLE('',#357,11.);
#103=CIRCLE('',#358,11.);
#104=CIRCLE('',#359,30.3);
#105=CIRCLE('',#361,11.);
#106=CIRCLE('',#363,12.7);
#107=CIRCLE('',#364,12.7);
#108=CIRCLE('',#365,12.7);
#109=CIRCLE('',#367,28.6);
#110=CIRCLE('',#368,12.7);
#111=CIRCLE('',#369,12.7);
#112=CIRCLE('',#371,12.7);
#113=CIRCLE('',#376,20.);
#114=CIRCLE('',#377,20.);
#115=CIRCLE('',#378,20.);
#116=CIRCLE('',#379,20.);
#117=CIRCLE('',#381,12.8);
#118=CIRCLE('',#382,12.8);
#119=CIRCLE('',#384,12.8);
#120=CIRCLE('',#385,12.8);
#121=CIRCLE('',#387,11.875);
#122=CIRCLE('',#388,11.875);
#123=CIRCLE('',#390,11.875);
#124=CIRCLE('',#391,11.875);
#125=CIRCLE('',#393,13.1);
#126=CIRCLE('',#394,13.1);
#127=CIRCLE('',#396,13.1);
#128=CIRCLE('',#397,13.1);
#129=VERTEX_POINT('',#518);
#130=VERTEX_POINT('',#519);
#131=VERTEX_POINT('',#521);
#132=VERTEX_POINT('',#526);
#133=VERTEX_POINT('',#527);
#134=VERTEX_POINT('',#532);
#135=VERTEX_POINT('',#536);
#136=VERTEX_POINT('',#538);
#137=VERTEX_POINT('',#540);
#138=VERTEX_POINT('',#544);
#139=VERTEX_POINT('',#546);
#140=VERTEX_POINT('',#550);
#141=VERTEX_POINT('',#557);
#142=VERTEX_POINT('',#558);
#143=VERTEX_POINT('',#561);
#144=VERTEX_POINT('',#563);
#145=VERTEX_POINT('',#567);
#146=VERTEX_POINT('',#568);
#147=VERTEX_POINT('',#573);
#148=VERTEX_POINT('',#575);
#149=VERTEX_POINT('',#579);
#150=VERTEX_POINT('',#580);
#151=VERTEX_POINT('',#584);
#152=VERTEX_POINT('',#586);
#153=VERTEX_POINT('',#590);
#154=VERTEX_POINT('',#591);
#155=VERTEX_POINT('',#595);
#156=VERTEX_POINT('',#597);
#157=EDGE_CURVE('',#129,#130,#99,.T.);
#158=EDGE_CURVE('',#129,#131,#81,.T.);
#159=EDGE_CURVE('',#131,#131,#100,.T.);
#160=EDGE_CURVE('',#130,#129,#101,.T.);
#161=EDGE_CURVE('',#132,#133,#102,.T.);
#162=EDGE_CURVE('',#133,#132,#103,.T.);
#163=EDGE_CURVE('',#133,#130,#104,.T.);
#164=EDGE_CURVE('',#134,#134,#105,.T.);
#165=EDGE_CURVE('',#134,#132,#82,.T.);
#166=EDGE_CURVE('',#135,#135,#106,.T.);
#167=EDGE_CURVE('',#135,#136,#83,.T.);
#168=EDGE_CURVE('',#136,#137,#107,.T.);
#169=EDGE_CURVE('',#137,#136,#108,.T.);
#170=EDGE_CURVE('',#137,#138,#109,.T.);
#171=EDGE_CURVE('',#138,#139,#110,.T.);
#172=EDGE_CURVE('',#139,#138,#111,.T.);
#173=EDGE_CURVE('',#139,#140,#84,.T.);
#174=EDGE_CURVE('',#140,#140,#112,.T.);
#175=EDGE_CURVE('',#141,#142,#113,.T.);
#176=EDGE_CURVE('',#142,#141,#114,.T.);
#177=EDGE_CURVE('',#142,#143,#85,.T.);
#178=EDGE_CURVE('',#143,#144,#115,.T.);
#179=EDGE_CURVE('',#144,#143,#116,.T.);
#180=EDGE_CURVE('',#145,#146,#117,.T.);
#181=EDGE_CURVE('',#146,#145,#118,.T.);
#182=EDGE_CURVE('',#146,#142,#86,.T.);
#183=EDGE_CURVE('',#146,#147,#87,.T.);
#184=EDGE_CURVE('',#148,#147,#119,.T.);
#185=EDGE_CURVE('',#147,#148,#120,.T.);
#186=EDGE_CURVE('',#149,#150,#121,.T.);
#187=EDGE_CURVE('',#150,#149,#122,.T.);
#188=EDGE_CURVE('',#150,#151,#88,.T.);
#189=EDGE_CURVE('',#152,#151,#123,.T.);
#190=EDGE_CURVE('',#151,#152,#124,.T.);
#191=EDGE_CURVE('',#153,#154,#125,.T.);
#192=EDGE_CURVE('',#154,#153,#126,.T.);
#193=EDGE_CURVE('',#154,#155,#89,.T.);
#194=EDGE_CURVE('',#156,#155,#127,.T.);
#195=EDGE_CURVE('',#155,#156,#128,.T.);
#196=ORIENTED_EDGE('',*,*,#157,.F.);
#197=ORIENTED_EDGE('',*,*,#158,.T.);
#198=ORIENTED_EDGE('',*,*,#159,.F.);
#199=ORIENTED_EDGE('',*,*,#158,.F.);
#200=ORIENTED_EDGE('',*,*,#160,.F.);
#201=ORIENTED_EDGE('',*,*,#161,.F.);
#202=ORIENTED_EDGE('',*,*,#162,.F.);
#203=ORIENTED_EDGE('',*,*,#163,.T.);
#204=ORIENTED_EDGE('',*,*,#160,.T.);
#205=ORIENTED_EDGE('',*,*,#157,.T.);
#206=ORIENTED_EDGE('',*,*,#163,.F.);
#207=ORIENTED_EDGE('',*,*,#164,.F.);
#208=ORIENTED_EDGE('',*,*,#165,.T.);
#209=ORIENTED_EDGE('',*,*,#161,.T.);
#210=ORIENTED_EDGE('',*,*,#162,.T.);
#211=ORIENTED_EDGE('',*,*,#165,.F.);
#212=ORIENTED_EDGE('',*,*,#166,.F.);
#213=ORIENTED_EDGE('',*,*,#167,.T.);
#214=ORIENTED_EDGE('',*,*,#168,.T.);
#215=ORIENTED_EDGE('',*,*,#169,.T.);
#216=ORIENTED_EDGE('',*,*,#167,.F.);
#217=ORIENTED_EDGE('',*,*,#168,.F.);
#218=ORIENTED_EDGE('',*,*,#169,.F.);
#219=ORIENTED_EDGE('',*,*,#170,.T.);
#220=ORIENTED_EDGE('',*,*,#171,.T.);
#221=ORIENTED_EDGE('',*,*,#172,.T.);
#222=ORIENTED_EDGE('',*,*,#170,.F.);
#223=ORIENTED_EDGE('',*,*,#172,.F.);
#224=ORIENTED_EDGE('',*,*,#173,.T.);
#225=ORIENTED_EDGE('',*,*,#174,.F.);
#226=ORIENTED_EDGE('',*,*,#173,.F.);
#227=ORIENTED_EDGE('',*,*,#171,.F.);
#228=ORIENTED_EDGE('',*,*,#166,.T.);
#229=ORIENTED_EDGE('',*,*,#159,.T.);
#230=ORIENTED_EDGE('',*,*,#174,.T.);
#231=ORIENTED_EDGE('',*,*,#164,.T.);
#232=ORIENTED_EDGE('',*,*,#175,.F.);
#233=ORIENTED_EDGE('',*,*,#176,.F.);
#234=ORIENTED_EDGE('',*,*,#177,.T.);
#235=ORIENTED_EDGE('',*,*,#178,.T.);
#236=ORIENTED_EDGE('',*,*,#179,.T.);
#237=ORIENTED_EDGE('',*,*,#177,.F.);
#238=ORIENTED_EDGE('',*,*,#180,.F.);
#239=ORIENTED_EDGE('',*,*,#181,.F.);
#240=ORIENTED_EDGE('',*,*,#182,.T.);
#241=ORIENTED_EDGE('',*,*,#176,.T.);
#242=ORIENTED_EDGE('',*,*,#175,.T.);
#243=ORIENTED_EDGE('',*,*,#182,.F.);
#244=ORIENTED_EDGE('',*,*,#180,.T.);
#245=ORIENTED_EDGE('',*,*,#183,.T.);
#246=ORIENTED_EDGE('',*,*,#184,.F.);
#247=ORIENTED_EDGE('',*,*,#185,.F.);
#248=ORIENTED_EDGE('',*,*,#183,.F.);
#249=ORIENTED_EDGE('',*,*,#181,.T.);
#250=ORIENTED_EDGE('',*,*,#184,.T.);
#251=ORIENTED_EDGE('',*,*,#185,.T.);
#252=ORIENTED_EDGE('',*,*,#186,.F.);
#253=ORIENTED_EDGE('',*,*,#187,.F.);
#254=ORIENTED_EDGE('',*,*,#186,.T.);
#255=ORIENTED_EDGE('',*,*,#188,.T.);
#256=ORIENTED_EDGE('',*,*,#189,.F.);
#257=ORIENTED_EDGE('',*,*,#190,.F.);
#258=ORIENTED_EDGE('',*,*,#188,.F.);
#259=ORIENTED_EDGE('',*,*,#187,.T.);
#260=ORIENTED_EDGE('',*,*,#191,.F.);
#261=ORIENTED_EDGE('',*,*,#192,.F.);
#262=ORIENTED_EDGE('',*,*,#189,.T.);
#263=ORIENTED_EDGE('',*,*,#190,.T.);
#264=ORIENTED_EDGE('',*,*,#191,.T.);
#265=ORIENTED_EDGE('',*,*,#193,.T.);
#266=ORIENTED_EDGE('',*,*,#194,.F.);
#267=ORIENTED_EDGE('',*,*,#195,.F.);
#268=ORIENTED_EDGE('',*,*,#193,.F.);
#269=ORIENTED_EDGE('',*,*,#192,.T.);
#270=ORIENTED_EDGE('',*,*,#179,.F.);
#271=ORIENTED_EDGE('',*,*,#178,.F.);
#272=ORIENTED_EDGE('',*,*,#194,.T.);
#273=ORIENTED_EDGE('',*,*,#195,.T.);
#274=CYLINDRICAL_SURFACE('',#352,11.);
#275=CYLINDRICAL_SURFACE('',#360,11.);
#276=CYLINDRICAL_SURFACE('',#362,12.7);
#277=CYLINDRICAL_SURFACE('',#370,12.7);
#278=CYLINDRICAL_SURFACE('',#375,20.);
#279=CYLINDRICAL_SURFACE('',#383,12.8);
#280=CYLINDRICAL_SURFACE('',#389,11.875);
#281=CYLINDRICAL_SURFACE('',#395,13.1);
#282=ADVANCED_FACE('',(#44),#274,.F.);
#283=ADVANCED_FACE('',(#45),#42,.F.);
#284=ADVANCED_FACE('',(#46),#275,.F.);
#285=ADVANCED_FACE('',(#47),#276,.T.);
#286=ADVANCED_FACE('',(#48),#43,.T.);
#287=ADVANCED_FACE('',(#49),#277,.T.);
#288=ADVANCED_FACE('',(#50,#32),#37,.T.);
#289=ADVANCED_FACE('',(#51,#33),#38,.F.);
#290=ADVANCED_FACE('',(#52),#278,.T.);
#291=ADVANCED_FACE('',(#53),#23,.T.);
#292=ADVANCED_FACE('',(#54),#279,.F.);
#293=ADVANCED_FACE('',(#55,#34),#39,.T.);
#294=ADVANCED_FACE('',(#56),#280,.F.);
#295=ADVANCED_FACE('',(#57,#35),#40,.T.);
#296=ADVANCED_FACE('',(#58),#281,.F.);
#297=ADVANCED_FACE('',(#59,#36),#41,.T.);
#298=CLOSED_SHELL('',(#282,#283,#284,#285,#286,#287,#288,#289));
#299=CLOSED_SHELL('',(#290,#291,#292,#293,#294,#295,#296,#297));
#300=DERIVED_UNIT_ELEMENT(#304,1.);
#301=DERIVED_UNIT_ELEMENT(#613,3.);
#302=DERIVED_UNIT_ELEMENT(#304,1.);
#303=DERIVED_UNIT_ELEMENT(#613,3.);
#304=(
MASS_UNIT()
NAMED_UNIT(*)
SI_UNIT($,.GRAM.)
);
#305=DERIVED_UNIT((#300,#301));
#306=DERIVED_UNIT((#302,#303));
#307=MEASURE_REPRESENTATION_ITEM('density measure',
POSITIVE_RATIO_MEASURE(8.),#305);
#308=MEASURE_REPRESENTATION_ITEM('density measure',
POSITIVE_RATIO_MEASURE(8.),#306);
#309=PROPERTY_DEFINITION_REPRESENTATION(#319,#313);
#310=PROPERTY_DEFINITION_REPRESENTATION(#320,#314);
#311=PROPERTY_DEFINITION_REPRESENTATION(#321,#315);
#312=PROPERTY_DEFINITION_REPRESENTATION(#322,#316);
#313=REPRESENTATION('material name',(#317),#609);
#314=REPRESENTATION('density',(#307),#609);
#315=REPRESENTATION('material name',(#318),#610);
#316=REPRESENTATION('density',(#308),#610);
#317=DESCRIPTIVE_REPRESENTATION_ITEM('Stainless Steel AISI 304',
'Stainless Steel AISI 304');
#318=DESCRIPTIVE_REPRESENTATION_ITEM('Stainless Steel AISI 304',
'Stainless Steel AISI 304');
#319=PROPERTY_DEFINITION('material property','material name',#630);
#320=PROPERTY_DEFINITION('material property','density of part',#630);
#321=PROPERTY_DEFINITION('material property','material name',#631);
#322=PROPERTY_DEFINITION('material property','density of part',#631);
#323=PRESENTATION_STYLE_ASSIGNMENT((#324));
#324=SURFACE_STYLE_USAGE(.BOTH.,#327);
#325=SURFACE_STYLE_RENDERING_WITH_PROPERTIES($,#331,(#326));
#326=SURFACE_STYLE_TRANSPARENT(1.);
#327=SURFACE_SIDE_STYLE('',(#328,#325));
#328=SURFACE_STYLE_FILL_AREA(#329);
#329=FILL_AREA_STYLE('',(#330));
#330=FILL_AREA_STYLE_COLOUR('',#331);
#331=COLOUR_RGB('',0.745098039215686,0.737254901960784,0.729411764705882);
#332=DATE_TIME_ROLE('creation_date');
#333=DATE_TIME_ROLE('creation_date');
#334=DATE_TIME_ROLE('creation_date');
#335=APPLIED_DATE_AND_TIME_ASSIGNMENT(#338,#332,(#629));
#336=APPLIED_DATE_AND_TIME_ASSIGNMENT(#339,#333,(#630));
#337=APPLIED_DATE_AND_TIME_ASSIGNMENT(#340,#334,(#631));
#338=DATE_AND_TIME(#341,#344);
#339=DATE_AND_TIME(#342,#345);
#340=DATE_AND_TIME(#343,#346);
#341=CALENDAR_DATE(2018,3,12);
#342=CALENDAR_DATE(2018,3,12);
#343=CALENDAR_DATE(2014,18,11);
#344=LOCAL_TIME(15,45,39.,#347);
#345=LOCAL_TIME(14,45,18.,#348);
#346=LOCAL_TIME(10,34,47.,#349);
#347=COORDINATED_UNIVERSAL_TIME_OFFSET(0,0,.BEHIND.);
#348=COORDINATED_UNIVERSAL_TIME_OFFSET(0,0,.BEHIND.);
#349=COORDINATED_UNIVERSAL_TIME_OFFSET(0,0,.BEHIND.);
#350=AXIS2_PLACEMENT_3D('placement',#515,#402,#403);
#351=AXIS2_PLACEMENT_3D('placement',#516,#404,#405);
#352=AXIS2_PLACEMENT_3D('',#517,#406,#407);
#353=AXIS2_PLACEMENT_3D('',#520,#408,#409);
#354=AXIS2_PLACEMENT_3D('',#523,#411,#412);
#355=AXIS2_PLACEMENT_3D('',#524,#413,#414);
#356=AXIS2_PLACEMENT_3D('',#525,#415,#416);
#357=AXIS2_PLACEMENT_3D('',#528,#417,#418);
#358=AXIS2_PLACEMENT_3D('',#529,#419,#420);
#359=AXIS2_PLACEMENT_3D('',#530,#421,#422);
#360=AXIS2_PLACEMENT_3D('',#531,#423,#424);
#361=AXIS2_PLACEMENT_3D('',#533,#425,#426);
#362=AXIS2_PLACEMENT_3D('',#535,#428,#429);
#363=AXIS2_PLACEMENT_3D('',#537,#430,#431);
#364=AXIS2_PLACEMENT_3D('',#541,#433,#434);
#365=AXIS2_PLACEMENT_3D('',#542,#435,#436);
#366=AXIS2_PLACEMENT_3D('',#543,#437,#438);
#367=AXIS2_PLACEMENT_3D('',#545,#439,#440);
#368=AXIS2_PLACEMENT_3D('',#547,#441,#442);
#369=AXIS2_PLACEMENT_3D('',#548,#443,#444);
#370=AXIS2_PLACEMENT_3D('',#549,#445,#446);
#371=AXIS2_PLACEMENT_3D('',#552,#448,#449);
#372=AXIS2_PLACEMENT_3D('',#553,#450,#451);
#373=AXIS2_PLACEMENT_3D('',#554,#452,#453);
#374=AXIS2_PLACEMENT_3D('placement',#555,#454,#455);
#375=AXIS2_PLACEMENT_3D('',#556,#456,#457);
#376=AXIS2_PLACEMENT_3D('',#559,#458,#459);
#377=AXIS2_PLACEMENT_3D('',#560,#460,#461);
#378=AXIS2_PLACEMENT_3D('',#564,#463,#464);
#379=AXIS2_PLACEMENT_3D('',#565,#465,#466);
#380=AXIS2_PLACEMENT_3D('',#566,#467,#468);
#381=AXIS2_PLACEMENT_3D('',#569,#469,#470);
#382=AXIS2_PLACEMENT_3D('',#570,#471,#472);
#383=AXIS2_PLACEMENT_3D('',#572,#474,#475);
#384=AXIS2_PLACEMENT_3D('',#576,#477,#478);
#385=AXIS2_PLACEMENT_3D('',#577,#479,#480);
#386=AXIS2_PLACEMENT_3D('',#578,#481,#482);
#387=AXIS2_PLACEMENT_3D('',#581,#483,#484);
#388=AXIS2_PLACEMENT_3D('',#582,#485,#486);
#389=AXIS2_PLACEMENT_3D('',#583,#487,#488);
#390=AXIS2_PLACEMENT_3D('',#587,#490,#491);
#391=AXIS2_PLACEMENT_3D('',#588,#492,#493);
#392=AXIS2_PLACEMENT_3D('',#589,#494,#495);
#393=AXIS2_PLACEMENT_3D('',#592,#496,#497);
#394=AXIS2_PLACEMENT_3D('',#593,#498,#499);
#395=AXIS2_PLACEMENT_3D('',#594,#500,#501);
#396=AXIS2_PLACEMENT_3D('',#598,#503,#504);
#397=AXIS2_PLACEMENT_3D('',#599,#505,#506);
#398=AXIS2_PLACEMENT_3D('',#600,#507,#508);
#399=AXIS2_PLACEMENT_3D('',#601,#509,#510);
#400=AXIS2_PLACEMENT_3D('',#602,#511,#512);
#401=AXIS2_PLACEMENT_3D('',#603,#513,#514);
#402=DIRECTION('axis',(0.,0.,1.));
#403=DIRECTION('refdir',(1.,0.,0.));
#404=DIRECTION('axis',(0.,0.,1.));
#405=DIRECTION('refdir',(1.,0.,0.));
#406=DIRECTION('center_axis',(1.,0.,0.));
#407=DIRECTION('ref_axis',(0.,-1.,0.));
#408=DIRECTION('center_axis',(1.,-2.15921370929295E-15,0.));
#409=DIRECTION('ref_axis',(-2.15921370929295E-15,-1.,0.));
#410=DIRECTION('',(1.,0.,0.));
#411=DIRECTION('center_axis',(-1.,2.15921370929295E-15,0.));
#412=DIRECTION('ref_axis',(0.,-1.,0.));
#413=DIRECTION('center_axis',(1.,-2.15921370929295E-15,0.));
#414=DIRECTION('ref_axis',(-2.15921370929295E-15,-1.,0.));
#415=DIRECTION('center_axis',(0.,0.,-1.));
#416=DIRECTION('ref_axis',(-1.,0.,0.));
#417=DIRECTION('center_axis',(0.,1.,0.));
#418=DIRECTION('ref_axis',(1.,0.,0.));
#419=DIRECTION('center_axis',(0.,1.,0.));
#420=DIRECTION('ref_axis',(1.,0.,0.));
#421=DIRECTION('center_axis',(0.,0.,-1.));
#422=DIRECTION('ref_axis',(-1.,0.,0.));
#423=DIRECTION('center_axis',(0.,1.,0.));
#424=DIRECTION('ref_axis',(1.,0.,0.));
#425=DIRECTION('center_axis',(0.,1.,0.));
#426=DIRECTION('ref_axis',(1.,0.,0.));
#427=DIRECTION('',(0.,1.,0.));
#428=DIRECTION('center_axis',(1.,0.,0.));
#429=DIRECTION('ref_axis',(0.,-1.,0.));
#430=DIRECTION('center_axis',(1.,-2.15921370929295E-15,0.));
#431=DIRECTION('ref_axis',(-2.15921370929295E-15,-1.,0.));
#432=DIRECTION('',(-1.,0.,0.));
#433=DIRECTION('center_axis',(1.,-2.15921370929295E-15,0.));
#434=DIRECTION('ref_axis',(-2.15921370929295E-15,-1.,0.));
#435=DIRECTION('center_axis',(1.,-2.15921370929295E-15,0.));
#436=DIRECTION('ref_axis',(-2.15921370929295E-15,-1.,0.));
#437=DIRECTION('center_axis',(0.,0.,-1.));
#438=DIRECTION('ref_axis',(-1.,0.,0.));
#439=DIRECTION('center_axis',(0.,0.,1.));
#440=DIRECTION('ref_axis',(-1.,0.,0.));
#441=DIRECTION('center_axis',(0.,1.,0.));
#442=DIRECTION('ref_axis',(1.,0.,0.));
#443=DIRECTION('center_axis',(0.,1.,0.));
#444=DIRECTION('ref_axis',(1.,0.,0.));
#445=DIRECTION('center_axis',(0.,1.,0.));
#446=DIRECTION('ref_axis',(1.,0.,0.));
#447=DIRECTION('',(0.,-1.,0.));
#448=DIRECTION('center_axis',(0.,-1.,0.));
#449=DIRECTION('ref_axis',(1.,0.,0.));
#450=DIRECTION('center_axis',(1.,-2.15921370929295E-15,0.));
#451=DIRECTION('ref_axis',(0.,0.,1.));
#452=DIRECTION('center_axis',(0.,1.,0.));
#453=DIRECTION('ref_axis',(0.,0.,1.));
#454=DIRECTION('axis',(0.,0.,1.));
#455=DIRECTION('refdir',(1.,0.,0.));
#456=DIRECTION('center_axis',(0.,1.,0.));
#457=DIRECTION('ref_axis',(-1.,0.,0.));
#458=DIRECTION('center_axis',(0.,1.,0.));
#459=DIRECTION('ref_axis',(1.,0.,0.));
#460=DIRECTION('center_axis',(0.,1.,0.));
#461=DIRECTION('ref_axis',(1.,0.,0.));
#462=DIRECTION('',(0.,-1.,0.));
#463=DIRECTION('center_axis',(0.,1.,0.));
#464=DIRECTION('ref_axis',(1.,0.,0.));
#465=DIRECTION('center_axis',(0.,1.,0.));
#466=DIRECTION('ref_axis',(1.,0.,0.));
#467=DIRECTION('center_axis',(0.,-1.,0.));
#468=DIRECTION('ref_axis',(-1.,0.,0.));
#469=DIRECTION('center_axis',(0.,1.,0.));
#470=DIRECTION('ref_axis',(1.,0.,0.));
#471=DIRECTION('center_axis',(0.,1.,0.));
#472=DIRECTION('ref_axis',(1.,0.,0.));
#473=DIRECTION('',(0.965925826289068,-0.25881904510252,-1.18291797137867E-16));
#474=DIRECTION('center_axis',(0.,1.,0.));
#475=DIRECTION('ref_axis',(-1.,0.,0.));
#476=DIRECTION('',(0.,-1.,0.));
#477=DIRECTION('center_axis',(0.,1.,0.));
#478=DIRECTION('ref_axis',(1.,0.,0.));
#479=DIRECTION('center_axis',(0.,1.,0.));
#480=DIRECTION('ref_axis',(1.,0.,0.));
#481=DIRECTION('center_axis',(0.,1.,0.));
#482=DIRECTION('ref_axis',(0.,0.,1.));
#483=DIRECTION('center_axis',(0.,1.,0.));
#484=DIRECTION('ref_axis',(1.,0.,0.));
#485=DIRECTION('center_axis',(0.,1.,0.));
#486=DIRECTION('ref_axis',(1.,0.,0.));
#487=DIRECTION('center_axis',(0.,1.,0.));
#488=DIRECTION('ref_axis',(-1.,0.,0.));
#489=DIRECTION('',(0.,-1.,0.));
#490=DIRECTION('center_axis',(0.,1.,0.));
#491=DIRECTION('ref_axis',(1.,0.,0.));
#492=DIRECTION('center_axis',(0.,1.,0.));
#493=DIRECTION('ref_axis',(1.,0.,0.));
#494=DIRECTION('center_axis',(0.,-1.,0.));
#495=DIRECTION('ref_axis',(0.,0.,-1.));
#496=DIRECTION('center_axis',(0.,1.,0.));
#497=DIRECTION('ref_axis',(1.,0.,0.));
#498=DIRECTION('center_axis',(0.,1.,0.));
#499=DIRECTION('ref_axis',(1.,0.,0.));
#500=DIRECTION('center_axis',(0.,1.,0.));
#501=DIRECTION('ref_axis',(-1.,0.,0.));
#502=DIRECTION('',(0.,-1.,0.));
#503=DIRECTION('center_axis',(0.,1.,0.));
#504=DIRECTION('ref_axis',(1.,0.,0.));
#505=DIRECTION('center_axis',(0.,1.,0.));
#506=DIRECTION('ref_axis',(1.,0.,0.));
#507=DIRECTION('center_axis',(0.,-1.,0.));
#508=DIRECTION('ref_axis',(0.,0.,-1.));
#509=DIRECTION('',(0.,0.,1.));
#510=DIRECTION('',(1.,0.,0.));
#511=DIRECTION('',(0.,0.,1.));
#512=DIRECTION('',(1.,9.95705781248201E-32,0.));
#513=DIRECTION('',(-2.15921370929295E-15,-1.,1.54074395550979E-33));
#514=DIRECTION('',(6.18702623046953E-33,1.54074395550978E-33,1.));
#515=CARTESIAN_POINT('',(0.,0.,0.));
#516=CARTESIAN_POINT('',(0.,0.,0.));
#517=CARTESIAN_POINT('Origin',(-8.70000000000002,50.,0.));
#518=CARTESIAN_POINT('',(-8.69999999999999,61.,1.34711147906209E-15));
#519=CARTESIAN_POINT('',(-8.70000000000004,39.,1.34711147906209E-15));
#520=CARTESIAN_POINT('Origin',(-8.70000000000002,50.,0.));
#521=CARTESIAN_POINT('',(-3.69999999999999,61.,1.34711147906209E-15));
#522=CARTESIAN_POINT('',(-8.70000000000002,61.,1.34711147906209E-15));
#523=CARTESIAN_POINT('Origin',(-3.70000000000002,50.,0.));
#524=CARTESIAN_POINT('Origin',(-8.70000000000002,50.,0.));
#525=CARTESIAN_POINT('Origin',(-8.7,8.7,0.));
#526=CARTESIAN_POINT('',(-61.,8.6999999999999,1.34711147906209E-15));
#527=CARTESIAN_POINT('',(-39.,8.69999999999989,1.34711147906209E-15));
#528=CARTESIAN_POINT('Origin',(-50.,8.6999999999999,0.));
#529=CARTESIAN_POINT('Origin',(-50.,8.6999999999999,0.));
#530=CARTESIAN_POINT('Origin',(-8.7,8.7,1.34711147906209E-15));
#531=CARTESIAN_POINT('Origin',(-50.,3.7,0.));
#532=CARTESIAN_POINT('',(-61.,3.7,1.34711147906209E-15));
#533=CARTESIAN_POINT('Origin',(-50.,3.7,0.));
#534=CARTESIAN_POINT('',(-61.,3.7,1.34711147906209E-15));
#535=CARTESIAN_POINT('Origin',(-8.70000000000002,50.,0.));
#536=CARTESIAN_POINT('',(-3.69999999999999,62.7,1.55530143491714E-15));
#537=CARTESIAN_POINT('Origin',(-3.70000000000002,50.,0.));
#538=CARTESIAN_POINT('',(-8.69999999999999,62.7,1.55530143491714E-15));
#539=CARTESIAN_POINT('',(-8.70000000000002,62.7,1.55530143491714E-15));
#540=CARTESIAN_POINT('',(-8.70000000000004,37.3,1.55530143491714E-15));
#541=CARTESIAN_POINT('Origin',(-8.70000000000002,50.,0.));
#542=CARTESIAN_POINT('Origin',(-8.70000000000002,50.,0.));
#543=CARTESIAN_POINT('Origin',(-8.7,8.7,0.));
#544=CARTESIAN_POINT('',(-37.3,8.69999999999989,1.55530143491714E-15));
#545=CARTESIAN_POINT('Origin',(-8.7,8.7,1.55530143491714E-15));
#546=CARTESIAN_POINT('',(-62.7,8.6999999999999,1.55530143491714E-15));
#547=CARTESIAN_POINT('Origin',(-50.,8.6999999999999,0.));
#548=CARTESIAN_POINT('Origin',(-50.,8.6999999999999,0.));
#549=CARTESIAN_POINT('Origin',(-50.,3.7,0.));
#550=CARTESIAN_POINT('',(-62.7,3.7,1.55530143491714E-15));
#551=CARTESIAN_POINT('',(-62.7,3.7,1.55530143491714E-15));
#552=CARTESIAN_POINT('Origin',(-50.,3.7,0.));
#553=CARTESIAN_POINT('Origin',(-3.70000000000002,50.,2.91397119324188E-16));
#554=CARTESIAN_POINT('Origin',(-50.,3.7,2.91397119324188E-16));
#555=CARTESIAN_POINT('',(0.,0.,0.));
#556=CARTESIAN_POINT('Origin',(0.,1.5,0.));
#557=CARTESIAN_POINT('',(-20.,3.,0.));
#558=CARTESIAN_POINT('',(20.,3.,-2.44929359829471E-15));
#559=CARTESIAN_POINT('Origin',(0.,3.,0.));
#560=CARTESIAN_POINT('Origin',(0.,3.,0.));
#561=CARTESIAN_POINT('',(20.,0.,-2.44929359829471E-15));
#562=CARTESIAN_POINT('',(20.,1.5,-2.44929359829471E-15));
#563=CARTESIAN_POINT('',(-20.,0.,0.));
#564=CARTESIAN_POINT('Origin',(0.,0.,0.));
#565=CARTESIAN_POINT('Origin',(0.,0.,0.));
#566=CARTESIAN_POINT('Origin',(0.,3.96461709275204,0.));
#567=CARTESIAN_POINT('',(-12.8,4.92923418550408,0.));
#568=CARTESIAN_POINT('',(12.8,4.92923418550408,-1.56754790290861E-15));
#569=CARTESIAN_POINT('Origin',(0.,4.92923418550408,0.));
#570=CARTESIAN_POINT('Origin',(0.,4.92923418550408,0.));
#571=CARTESIAN_POINT('',(16.4,3.96461709275204,-2.00842075060166E-15));
#572=CARTESIAN_POINT('Origin',(0.,4.31461709275204,0.));
#573=CARTESIAN_POINT('',(12.8,3.7,-1.56754790290861E-15));
#574=CARTESIAN_POINT('',(12.8,4.31461709275204,-1.56754790290861E-15));
#575=CARTESIAN_POINT('',(-12.8,3.7,0.));
#576=CARTESIAN_POINT('Origin',(0.,3.7,0.));
#577=CARTESIAN_POINT('Origin',(0.,3.7,0.));
#578=CARTESIAN_POINT('Origin',(-11.875,3.7,0.));
#579=CARTESIAN_POINT('',(-11.875,3.7,0.));
#580=CARTESIAN_POINT('',(11.875,3.7,-1.45426807398748E-15));
#581=CARTESIAN_POINT('Origin',(0.,3.7,0.));
#582=CARTESIAN_POINT('Origin',(0.,3.7,0.));
#583=CARTESIAN_POINT('Origin',(0.,3.1,0.));
#584=CARTESIAN_POINT('',(11.875,2.5,-1.45426807398748E-15));
#585=CARTESIAN_POINT('',(11.875,3.1,-1.45426807398748E-15));
#586=CARTESIAN_POINT('',(-11.875,2.5,0.));
#587=CARTESIAN_POINT('Origin',(0.,2.5,0.));
#588=CARTESIAN_POINT('Origin',(0.,2.5,0.));
#589=CARTESIAN_POINT('Origin',(-13.1,2.5,0.));
#590=CARTESIAN_POINT('',(-13.1,2.5,0.));
#591=CARTESIAN_POINT('',(13.1,2.5,-1.60428730688303E-15));
#592=CARTESIAN_POINT('Origin',(0.,2.5,0.));
#593=CARTESIAN_POINT('Origin',(0.,2.5,0.));
#594=CARTESIAN_POINT('Origin',(0.,1.25,0.));
#595=CARTESIAN_POINT('',(13.1,0.,-1.60428730688303E-15));
#596=CARTESIAN_POINT('',(13.1,1.25,-1.60428730688303E-15));
#597=CARTESIAN_POINT('',(-13.1,0.,0.));
#598=CARTESIAN_POINT('Origin',(0.,0.,0.));
#599=CARTESIAN_POINT('Origin',(0.,0.,0.));
#600=CARTESIAN_POINT('Origin',(-20.,0.,0.));
#601=CARTESIAN_POINT('',(27.0275507582743,-32.015813577334,0.));
#602=CARTESIAN_POINT('',(-22.9724492417257,-32.015813577334,6.16297582203915E-32));
#603=CARTESIAN_POINT('',(27.0275507582743,17.984186422666,0.));
#604=UNCERTAINTY_MEASURE_WITH_UNIT(LENGTH_MEASURE(0.01),#612,
'DISTANCE_ACCURACY_VALUE',
'Maximum model space distance between geometric entities at asserted c
onnectivities');
#605=UNCERTAINTY_MEASURE_WITH_UNIT(LENGTH_MEASURE(0.01),#612,
'DISTANCE_ACCURACY_VALUE',
'Maximum model space distance between geometric entities at asserted c
onnectivities');
#606=UNCERTAINTY_MEASURE_WITH_UNIT(LENGTH_MEASURE(0.01),#612,
'DISTANCE_ACCURACY_VALUE',
'Maximum model space distance between geometric entities at asserted c
onnectivities');
#607=UNCERTAINTY_MEASURE_WITH_UNIT(LENGTH_MEASURE(0.01),#612,
'DISTANCE_ACCURACY_VALUE',
'Maximum model space distance between geometric entities at asserted c
onnectivities');
#608=(
GEOMETRIC_REPRESENTATION_CONTEXT(3)
GLOBAL_UNCERTAINTY_ASSIGNED_CONTEXT((#604))
GLOBAL_UNIT_ASSIGNED_CONTEXT((#612,#614,#615))
REPRESENTATION_CONTEXT('','3D')
);
#609=(
GEOMETRIC_REPRESENTATION_CONTEXT(3)
GLOBAL_UNCERTAINTY_ASSIGNED_CONTEXT((#605))
GLOBAL_UNIT_ASSIGNED_CONTEXT((#612,#614,#615))
REPRESENTATION_CONTEXT('','3D')
);
#610=(
GEOMETRIC_REPRESENTATION_CONTEXT(3)
GLOBAL_UNCERTAINTY_ASSIGNED_CONTEXT((#606))
GLOBAL_UNIT_ASSIGNED_CONTEXT((#612,#614,#615))
REPRESENTATION_CONTEXT('','3D')
);
#611=(
GEOMETRIC_REPRESENTATION_CONTEXT(3)
GLOBAL_UNCERTAINTY_ASSIGNED_CONTEXT((#607))
GLOBAL_UNIT_ASSIGNED_CONTEXT((#612,#614,#615))
REPRESENTATION_CONTEXT('','3D')
);
#612=(
LENGTH_UNIT()
NAMED_UNIT(*)
SI_UNIT(.MILLI.,.METRE.)
);
#613=(
LENGTH_UNIT()
NAMED_UNIT(*)
SI_UNIT(.CENTI.,.METRE.)
);
#614=(
NAMED_UNIT(*)
PLANE_ANGLE_UNIT()
SI_UNIT($,.RADIAN.)
);
#615=(
NAMED_UNIT(*)
SI_UNIT($,.STERADIAN.)
SOLID_ANGLE_UNIT()
);
#616=SHAPE_DEFINITION_REPRESENTATION(#619,#625);
#617=SHAPE_DEFINITION_REPRESENTATION(#620,#626);
#618=SHAPE_DEFINITION_REPRESENTATION(#621,#627);
#619=PRODUCT_DEFINITION_SHAPE('',$,#629);
#620=PRODUCT_DEFINITION_SHAPE('',$,#630);
#621=PRODUCT_DEFINITION_SHAPE('',$,#631);
#622=PRODUCT_DEFINITION_SHAPE($,$,#20);
#623=PRODUCT_DEFINITION_SHAPE($,$,#21);
#624=PRODUCT_DEFINITION_SHAPE($,$,#22);
#625=SHAPE_REPRESENTATION('',(#350,#399,#400,#401),#608);
#626=SHAPE_REPRESENTATION('',(#351),#609);
#627=SHAPE_REPRESENTATION('',(#374),#610);
#628=PRODUCT_DEFINITION_CONTEXT('part definition',#639,'design');
#629=PRODUCT_DEFINITION('FL-E25KF-50','FL-E25KF-50',#632,#628);
#630=PRODUCT_DEFINITION('tube','tube',#633,#628);
#631=PRODUCT_DEFINITION('FL-25KF-25W','FL-25KF-25W',#634,#628);
#632=PRODUCT_DEFINITION_FORMATION('',$,#641);
#633=PRODUCT_DEFINITION_FORMATION('',$,#642);
#634=PRODUCT_DEFINITION_FORMATION('',$,#643);
#635=PRODUCT_RELATED_PRODUCT_CATEGORY('FL-E25KF-50','FL-E25KF-50',(#641));
#636=PRODUCT_RELATED_PRODUCT_CATEGORY('tube','tube',(#642));
#637=PRODUCT_RELATED_PRODUCT_CATEGORY('FL-25KF-25W','FL-25KF-25W',(#643));
#638=APPLICATION_PROTOCOL_DEFINITION('international standard',
'automotive_design',2009,#639);
#639=APPLICATION_CONTEXT(
'Core Data for Automotive Mechanical Design Process');
#640=PRODUCT_CONTEXT('part definition',#639,'mechanical');
#641=PRODUCT('FL-E25KF-50','FL-E25KF-50',$,(#640));
#642=PRODUCT('tube','tube',$,(#640));
#643=PRODUCT('FL-25KF-25W','FL-25KF-25W',$,(#640));
ENDSEC;
END-ISO-10303-21;
