ISO-10303-21;
HEADER;
/* Generated by software containing ST-Developer
 * from STEP Tools, Inc. (www.steptools.com) 
 */

FILE_DESCRIPTION(
/* description */ (''),
/* implementation_level */ '2;1');

FILE_NAME(
/* name */ 
'G:\\FLANGES & FITTINGS\\Elbows KFLF\\Step files\\FL-E10KF-29.stp',
/* time_stamp */ '2018-12-03T15:23:29+00:00',
/* author */ ('paul'),
/* organization */ (''),
/* preprocessor_version */ 'ST-DEVELOPER v17.2',
/* originating_system */ 'Autodesk Inventor 2019',
/* authorisation */ '');

FILE_SCHEMA (('AUTOMOTIVE_DESIGN { 1 0 10303 214 3 1 1 }'));
ENDSEC;

DATA;
#10=MECHANICAL_DESIGN_GEOMETRIC_PRESENTATION_REPRESENTATION('',(#28,#29),
#576);
#11=ITEM_DEFINED_TRANSFORMATION($,$,#332,#377);
#12=ITEM_DEFINED_TRANSFORMATION($,$,#355,#378);
#13=ITEM_DEFINED_TRANSFORMATION($,$,#355,#379);
#14=(
REPRESENTATION_RELATIONSHIP($,$,#591,#590)
REPRESENTATION_RELATIONSHIP_WITH_TRANSFORMATION(#11)
SHAPE_REPRESENTATION_RELATIONSHIP()
);
#15=(
REPRESENTATION_RELATIONSHIP($,$,#592,#590)
REPRESENTATION_RELATIONSHIP_WITH_TRANSFORMATION(#12)
SHAPE_REPRESENTATION_RELATIONSHIP()
);
#16=(
REPRESENTATION_RELATIONSHIP($,$,#592,#590)
REPRESENTATION_RELATIONSHIP_WITH_TRANSFORMATION(#13)
SHAPE_REPRESENTATION_RELATIONSHIP()
);
#17=CONTEXT_DEPENDENT_SHAPE_REPRESENTATION(#14,#587);
#18=CONTEXT_DEPENDENT_SHAPE_REPRESENTATION(#15,#588);
#19=CONTEXT_DEPENDENT_SHAPE_REPRESENTATION(#16,#589);
#20=NEXT_ASSEMBLY_USAGE_OCCURRENCE('tube:1','tube:1','tube:1',#594,#595,
'tube:1');
#21=NEXT_ASSEMBLY_USAGE_OCCURRENCE('FL-10KF-12W:1','FL-10KF-12W:1',
'FL-10KF-12W:1',#594,#596,'FL-10KF-12W:1');
#22=NEXT_ASSEMBLY_USAGE_OCCURRENCE('FL-10KF-12W:2','FL-10KF-12W:2',
'FL-10KF-12W:2',#594,#596,'FL-10KF-12W:2');
#23=CONICAL_SURFACE('',#361,11.2679491924311,1.30899693899575);
#24=SHAPE_REPRESENTATION_RELATIONSHIP('SRR','None',#591,#26);
#25=SHAPE_REPRESENTATION_RELATIONSHIP('SRR','None',#592,#27);
#26=ADVANCED_BREP_SHAPE_REPRESENTATION('',(#30),#574);
#27=ADVANCED_BREP_SHAPE_REPRESENTATION('',(#31),#575);
#28=STYLED_ITEM('',(#304),#30);
#29=STYLED_ITEM('',(#304),#31);
#30=MANIFOLD_SOLID_BREP('Solid2',#279);
#31=MANIFOLD_SOLID_BREP('Solid1',#280);
#32=FACE_BOUND('',#66,.T.);
#33=FACE_BOUND('',#68,.T.);
#34=FACE_BOUND('',#72,.T.);
#35=FACE_BOUND('',#75,.T.);
#36=FACE_BOUND('',#78,.T.);
#37=PLANE('',#353);
#38=PLANE('',#354);
#39=PLANE('',#364);
#40=PLANE('',#370);
#41=PLANE('',#376);
#42=TOROIDAL_SURFACE('',#337,22.,5.45);
#43=TOROIDAL_SURFACE('',#347,22.,6.35);
#44=FACE_OUTER_BOUND('',#59,.T.);
#45=FACE_OUTER_BOUND('',#60,.T.);
#46=FACE_OUTER_BOUND('',#61,.T.);
#47=FACE_OUTER_BOUND('',#62,.T.);
#48=FACE_OUTER_BOUND('',#63,.T.);
#49=FACE_OUTER_BOUND('',#64,.T.);
#50=FACE_OUTER_BOUND('',#65,.T.);
#51=FACE_OUTER_BOUND('',#67,.T.);
#52=FACE_OUTER_BOUND('',#69,.T.);
#53=FACE_OUTER_BOUND('',#70,.T.);
#54=FACE_OUTER_BOUND('',#71,.T.);
#55=FACE_OUTER_BOUND('',#73,.T.);
#56=FACE_OUTER_BOUND('',#74,.T.);
#57=FACE_OUTER_BOUND('',#76,.T.);
#58=FACE_OUTER_BOUND('',#77,.T.);
#59=EDGE_LOOP('',(#185,#186,#187,#188,#189));
#60=EDGE_LOOP('',(#190,#191,#192,#193,#194,#195));
#61=EDGE_LOOP('',(#196,#197,#198,#199,#200));
#62=EDGE_LOOP('',(#201,#202,#203,#204,#205));
#63=EDGE_LOOP('',(#206,#207,#208,#209,#210,#211));
#64=EDGE_LOOP('',(#212,#213,#214,#215,#216));
#65=EDGE_LOOP('',(#217));
#66=EDGE_LOOP('',(#218));
#67=EDGE_LOOP('',(#219));
#68=EDGE_LOOP('',(#220));
#69=EDGE_LOOP('',(#221,#222,#223,#224,#225,#226));
#70=EDGE_LOOP('',(#227,#228,#229,#230,#231,#232));
#71=EDGE_LOOP('',(#233,#234));
#72=EDGE_LOOP('',(#235,#236));
#73=EDGE_LOOP('',(#237,#238,#239,#240,#241,#242));
#74=EDGE_LOOP('',(#243,#244));
#75=EDGE_LOOP('',(#245,#246));
#76=EDGE_LOOP('',(#247,#248,#249,#250,#251,#252));
#77=EDGE_LOOP('',(#253,#254));
#78=EDGE_LOOP('',(#255,#256));
#79=LINE('',#493,#87);
#80=LINE('',#505,#88);
#81=LINE('',#510,#89);
#82=LINE('',#522,#90);
#83=LINE('',#533,#91);
#84=LINE('',#542,#92);
#85=LINE('',#550,#93);
#86=LINE('',#561,#94);
#87=VECTOR('',#388,5.45);
#88=VECTOR('',#405,5.45);
#89=VECTOR('',#410,6.35);
#90=VECTOR('',#425,6.35);
#91=VECTOR('',#440,15.);
#92=VECTOR('',#451,11.2679491924311);
#93=VECTOR('',#460,6.45);
#94=VECTOR('',#473,6.1);
#95=CIRCLE('',#334,5.45);
#96=CIRCLE('',#335,5.45);
#97=CIRCLE('',#336,5.45);
#98=CIRCLE('',#338,5.45);
#99=CIRCLE('',#339,5.45);
#100=CIRCLE('',#340,16.55);
#101=CIRCLE('',#342,5.45);
#102=CIRCLE('',#344,6.35);
#103=CIRCLE('',#345,6.35);
#104=CIRCLE('',#346,6.35);
#105=CIRCLE('',#348,15.65);
#106=CIRCLE('',#349,6.35);
#107=CIRCLE('',#350,6.35);
#108=CIRCLE('',#352,6.35);
#109=CIRCLE('',#357,15.);
#110=CIRCLE('',#358,15.);
#111=CIRCLE('',#359,15.);
#112=CIRCLE('',#360,15.);
#113=CIRCLE('',#362,7.53589838486224);
#114=CIRCLE('',#363,7.53589838486224);
#115=CIRCLE('',#365,6.45);
#116=CIRCLE('',#366,6.45);
#117=CIRCLE('',#368,6.45);
#118=CIRCLE('',#369,6.45);
#119=CIRCLE('',#371,6.1);
#120=CIRCLE('',#372,6.1);
#121=CIRCLE('',#374,6.1);
#122=CIRCLE('',#375,6.1);
#123=VERTEX_POINT('',#489);
#124=VERTEX_POINT('',#490);
#125=VERTEX_POINT('',#492);
#126=VERTEX_POINT('',#497);
#127=VERTEX_POINT('',#498);
#128=VERTEX_POINT('',#503);
#129=VERTEX_POINT('',#507);
#130=VERTEX_POINT('',#509);
#131=VERTEX_POINT('',#511);
#132=VERTEX_POINT('',#515);
#133=VERTEX_POINT('',#517);
#134=VERTEX_POINT('',#521);
#135=VERTEX_POINT('',#528);
#136=VERTEX_POINT('',#529);
#137=VERTEX_POINT('',#532);
#138=VERTEX_POINT('',#534);
#139=VERTEX_POINT('',#538);
#140=VERTEX_POINT('',#539);
#141=VERTEX_POINT('',#544);
#142=VERTEX_POINT('',#545);
#143=VERTEX_POINT('',#549);
#144=VERTEX_POINT('',#551);
#145=VERTEX_POINT('',#555);
#146=VERTEX_POINT('',#556);
#147=VERTEX_POINT('',#560);
#148=VERTEX_POINT('',#562);
#149=EDGE_CURVE('',#123,#124,#95,.T.);
#150=EDGE_CURVE('',#123,#125,#79,.T.);
#151=EDGE_CURVE('',#125,#125,#96,.T.);
#152=EDGE_CURVE('',#124,#123,#97,.T.);
#153=EDGE_CURVE('',#126,#127,#98,.T.);
#154=EDGE_CURVE('',#127,#126,#99,.T.);
#155=EDGE_CURVE('',#127,#124,#100,.T.);
#156=EDGE_CURVE('',#128,#128,#101,.T.);
#157=EDGE_CURVE('',#128,#126,#80,.T.);
#158=EDGE_CURVE('',#129,#129,#102,.T.);
#159=EDGE_CURVE('',#129,#130,#81,.T.);
#160=EDGE_CURVE('',#130,#131,#103,.T.);
#161=EDGE_CURVE('',#131,#130,#104,.T.);
#162=EDGE_CURVE('',#131,#132,#105,.T.);
#163=EDGE_CURVE('',#132,#133,#106,.T.);
#164=EDGE_CURVE('',#133,#132,#107,.T.);
#165=EDGE_CURVE('',#133,#134,#82,.T.);
#166=EDGE_CURVE('',#134,#134,#108,.T.);
#167=EDGE_CURVE('',#135,#136,#109,.T.);
#168=EDGE_CURVE('',#136,#135,#110,.T.);
#169=EDGE_CURVE('',#136,#137,#83,.T.);
#170=EDGE_CURVE('',#137,#138,#111,.T.);
#171=EDGE_CURVE('',#138,#137,#112,.T.);
#172=EDGE_CURVE('',#139,#140,#113,.T.);
#173=EDGE_CURVE('',#140,#139,#114,.T.);
#174=EDGE_CURVE('',#140,#136,#84,.T.);
#175=EDGE_CURVE('',#141,#142,#115,.T.);
#176=EDGE_CURVE('',#142,#141,#116,.T.);
#177=EDGE_CURVE('',#142,#143,#85,.T.);
#178=EDGE_CURVE('',#144,#143,#117,.T.);
#179=EDGE_CURVE('',#143,#144,#118,.T.);
#180=EDGE_CURVE('',#145,#146,#119,.T.);
#181=EDGE_CURVE('',#146,#145,#120,.T.);
#182=EDGE_CURVE('',#146,#147,#86,.T.);
#183=EDGE_CURVE('',#148,#147,#121,.T.);
#184=EDGE_CURVE('',#147,#148,#122,.T.);
#185=ORIENTED_EDGE('',*,*,#149,.F.);
#186=ORIENTED_EDGE('',*,*,#150,.T.);
#187=ORIENTED_EDGE('',*,*,#151,.F.);
#188=ORIENTED_EDGE('',*,*,#150,.F.);
#189=ORIENTED_EDGE('',*,*,#152,.F.);
#190=ORIENTED_EDGE('',*,*,#153,.F.);
#191=ORIENTED_EDGE('',*,*,#154,.F.);
#192=ORIENTED_EDGE('',*,*,#155,.T.);
#193=ORIENTED_EDGE('',*,*,#152,.T.);
#194=ORIENTED_EDGE('',*,*,#149,.T.);
#195=ORIENTED_EDGE('',*,*,#155,.F.);
#196=ORIENTED_EDGE('',*,*,#156,.F.);
#197=ORIENTED_EDGE('',*,*,#157,.T.);
#198=ORIENTED_EDGE('',*,*,#153,.T.);
#199=ORIENTED_EDGE('',*,*,#154,.T.);
#200=ORIENTED_EDGE('',*,*,#157,.F.);
#201=ORIENTED_EDGE('',*,*,#158,.F.);
#202=ORIENTED_EDGE('',*,*,#159,.T.);
#203=ORIENTED_EDGE('',*,*,#160,.T.);
#204=ORIENTED_EDGE('',*,*,#161,.T.);
#205=ORIENTED_EDGE('',*,*,#159,.F.);
#206=ORIENTED_EDGE('',*,*,#160,.F.);
#207=ORIENTED_EDGE('',*,*,#161,.F.);
#208=ORIENTED_EDGE('',*,*,#162,.T.);
#209=ORIENTED_EDGE('',*,*,#163,.T.);
#210=ORIENTED_EDGE('',*,*,#164,.T.);
#211=ORIENTED_EDGE('',*,*,#162,.F.);
#212=ORIENTED_EDGE('',*,*,#164,.F.);
#213=ORIENTED_EDGE('',*,*,#165,.T.);
#214=ORIENTED_EDGE('',*,*,#166,.F.);
#215=ORIENTED_EDGE('',*,*,#165,.F.);
#216=ORIENTED_EDGE('',*,*,#163,.F.);
#217=ORIENTED_EDGE('',*,*,#158,.T.);
#218=ORIENTED_EDGE('',*,*,#151,.T.);
#219=ORIENTED_EDGE('',*,*,#166,.T.);
#220=ORIENTED_EDGE('',*,*,#156,.T.);
#221=ORIENTED_EDGE('',*,*,#167,.F.);
#222=ORIENTED_EDGE('',*,*,#168,.F.);
#223=ORIENTED_EDGE('',*,*,#169,.T.);
#224=ORIENTED_EDGE('',*,*,#170,.T.);
#225=ORIENTED_EDGE('',*,*,#171,.T.);
#226=ORIENTED_EDGE('',*,*,#169,.F.);
#227=ORIENTED_EDGE('',*,*,#172,.F.);
#228=ORIENTED_EDGE('',*,*,#173,.F.);
#229=ORIENTED_EDGE('',*,*,#174,.T.);
#230=ORIENTED_EDGE('',*,*,#168,.T.);
#231=ORIENTED_EDGE('',*,*,#167,.T.);
#232=ORIENTED_EDGE('',*,*,#174,.F.);
#233=ORIENTED_EDGE('',*,*,#172,.T.);
#234=ORIENTED_EDGE('',*,*,#173,.T.);
#235=ORIENTED_EDGE('',*,*,#175,.F.);
#236=ORIENTED_EDGE('',*,*,#176,.F.);
#237=ORIENTED_EDGE('',*,*,#175,.T.);
#238=ORIENTED_EDGE('',*,*,#177,.T.);
#239=ORIENTED_EDGE('',*,*,#178,.F.);
#240=ORIENTED_EDGE('',*,*,#179,.F.);
#241=ORIENTED_EDGE('',*,*,#177,.F.);
#242=ORIENTED_EDGE('',*,*,#176,.T.);
#243=ORIENTED_EDGE('',*,*,#178,.T.);
#244=ORIENTED_EDGE('',*,*,#179,.T.);
#245=ORIENTED_EDGE('',*,*,#180,.F.);
#246=ORIENTED_EDGE('',*,*,#181,.F.);
#247=ORIENTED_EDGE('',*,*,#180,.T.);
#248=ORIENTED_EDGE('',*,*,#182,.T.);
#249=ORIENTED_EDGE('',*,*,#183,.F.);
#250=ORIENTED_EDGE('',*,*,#184,.F.);
#251=ORIENTED_EDGE('',*,*,#182,.F.);
#252=ORIENTED_EDGE('',*,*,#181,.T.);
#253=ORIENTED_EDGE('',*,*,#171,.F.);
#254=ORIENTED_EDGE('',*,*,#170,.F.);
#255=ORIENTED_EDGE('',*,*,#183,.T.);
#256=ORIENTED_EDGE('',*,*,#184,.T.);
#257=CYLINDRICAL_SURFACE('',#333,5.45);
#258=CYLINDRICAL_SURFACE('',#341,5.45);
#259=CYLINDRICAL_SURFACE('',#343,6.35);
#260=CYLINDRICAL_SURFACE('',#351,6.35);
#261=CYLINDRICAL_SURFACE('',#356,15.);
#262=CYLINDRICAL_SURFACE('',#367,6.45);
#263=CYLINDRICAL_SURFACE('',#373,6.1);
#264=ADVANCED_FACE('',(#44),#257,.F.);
#265=ADVANCED_FACE('',(#45),#42,.F.);
#266=ADVANCED_FACE('',(#46),#258,.F.);
#267=ADVANCED_FACE('',(#47),#259,.T.);
#268=ADVANCED_FACE('',(#48),#43,.T.);
#269=ADVANCED_FACE('',(#49),#260,.T.);
#270=ADVANCED_FACE('',(#50,#32),#37,.T.);
#271=ADVANCED_FACE('',(#51,#33),#38,.F.);
#272=ADVANCED_FACE('',(#52),#261,.T.);
#273=ADVANCED_FACE('',(#53),#23,.T.);
#274=ADVANCED_FACE('',(#54,#34),#39,.T.);
#275=ADVANCED_FACE('',(#55),#262,.F.);
#276=ADVANCED_FACE('',(#56,#35),#40,.T.);
#277=ADVANCED_FACE('',(#57),#263,.F.);
#278=ADVANCED_FACE('',(#58,#36),#41,.T.);
#279=CLOSED_SHELL('',(#264,#265,#266,#267,#268,#269,#270,#271));
#280=CLOSED_SHELL('',(#272,#273,#274,#275,#276,#277,#278));
#281=DERIVED_UNIT_ELEMENT(#285,1.);
#282=DERIVED_UNIT_ELEMENT(#578,3.);
#283=DERIVED_UNIT_ELEMENT(#285,1.);
#284=DERIVED_UNIT_ELEMENT(#578,3.);
#285=(
MASS_UNIT()
NAMED_UNIT(*)
SI_UNIT($,.GRAM.)
);
#286=DERIVED_UNIT((#281,#282));
#287=DERIVED_UNIT((#283,#284));
#288=MEASURE_REPRESENTATION_ITEM('density measure',
POSITIVE_RATIO_MEASURE(8.),#286);
#289=MEASURE_REPRESENTATION_ITEM('density measure',
POSITIVE_RATIO_MEASURE(8.),#287);
#290=PROPERTY_DEFINITION_REPRESENTATION(#300,#294);
#291=PROPERTY_DEFINITION_REPRESENTATION(#301,#295);
#292=PROPERTY_DEFINITION_REPRESENTATION(#302,#296);
#293=PROPERTY_DEFINITION_REPRESENTATION(#303,#297);
#294=REPRESENTATION('material name',(#298),#574);
#295=REPRESENTATION('density',(#288),#574);
#296=REPRESENTATION('material name',(#299),#575);
#297=REPRESENTATION('density',(#289),#575);
#298=DESCRIPTIVE_REPRESENTATION_ITEM('Stainless Steel AISI 304',
'Stainless Steel AISI 304');
#299=DESCRIPTIVE_REPRESENTATION_ITEM('Stainless Steel AISI 304',
'Stainless Steel AISI 304');
#300=PROPERTY_DEFINITION('material property','material name',#595);
#301=PROPERTY_DEFINITION('material property','density of part',#595);
#302=PROPERTY_DEFINITION('material property','material name',#596);
#303=PROPERTY_DEFINITION('material property','density of part',#596);
#304=PRESENTATION_STYLE_ASSIGNMENT((#305));
#305=SURFACE_STYLE_USAGE(.BOTH.,#308);
#306=SURFACE_STYLE_RENDERING_WITH_PROPERTIES($,#312,(#307));
#307=SURFACE_STYLE_TRANSPARENT(1.);
#308=SURFACE_SIDE_STYLE('',(#309,#306));
#309=SURFACE_STYLE_FILL_AREA(#310);
#310=FILL_AREA_STYLE('',(#311));
#311=FILL_AREA_STYLE_COLOUR('',#312);
#312=COLOUR_RGB('',0.745098039215686,0.737254901960784,0.729411764705882);
#313=DATE_TIME_ROLE('creation_date');
#314=DATE_TIME_ROLE('creation_date');
#315=DATE_TIME_ROLE('creation_date');
#316=APPLIED_DATE_AND_TIME_ASSIGNMENT(#319,#313,(#594));
#317=APPLIED_DATE_AND_TIME_ASSIGNMENT(#320,#314,(#595));
#318=APPLIED_DATE_AND_TIME_ASSIGNMENT(#321,#315,(#596));
#319=DATE_AND_TIME(#322,#325);
#320=DATE_AND_TIME(#323,#326);
#321=DATE_AND_TIME(#324,#327);
#322=CALENDAR_DATE(2018,3,12);
#323=CALENDAR_DATE(2018,3,12);
#324=CALENDAR_DATE(2014,20,11);
#325=LOCAL_TIME(15,18,16.,#328);
#326=LOCAL_TIME(14,45,18.,#329);
#327=LOCAL_TIME(11,0,44.,#330);
#328=COORDINATED_UNIVERSAL_TIME_OFFSET(0,0,.BEHIND.);
#329=COORDINATED_UNIVERSAL_TIME_OFFSET(0,0,.BEHIND.);
#330=COORDINATED_UNIVERSAL_TIME_OFFSET(0,0,.BEHIND.);
#331=AXIS2_PLACEMENT_3D('placement',#486,#380,#381);
#332=AXIS2_PLACEMENT_3D('placement',#487,#382,#383);
#333=AXIS2_PLACEMENT_3D('',#488,#384,#385);
#334=AXIS2_PLACEMENT_3D('',#491,#386,#387);
#335=AXIS2_PLACEMENT_3D('',#494,#389,#390);
#336=AXIS2_PLACEMENT_3D('',#495,#391,#392);
#337=AXIS2_PLACEMENT_3D('',#496,#393,#394);
#338=AXIS2_PLACEMENT_3D('',#499,#395,#396);
#339=AXIS2_PLACEMENT_3D('',#500,#397,#398);
#340=AXIS2_PLACEMENT_3D('',#501,#399,#400);
#341=AXIS2_PLACEMENT_3D('',#502,#401,#402);
#342=AXIS2_PLACEMENT_3D('',#504,#403,#404);
#343=AXIS2_PLACEMENT_3D('',#506,#406,#407);
#344=AXIS2_PLACEMENT_3D('',#508,#408,#409);
#345=AXIS2_PLACEMENT_3D('',#512,#411,#412);
#346=AXIS2_PLACEMENT_3D('',#513,#413,#414);
#347=AXIS2_PLACEMENT_3D('',#514,#415,#416);
#348=AXIS2_PLACEMENT_3D('',#516,#417,#418);
#349=AXIS2_PLACEMENT_3D('',#518,#419,#420);
#350=AXIS2_PLACEMENT_3D('',#519,#421,#422);
#351=AXIS2_PLACEMENT_3D('',#520,#423,#424);
#352=AXIS2_PLACEMENT_3D('',#523,#426,#427);
#353=AXIS2_PLACEMENT_3D('',#524,#428,#429);
#354=AXIS2_PLACEMENT_3D('',#525,#430,#431);
#355=AXIS2_PLACEMENT_3D('placement',#526,#432,#433);
#356=AXIS2_PLACEMENT_3D('',#527,#434,#435);
#357=AXIS2_PLACEMENT_3D('',#530,#436,#437);
#358=AXIS2_PLACEMENT_3D('',#531,#438,#439);
#359=AXIS2_PLACEMENT_3D('',#535,#441,#442);
#360=AXIS2_PLACEMENT_3D('',#536,#443,#444);
#361=AXIS2_PLACEMENT_3D('',#537,#445,#446);
#362=AXIS2_PLACEMENT_3D('',#540,#447,#448);
#363=AXIS2_PLACEMENT_3D('',#541,#449,#450);
#364=AXIS2_PLACEMENT_3D('',#543,#452,#453);
#365=AXIS2_PLACEMENT_3D('',#546,#454,#455);
#366=AXIS2_PLACEMENT_3D('',#547,#456,#457);
#367=AXIS2_PLACEMENT_3D('',#548,#458,#459);
#368=AXIS2_PLACEMENT_3D('',#552,#461,#462);
#369=AXIS2_PLACEMENT_3D('',#553,#463,#464);
#370=AXIS2_PLACEMENT_3D('',#554,#465,#466);
#371=AXIS2_PLACEMENT_3D('',#557,#467,#468);
#372=AXIS2_PLACEMENT_3D('',#558,#469,#470);
#373=AXIS2_PLACEMENT_3D('',#559,#471,#472);
#374=AXIS2_PLACEMENT_3D('',#563,#474,#475);
#375=AXIS2_PLACEMENT_3D('',#564,#476,#477);
#376=AXIS2_PLACEMENT_3D('',#565,#478,#479);
#377=AXIS2_PLACEMENT_3D('',#566,#480,#481);
#378=AXIS2_PLACEMENT_3D('',#567,#482,#483);
#379=AXIS2_PLACEMENT_3D('',#568,#484,#485);
#380=DIRECTION('axis',(0.,0.,1.));
#381=DIRECTION('refdir',(1.,0.,0.));
#382=DIRECTION('axis',(0.,0.,1.));
#383=DIRECTION('refdir',(1.,0.,0.));
#384=DIRECTION('center_axis',(1.,0.,0.));
#385=DIRECTION('ref_axis',(0.,-1.,0.));
#386=DIRECTION('center_axis',(1.,-1.11022302462516E-16,0.));
#387=DIRECTION('ref_axis',(-1.01855323360106E-16,-1.,0.));
#388=DIRECTION('',(1.,0.,0.));
#389=DIRECTION('center_axis',(-1.,-1.11022302462516E-16,0.));
#390=DIRECTION('ref_axis',(0.,-1.,0.));
#391=DIRECTION('center_axis',(1.,-1.11022302462516E-16,0.));
#392=DIRECTION('ref_axis',(-1.01855323360106E-16,-1.,0.));
#393=DIRECTION('center_axis',(0.,0.,-1.));
#394=DIRECTION('ref_axis',(-1.,0.,0.));
#395=DIRECTION('center_axis',(0.,1.,0.));
#396=DIRECTION('ref_axis',(1.,0.,0.));
#397=DIRECTION('center_axis',(0.,1.,0.));
#398=DIRECTION('ref_axis',(1.,0.,0.));
#399=DIRECTION('center_axis',(0.,0.,-1.));
#400=DIRECTION('ref_axis',(-1.,0.,0.));
#401=DIRECTION('center_axis',(0.,1.,0.));
#402=DIRECTION('ref_axis',(1.,0.,0.));
#403=DIRECTION('center_axis',(0.,1.,0.));
#404=DIRECTION('ref_axis',(1.,0.,0.));
#405=DIRECTION('',(0.,1.,0.));
#406=DIRECTION('center_axis',(1.,0.,0.));
#407=DIRECTION('ref_axis',(0.,-1.,0.));
#408=DIRECTION('center_axis',(1.,-1.11022302462516E-16,0.));
#409=DIRECTION('ref_axis',(-8.74191357972564E-17,-1.,0.));
#410=DIRECTION('',(-1.,0.,0.));
#411=DIRECTION('center_axis',(1.,-1.11022302462516E-16,0.));
#412=DIRECTION('ref_axis',(-8.74191357972564E-17,-1.,0.));
#413=DIRECTION('center_axis',(1.,-1.11022302462516E-16,0.));
#414=DIRECTION('ref_axis',(-8.74191357972564E-17,-1.,0.));
#415=DIRECTION('center_axis',(0.,0.,-1.));
#416=DIRECTION('ref_axis',(-1.,0.,0.));
#417=DIRECTION('center_axis',(0.,0.,1.));
#418=DIRECTION('ref_axis',(-1.,0.,0.));
#419=DIRECTION('center_axis',(0.,1.,0.));
#420=DIRECTION('ref_axis',(1.,0.,0.));
#421=DIRECTION('center_axis',(0.,1.,0.));
#422=DIRECTION('ref_axis',(1.,0.,0.));
#423=DIRECTION('center_axis',(0.,1.,0.));
#424=DIRECTION('ref_axis',(1.,0.,0.));
#425=DIRECTION('',(0.,-1.,0.));
#426=DIRECTION('center_axis',(0.,-1.,0.));
#427=DIRECTION('ref_axis',(1.,0.,0.));
#428=DIRECTION('center_axis',(1.,1.11022302462516E-16,0.));
#429=DIRECTION('ref_axis',(0.,0.,1.));
#430=DIRECTION('center_axis',(0.,1.,0.));
#431=DIRECTION('ref_axis',(0.,0.,1.));
#432=DIRECTION('axis',(0.,0.,1.));
#433=DIRECTION('refdir',(1.,0.,0.));
#434=DIRECTION('center_axis',(0.,1.,0.));
#435=DIRECTION('ref_axis',(-1.,0.,0.));
#436=DIRECTION('center_axis',(0.,1.,0.));
#437=DIRECTION('ref_axis',(1.,0.,0.));
#438=DIRECTION('center_axis',(0.,1.,0.));
#439=DIRECTION('ref_axis',(1.,0.,0.));
#440=DIRECTION('',(0.,-1.,0.));
#441=DIRECTION('center_axis',(0.,1.,0.));
#442=DIRECTION('ref_axis',(1.,0.,0.));
#443=DIRECTION('center_axis',(0.,1.,0.));
#444=DIRECTION('ref_axis',(1.,0.,0.));
#445=DIRECTION('center_axis',(0.,-1.,0.));
#446=DIRECTION('ref_axis',(-1.,0.,0.));
#447=DIRECTION('center_axis',(0.,1.,0.));
#448=DIRECTION('ref_axis',(1.,0.,0.));
#449=DIRECTION('center_axis',(0.,1.,0.));
#450=DIRECTION('ref_axis',(1.,0.,0.));
#451=DIRECTION('',(0.965925826289068,-0.258819045102521,-1.18291797137867E-16));
#452=DIRECTION('center_axis',(0.,1.,0.));
#453=DIRECTION('ref_axis',(0.,0.,1.));
#454=DIRECTION('center_axis',(0.,1.,0.));
#455=DIRECTION('ref_axis',(1.,0.,0.));
#456=DIRECTION('center_axis',(0.,1.,0.));
#457=DIRECTION('ref_axis',(1.,0.,0.));
#458=DIRECTION('center_axis',(0.,1.,0.));
#459=DIRECTION('ref_axis',(-1.,0.,0.));
#460=DIRECTION('',(0.,-1.,0.));
#461=DIRECTION('center_axis',(0.,1.,0.));
#462=DIRECTION('ref_axis',(1.,0.,0.));
#463=DIRECTION('center_axis',(0.,1.,0.));
#464=DIRECTION('ref_axis',(1.,0.,0.));
#465=DIRECTION('center_axis',(0.,1.,0.));
#466=DIRECTION('ref_axis',(0.,0.,1.));
#467=DIRECTION('center_axis',(0.,1.,0.));
#468=DIRECTION('ref_axis',(1.,0.,0.));
#469=DIRECTION('center_axis',(0.,1.,0.));
#470=DIRECTION('ref_axis',(1.,0.,0.));
#471=DIRECTION('center_axis',(0.,1.,0.));
#472=DIRECTION('ref_axis',(-1.,0.,0.));
#473=DIRECTION('',(0.,-1.,0.));
#474=DIRECTION('center_axis',(0.,1.,0.));
#475=DIRECTION('ref_axis',(1.,0.,0.));
#476=DIRECTION('center_axis',(0.,1.,0.));
#477=DIRECTION('ref_axis',(1.,0.,0.));
#478=DIRECTION('center_axis',(0.,-1.,0.));
#479=DIRECTION('ref_axis',(0.,0.,-1.));
#480=DIRECTION('',(0.,0.,1.));
#481=DIRECTION('',(1.,0.,0.));
#482=DIRECTION('',(1.,0.,0.));
#483=DIRECTION('',(0.,0.,-1.));
#484=DIRECTION('',(0.,0.,-1.));
#485=DIRECTION('',(1.11022302462516E-16,-1.,0.));
#486=CARTESIAN_POINT('',(0.,0.,0.));
#487=CARTESIAN_POINT('',(0.,0.,0.));
#488=CARTESIAN_POINT('Origin',(-7.49999999999999,29.5,0.));
#489=CARTESIAN_POINT('',(-7.49999999999999,34.95,6.67432505535308E-16));
#490=CARTESIAN_POINT('',(-7.49999999999999,24.05,6.67432505535308E-16));
#491=CARTESIAN_POINT('Origin',(-7.49999999999999,29.5,0.));
#492=CARTESIAN_POINT('',(-2.49999999999999,34.95,6.67432505535308E-16));
#493=CARTESIAN_POINT('',(-7.49999999999999,34.95,6.67432505535308E-16));
#494=CARTESIAN_POINT('Origin',(-2.5,29.5,0.));
#495=CARTESIAN_POINT('Origin',(-7.49999999999999,29.5,0.));
#496=CARTESIAN_POINT('Origin',(-7.5,7.5,0.));
#497=CARTESIAN_POINT('',(-34.95,7.5,6.67432505535308E-16));
#498=CARTESIAN_POINT('',(-24.05,7.5,6.67432505535308E-16));
#499=CARTESIAN_POINT('Origin',(-29.5,7.5,0.));
#500=CARTESIAN_POINT('Origin',(-29.5,7.5,0.));
#501=CARTESIAN_POINT('Origin',(-7.5,7.5,6.67432505535308E-16));
#502=CARTESIAN_POINT('Origin',(-29.5,2.5,0.));
#503=CARTESIAN_POINT('',(-34.95,2.5,6.67432505535308E-16));
#504=CARTESIAN_POINT('Origin',(-29.5,2.5,0.));
#505=CARTESIAN_POINT('',(-34.95,2.5,6.67432505535308E-16));
#506=CARTESIAN_POINT('Origin',(-7.49999999999999,29.5,0.));
#507=CARTESIAN_POINT('',(-2.5,35.85,7.77650717458569E-16));
#508=CARTESIAN_POINT('Origin',(-2.49999999999999,29.5,0.));
#509=CARTESIAN_POINT('',(-7.5,35.85,7.77650717458569E-16));
#510=CARTESIAN_POINT('',(-7.49999999999999,35.85,7.77650717458569E-16));
#511=CARTESIAN_POINT('',(-7.49999999999999,23.15,7.77650717458569E-16));
#512=CARTESIAN_POINT('Origin',(-7.49999999999999,29.5,0.));
#513=CARTESIAN_POINT('Origin',(-7.49999999999999,29.5,0.));
#514=CARTESIAN_POINT('Origin',(-7.5,7.5,0.));
#515=CARTESIAN_POINT('',(-23.15,7.5,7.77650717458569E-16));
#516=CARTESIAN_POINT('Origin',(-7.5,7.5,7.77650717458569E-16));
#517=CARTESIAN_POINT('',(-35.85,7.5,7.77650717458569E-16));
#518=CARTESIAN_POINT('Origin',(-29.5,7.5,0.));
#519=CARTESIAN_POINT('Origin',(-29.5,7.5,0.));
#520=CARTESIAN_POINT('Origin',(-29.5,2.5,0.));
#521=CARTESIAN_POINT('',(-35.85,2.5,7.77650717458569E-16));
#522=CARTESIAN_POINT('',(-35.85,2.5,7.77650717458569E-16));
#523=CARTESIAN_POINT('Origin',(-29.5,2.5,0.));
#524=CARTESIAN_POINT('Origin',(-2.5,29.5,1.45698559662094E-16));
#525=CARTESIAN_POINT('Origin',(-29.5,2.5,1.45698559662094E-16));
#526=CARTESIAN_POINT('',(0.,0.,0.));
#527=CARTESIAN_POINT('Origin',(0.,1.5,0.));
#528=CARTESIAN_POINT('',(-15.,3.,0.));
#529=CARTESIAN_POINT('',(15.,3.,-1.83697019872103E-15));
#530=CARTESIAN_POINT('Origin',(0.,3.,0.));
#531=CARTESIAN_POINT('Origin',(0.,3.,0.));
#532=CARTESIAN_POINT('',(15.,0.,-1.83697019872103E-15));
#533=CARTESIAN_POINT('',(15.,1.5,-1.83697019872103E-15));
#534=CARTESIAN_POINT('',(-15.,0.,0.));
#535=CARTESIAN_POINT('Origin',(0.,0.,0.));
#536=CARTESIAN_POINT('Origin',(0.,0.,0.));
#537=CARTESIAN_POINT('Origin',(0.,4.,0.));
#538=CARTESIAN_POINT('',(-7.53589838486224,5.,0.));
#539=CARTESIAN_POINT('',(7.53589838486224,5.,-9.22881383572126E-16));
#540=CARTESIAN_POINT('Origin',(0.,5.,0.));
#541=CARTESIAN_POINT('Origin',(0.,5.,0.));
#542=CARTESIAN_POINT('',(11.2679491924311,4.,-1.37992579114658E-15));
#543=CARTESIAN_POINT('Origin',(-6.45,5.,0.));
#544=CARTESIAN_POINT('',(-6.45,5.,0.));
#545=CARTESIAN_POINT('',(6.45,5.,-7.89897185450043E-16));
#546=CARTESIAN_POINT('Origin',(0.,5.,0.));
#547=CARTESIAN_POINT('Origin',(0.,5.,0.));
#548=CARTESIAN_POINT('Origin',(0.,3.75,0.));
#549=CARTESIAN_POINT('',(6.45,2.5,-7.89897185450043E-16));
#550=CARTESIAN_POINT('',(6.45,3.75,-7.89897185450043E-16));
#551=CARTESIAN_POINT('',(-6.45,2.5,0.));
#552=CARTESIAN_POINT('Origin',(0.,2.5,0.));
#553=CARTESIAN_POINT('Origin',(0.,2.5,0.));
#554=CARTESIAN_POINT('Origin',(-6.1,2.5,0.));
#555=CARTESIAN_POINT('',(-6.1,2.5,0.));
#556=CARTESIAN_POINT('',(6.1,2.5,-7.47034547479885E-16));
#557=CARTESIAN_POINT('Origin',(0.,2.5,0.));
#558=CARTESIAN_POINT('Origin',(0.,2.5,0.));
#559=CARTESIAN_POINT('Origin',(0.,1.25,0.));
#560=CARTESIAN_POINT('',(6.1,2.77555756156289E-16,-7.47034547479885E-16));
#561=CARTESIAN_POINT('',(6.1,1.25,-7.47034547479885E-16));
#562=CARTESIAN_POINT('',(-6.1,2.77555756156289E-16,0.));
#563=CARTESIAN_POINT('Origin',(0.,2.77555756156289E-16,0.));
#564=CARTESIAN_POINT('Origin',(0.,2.77555756156289E-16,0.));
#565=CARTESIAN_POINT('Origin',(-15.,0.,0.));
#566=CARTESIAN_POINT('',(14.8098592733417,-18.8228873291906,8.88178419700125E-15));
#567=CARTESIAN_POINT('',(-14.6901407266583,-18.8228873291906,8.88178419700125E-15));
#568=CARTESIAN_POINT('',(14.8098592733417,10.6771126708095,8.88178419700125E-15));
#569=UNCERTAINTY_MEASURE_WITH_UNIT(LENGTH_MEASURE(0.01),#577,
'DISTANCE_ACCURACY_VALUE',
'Maximum model space distance between geometric entities at asserted c
onnectivities');
#570=UNCERTAINTY_MEASURE_WITH_UNIT(LENGTH_MEASURE(0.01),#577,
'DISTANCE_ACCURACY_VALUE',
'Maximum model space distance between geometric entities at asserted c
onnectivities');
#571=UNCERTAINTY_MEASURE_WITH_UNIT(LENGTH_MEASURE(0.01),#577,
'DISTANCE_ACCURACY_VALUE',
'Maximum model space distance between geometric entities at asserted c
onnectivities');
#572=UNCERTAINTY_MEASURE_WITH_UNIT(LENGTH_MEASURE(0.01),#577,
'DISTANCE_ACCURACY_VALUE',
'Maximum model space distance between geometric entities at asserted c
onnectivities');
#573=(
GEOMETRIC_REPRESENTATION_CONTEXT(3)
GLOBAL_UNCERTAINTY_ASSIGNED_CONTEXT((#569))
GLOBAL_UNIT_ASSIGNED_CONTEXT((#577,#579,#580))
REPRESENTATION_CONTEXT('','3D')
);
#574=(
GEOMETRIC_REPRESENTATION_CONTEXT(3)
GLOBAL_UNCERTAINTY_ASSIGNED_CONTEXT((#570))
GLOBAL_UNIT_ASSIGNED_CONTEXT((#577,#579,#580))
REPRESENTATION_CONTEXT('','3D')
);
#575=(
GEOMETRIC_REPRESENTATION_CONTEXT(3)
GLOBAL_UNCERTAINTY_ASSIGNED_CONTEXT((#571))
GLOBAL_UNIT_ASSIGNED_CONTEXT((#577,#579,#580))
REPRESENTATION_CONTEXT('','3D')
);
#576=(
GEOMETRIC_REPRESENTATION_CONTEXT(3)
GLOBAL_UNCERTAINTY_ASSIGNED_CONTEXT((#572))
GLOBAL_UNIT_ASSIGNED_CONTEXT((#577,#579,#580))
REPRESENTATION_CONTEXT('','3D')
);
#577=(
LENGTH_UNIT()
NAMED_UNIT(*)
SI_UNIT(.MILLI.,.METRE.)
);
#578=(
LENGTH_UNIT()
NAMED_UNIT(*)
SI_UNIT(.CENTI.,.METRE.)
);
#579=(
NAMED_UNIT(*)
PLANE_ANGLE_UNIT()
SI_UNIT($,.RADIAN.)
);
#580=(
NAMED_UNIT(*)
SI_UNIT($,.STERADIAN.)
SOLID_ANGLE_UNIT()
);
#581=SHAPE_DEFINITION_REPRESENTATION(#584,#590);
#582=SHAPE_DEFINITION_REPRESENTATION(#585,#591);
#583=SHAPE_DEFINITION_REPRESENTATION(#586,#592);
#584=PRODUCT_DEFINITION_SHAPE('',$,#594);
#585=PRODUCT_DEFINITION_SHAPE('',$,#595);
#586=PRODUCT_DEFINITION_SHAPE('',$,#596);
#587=PRODUCT_DEFINITION_SHAPE($,$,#20);
#588=PRODUCT_DEFINITION_SHAPE($,$,#21);
#589=PRODUCT_DEFINITION_SHAPE($,$,#22);
#590=SHAPE_REPRESENTATION('',(#331,#377,#378,#379),#573);
#591=SHAPE_REPRESENTATION('',(#332),#574);
#592=SHAPE_REPRESENTATION('',(#355),#575);
#593=PRODUCT_DEFINITION_CONTEXT('part definition',#604,'design');
#594=PRODUCT_DEFINITION('FL-E10KF-29','FL-E10KF-29',#597,#593);
#595=PRODUCT_DEFINITION('tube','tube',#598,#593);
#596=PRODUCT_DEFINITION('FL-10KF-12W','FL-10KF-12W',#599,#593);
#597=PRODUCT_DEFINITION_FORMATION('',$,#606);
#598=PRODUCT_DEFINITION_FORMATION('',$,#607);
#599=PRODUCT_DEFINITION_FORMATION('',$,#608);
#600=PRODUCT_RELATED_PRODUCT_CATEGORY('FL-E10KF-29','FL-E10KF-29',(#606));
#601=PRODUCT_RELATED_PRODUCT_CATEGORY('tube','tube',(#607));
#602=PRODUCT_RELATED_PRODUCT_CATEGORY('FL-10KF-12W','FL-10KF-12W',(#608));
#603=APPLICATION_PROTOCOL_DEFINITION('international standard',
'automotive_design',2009,#604);
#604=APPLICATION_CONTEXT(
'Core Data for Automotive Mechanical Design Process');
#605=PRODUCT_CONTEXT('part definition',#604,'mechanical');
#606=PRODUCT('FL-E10KF-29','FL-E10KF-29',$,(#605));
#607=PRODUCT('tube','tube',$,(#605));
#608=PRODUCT('FL-10KF-12W','FL-10KF-12W',$,(#605));
ENDSEC;
END-ISO-10303-21;
