ISO-10303-21;
HEADER;
/* Generated by software containing ST-Developer
 * from STEP Tools, Inc. (www.steptools.com) 
 */

FILE_DESCRIPTION(
/* description */ (''),
/* implementation_level */ '2;1');

FILE_NAME(
/* name */ 'G:\\FLANGES & FITTINGS\\NW320LF\\Step files\\FL-A320LF.stp',

/* time_stamp */ '2018-07-12T13:50:02+01:00',
/* author */ ('paul'),
/* organization */ (''),
/* preprocessor_version */ 'ST-DEVELOPER v17',
/* originating_system */ 'Autodesk Inventor 2019',
/* authorisation */ '');

FILE_SCHEMA (('AUTOMOTIVE_DESIGN { 1 0 10303 214 3 1 1 }'));
ENDSEC;

DATA;
#10=MECHANICAL_DESIGN_GEOMETRIC_PRESENTATION_REPRESENTATION('',(#13),#637);
#11=SHAPE_REPRESENTATION_RELATIONSHIP('SRR','None',#644,#12);
#12=ADVANCED_BREP_SHAPE_REPRESENTATION('',(#14),#636);
#13=STYLED_ITEM('',(#653),#14);
#14=MANIFOLD_SOLID_BREP('Solid1',#329);
#15=TOROIDAL_SURFACE('',#369,158.5,0.5);
#16=TOROIDAL_SURFACE('',#381,159.5,0.5);
#17=TOROIDAL_SURFACE('',#383,154.5,0.5);
#18=TOROIDAL_SURFACE('',#390,153.5,0.5);
#19=TOROIDAL_SURFACE('',#405,185.,2.49999999999999);
#20=CYLINDRICAL_SURFACE('',#356,185.);
#21=CYLINDRICAL_SURFACE('',#366,185.);
#22=CYLINDRICAL_SURFACE('',#375,159.);
#23=CYLINDRICAL_SURFACE('',#387,154.);
#24=CYLINDRICAL_SURFACE('',#398,176.);
#25=CYLINDRICAL_SURFACE('',#404,182.5);
#26=FACE_BOUND('',#57,.T.);
#27=FACE_BOUND('',#61,.T.);
#28=FACE_BOUND('',#66,.T.);
#29=FACE_BOUND('',#75,.T.);
#30=PLANE('',#353);
#31=PLANE('',#363);
#32=PLANE('',#378);
#33=PLANE('',#394);
#34=PLANE('',#395);
#35=PLANE('',#401);
#36=FACE_OUTER_BOUND('',#55,.T.);
#37=FACE_OUTER_BOUND('',#56,.T.);
#38=FACE_OUTER_BOUND('',#58,.T.);
#39=FACE_OUTER_BOUND('',#59,.T.);
#40=FACE_OUTER_BOUND('',#60,.T.);
#41=FACE_OUTER_BOUND('',#62,.T.);
#42=FACE_OUTER_BOUND('',#63,.T.);
#43=FACE_OUTER_BOUND('',#64,.T.);
#44=FACE_OUTER_BOUND('',#65,.T.);
#45=FACE_OUTER_BOUND('',#67,.T.);
#46=FACE_OUTER_BOUND('',#68,.T.);
#47=FACE_OUTER_BOUND('',#69,.T.);
#48=FACE_OUTER_BOUND('',#70,.T.);
#49=FACE_OUTER_BOUND('',#71,.T.);
#50=FACE_OUTER_BOUND('',#72,.T.);
#51=FACE_OUTER_BOUND('',#73,.T.);
#52=FACE_OUTER_BOUND('',#74,.T.);
#53=FACE_OUTER_BOUND('',#76,.T.);
#54=FACE_OUTER_BOUND('',#77,.T.);
#55=EDGE_LOOP('',(#214,#215,#216,#217,#218));
#56=EDGE_LOOP('',(#219));
#57=EDGE_LOOP('',(#220,#221));
#58=EDGE_LOOP('',(#222,#223,#224,#225,#226,#227));
#59=EDGE_LOOP('',(#228,#229,#230,#231,#232));
#60=EDGE_LOOP('',(#233));
#61=EDGE_LOOP('',(#234,#235));
#62=EDGE_LOOP('',(#236,#237,#238,#239,#240,#241));
#63=EDGE_LOOP('',(#242,#243,#244,#245,#246,#247));
#64=EDGE_LOOP('',(#248,#249,#250,#251,#252,#253));
#65=EDGE_LOOP('',(#254,#255));
#66=EDGE_LOOP('',(#256,#257));
#67=EDGE_LOOP('',(#258,#259,#260,#261,#262,#263));
#68=EDGE_LOOP('',(#264,#265,#266,#267,#268,#269));
#69=EDGE_LOOP('',(#270,#271,#272,#273,#274,#275));
#70=EDGE_LOOP('',(#276,#277,#278,#279,#280,#281));
#71=EDGE_LOOP('',(#282,#283));
#72=EDGE_LOOP('',(#284,#285));
#73=EDGE_LOOP('',(#286,#287,#288,#289,#290,#291));
#74=EDGE_LOOP('',(#292,#293));
#75=EDGE_LOOP('',(#294,#295));
#76=EDGE_LOOP('',(#296,#297,#298,#299,#300,#301));
#77=EDGE_LOOP('',(#302,#303,#304,#305,#306,#307));
#78=LINE('',#540,#86);
#79=LINE('',#552,#87);
#80=LINE('',#557,#88);
#81=LINE('',#568,#89);
#82=LINE('',#587,#90);
#83=LINE('',#606,#91);
#84=LINE('',#624,#92);
#85=LINE('',#631,#93);
#86=VECTOR('',#415,184.75);
#87=VECTOR('',#430,185.);
#88=VECTOR('',#435,184.75);
#89=VECTOR('',#448,185.);
#90=VECTOR('',#471,159.);
#91=VECTOR('',#496,154.);
#92=VECTOR('',#519,176.);
#93=VECTOR('',#528,182.5);
#94=CIRCLE('',#350,185.);
#95=CIRCLE('',#351,185.);
#96=CIRCLE('',#352,184.5);
#97=CIRCLE('',#354,182.5);
#98=CIRCLE('',#355,182.5);
#99=CIRCLE('',#357,185.);
#100=CIRCLE('',#358,185.);
#101=CIRCLE('',#360,184.5);
#102=CIRCLE('',#361,185.);
#103=CIRCLE('',#362,185.);
#104=CIRCLE('',#364,159.5);
#105=CIRCLE('',#365,159.5);
#106=CIRCLE('',#367,185.);
#107=CIRCLE('',#368,185.);
#108=CIRCLE('',#370,159.);
#109=CIRCLE('',#371,0.5);
#110=CIRCLE('',#372,158.5);
#111=CIRCLE('',#373,158.5);
#112=CIRCLE('',#374,159.);
#113=CIRCLE('',#376,159.);
#114=CIRCLE('',#377,159.);
#115=CIRCLE('',#379,154.5);
#116=CIRCLE('',#380,154.5);
#117=CIRCLE('',#382,0.5);
#118=CIRCLE('',#384,0.5);
#119=CIRCLE('',#385,154.);
#120=CIRCLE('',#386,154.);
#121=CIRCLE('',#388,154.);
#122=CIRCLE('',#389,154.);
#123=CIRCLE('',#391,153.5);
#124=CIRCLE('',#392,0.5);
#125=CIRCLE('',#393,153.5);
#126=CIRCLE('',#396,176.);
#127=CIRCLE('',#397,176.);
#128=CIRCLE('',#399,176.);
#129=CIRCLE('',#400,176.);
#130=CIRCLE('',#402,182.5);
#131=CIRCLE('',#403,182.5);
#132=CIRCLE('',#406,2.49999999999999);
#133=VERTEX_POINT('',#535);
#134=VERTEX_POINT('',#536);
#135=VERTEX_POINT('',#539);
#136=VERTEX_POINT('',#543);
#137=VERTEX_POINT('',#544);
#138=VERTEX_POINT('',#548);
#139=VERTEX_POINT('',#549);
#140=VERTEX_POINT('',#554);
#141=VERTEX_POINT('',#556);
#142=VERTEX_POINT('',#558);
#143=VERTEX_POINT('',#562);
#144=VERTEX_POINT('',#563);
#145=VERTEX_POINT('',#567);
#146=VERTEX_POINT('',#569);
#147=VERTEX_POINT('',#573);
#148=VERTEX_POINT('',#574);
#149=VERTEX_POINT('',#576);
#150=VERTEX_POINT('',#578);
#151=VERTEX_POINT('',#583);
#152=VERTEX_POINT('',#584);
#153=VERTEX_POINT('',#589);
#154=VERTEX_POINT('',#590);
#155=VERTEX_POINT('',#596);
#156=VERTEX_POINT('',#598);
#157=VERTEX_POINT('',#602);
#158=VERTEX_POINT('',#603);
#159=VERTEX_POINT('',#608);
#160=VERTEX_POINT('',#609);
#161=VERTEX_POINT('',#615);
#162=VERTEX_POINT('',#616);
#163=VERTEX_POINT('',#620);
#164=VERTEX_POINT('',#621);
#165=VERTEX_POINT('',#626);
#166=VERTEX_POINT('',#627);
#167=EDGE_CURVE('',#133,#134,#94,.T.);
#168=EDGE_CURVE('',#134,#133,#95,.T.);
#169=EDGE_CURVE('',#133,#135,#78,.T.);
#170=EDGE_CURVE('',#135,#135,#96,.T.);
#171=EDGE_CURVE('',#136,#137,#97,.T.);
#172=EDGE_CURVE('',#137,#136,#98,.T.);
#173=EDGE_CURVE('',#138,#139,#99,.T.);
#174=EDGE_CURVE('',#139,#138,#100,.T.);
#175=EDGE_CURVE('',#139,#134,#79,.T.);
#176=EDGE_CURVE('',#140,#140,#101,.T.);
#177=EDGE_CURVE('',#140,#141,#80,.T.);
#178=EDGE_CURVE('',#141,#142,#102,.T.);
#179=EDGE_CURVE('',#142,#141,#103,.T.);
#180=EDGE_CURVE('',#143,#144,#104,.T.);
#181=EDGE_CURVE('',#144,#143,#105,.T.);
#182=EDGE_CURVE('',#142,#145,#81,.T.);
#183=EDGE_CURVE('',#145,#146,#106,.T.);
#184=EDGE_CURVE('',#146,#145,#107,.T.);
#185=EDGE_CURVE('',#147,#148,#108,.T.);
#186=EDGE_CURVE('',#148,#149,#109,.T.);
#187=EDGE_CURVE('',#149,#150,#110,.T.);
#188=EDGE_CURVE('',#150,#149,#111,.T.);
#189=EDGE_CURVE('',#148,#147,#112,.T.);
#190=EDGE_CURVE('',#151,#152,#113,.T.);
#191=EDGE_CURVE('',#152,#151,#114,.T.);
#192=EDGE_CURVE('',#152,#148,#82,.T.);
#193=EDGE_CURVE('',#153,#154,#115,.T.);
#194=EDGE_CURVE('',#154,#153,#116,.T.);
#195=EDGE_CURVE('',#152,#144,#117,.T.);
#196=EDGE_CURVE('',#154,#155,#118,.T.);
#197=EDGE_CURVE('',#155,#156,#119,.T.);
#198=EDGE_CURVE('',#156,#155,#120,.T.);
#199=EDGE_CURVE('',#157,#158,#121,.T.);
#200=EDGE_CURVE('',#158,#157,#122,.T.);
#201=EDGE_CURVE('',#158,#155,#83,.T.);
#202=EDGE_CURVE('',#159,#160,#123,.T.);
#203=EDGE_CURVE('',#160,#158,#124,.T.);
#204=EDGE_CURVE('',#160,#159,#125,.T.);
#205=EDGE_CURVE('',#161,#162,#126,.T.);
#206=EDGE_CURVE('',#162,#161,#127,.T.);
#207=EDGE_CURVE('',#163,#164,#128,.T.);
#208=EDGE_CURVE('',#164,#163,#129,.T.);
#209=EDGE_CURVE('',#164,#162,#84,.T.);
#210=EDGE_CURVE('',#165,#166,#130,.T.);
#211=EDGE_CURVE('',#166,#165,#131,.T.);
#212=EDGE_CURVE('',#166,#137,#85,.T.);
#213=EDGE_CURVE('',#139,#145,#132,.T.);
#214=ORIENTED_EDGE('',*,*,#167,.T.);
#215=ORIENTED_EDGE('',*,*,#168,.T.);
#216=ORIENTED_EDGE('',*,*,#169,.T.);
#217=ORIENTED_EDGE('',*,*,#170,.T.);
#218=ORIENTED_EDGE('',*,*,#169,.F.);
#219=ORIENTED_EDGE('',*,*,#170,.F.);
#220=ORIENTED_EDGE('',*,*,#171,.T.);
#221=ORIENTED_EDGE('',*,*,#172,.T.);
#222=ORIENTED_EDGE('',*,*,#173,.F.);
#223=ORIENTED_EDGE('',*,*,#174,.F.);
#224=ORIENTED_EDGE('',*,*,#175,.T.);
#225=ORIENTED_EDGE('',*,*,#167,.F.);
#226=ORIENTED_EDGE('',*,*,#168,.F.);
#227=ORIENTED_EDGE('',*,*,#175,.F.);
#228=ORIENTED_EDGE('',*,*,#176,.T.);
#229=ORIENTED_EDGE('',*,*,#177,.T.);
#230=ORIENTED_EDGE('',*,*,#178,.T.);
#231=ORIENTED_EDGE('',*,*,#179,.T.);
#232=ORIENTED_EDGE('',*,*,#177,.F.);
#233=ORIENTED_EDGE('',*,*,#176,.F.);
#234=ORIENTED_EDGE('',*,*,#180,.F.);
#235=ORIENTED_EDGE('',*,*,#181,.F.);
#236=ORIENTED_EDGE('',*,*,#178,.F.);
#237=ORIENTED_EDGE('',*,*,#179,.F.);
#238=ORIENTED_EDGE('',*,*,#182,.T.);
#239=ORIENTED_EDGE('',*,*,#183,.T.);
#240=ORIENTED_EDGE('',*,*,#184,.T.);
#241=ORIENTED_EDGE('',*,*,#182,.F.);
#242=ORIENTED_EDGE('',*,*,#185,.T.);
#243=ORIENTED_EDGE('',*,*,#186,.T.);
#244=ORIENTED_EDGE('',*,*,#187,.T.);
#245=ORIENTED_EDGE('',*,*,#188,.T.);
#246=ORIENTED_EDGE('',*,*,#186,.F.);
#247=ORIENTED_EDGE('',*,*,#189,.T.);
#248=ORIENTED_EDGE('',*,*,#190,.F.);
#249=ORIENTED_EDGE('',*,*,#191,.F.);
#250=ORIENTED_EDGE('',*,*,#192,.T.);
#251=ORIENTED_EDGE('',*,*,#185,.F.);
#252=ORIENTED_EDGE('',*,*,#189,.F.);
#253=ORIENTED_EDGE('',*,*,#192,.F.);
#254=ORIENTED_EDGE('',*,*,#188,.F.);
#255=ORIENTED_EDGE('',*,*,#187,.F.);
#256=ORIENTED_EDGE('',*,*,#193,.F.);
#257=ORIENTED_EDGE('',*,*,#194,.F.);
#258=ORIENTED_EDGE('',*,*,#190,.T.);
#259=ORIENTED_EDGE('',*,*,#195,.T.);
#260=ORIENTED_EDGE('',*,*,#181,.T.);
#261=ORIENTED_EDGE('',*,*,#180,.T.);
#262=ORIENTED_EDGE('',*,*,#195,.F.);
#263=ORIENTED_EDGE('',*,*,#191,.T.);
#264=ORIENTED_EDGE('',*,*,#193,.T.);
#265=ORIENTED_EDGE('',*,*,#196,.T.);
#266=ORIENTED_EDGE('',*,*,#197,.T.);
#267=ORIENTED_EDGE('',*,*,#198,.T.);
#268=ORIENTED_EDGE('',*,*,#196,.F.);
#269=ORIENTED_EDGE('',*,*,#194,.T.);
#270=ORIENTED_EDGE('',*,*,#199,.F.);
#271=ORIENTED_EDGE('',*,*,#200,.F.);
#272=ORIENTED_EDGE('',*,*,#201,.T.);
#273=ORIENTED_EDGE('',*,*,#198,.F.);
#274=ORIENTED_EDGE('',*,*,#197,.F.);
#275=ORIENTED_EDGE('',*,*,#201,.F.);
#276=ORIENTED_EDGE('',*,*,#202,.T.);
#277=ORIENTED_EDGE('',*,*,#203,.T.);
#278=ORIENTED_EDGE('',*,*,#200,.T.);
#279=ORIENTED_EDGE('',*,*,#199,.T.);
#280=ORIENTED_EDGE('',*,*,#203,.F.);
#281=ORIENTED_EDGE('',*,*,#204,.T.);
#282=ORIENTED_EDGE('',*,*,#202,.F.);
#283=ORIENTED_EDGE('',*,*,#204,.F.);
#284=ORIENTED_EDGE('',*,*,#205,.F.);
#285=ORIENTED_EDGE('',*,*,#206,.F.);
#286=ORIENTED_EDGE('',*,*,#207,.F.);
#287=ORIENTED_EDGE('',*,*,#208,.F.);
#288=ORIENTED_EDGE('',*,*,#209,.T.);
#289=ORIENTED_EDGE('',*,*,#206,.T.);
#290=ORIENTED_EDGE('',*,*,#205,.T.);
#291=ORIENTED_EDGE('',*,*,#209,.F.);
#292=ORIENTED_EDGE('',*,*,#210,.F.);
#293=ORIENTED_EDGE('',*,*,#211,.F.);
#294=ORIENTED_EDGE('',*,*,#207,.T.);
#295=ORIENTED_EDGE('',*,*,#208,.T.);
#296=ORIENTED_EDGE('',*,*,#210,.T.);
#297=ORIENTED_EDGE('',*,*,#212,.T.);
#298=ORIENTED_EDGE('',*,*,#171,.F.);
#299=ORIENTED_EDGE('',*,*,#172,.F.);
#300=ORIENTED_EDGE('',*,*,#212,.F.);
#301=ORIENTED_EDGE('',*,*,#211,.T.);
#302=ORIENTED_EDGE('',*,*,#173,.T.);
#303=ORIENTED_EDGE('',*,*,#213,.T.);
#304=ORIENTED_EDGE('',*,*,#184,.F.);
#305=ORIENTED_EDGE('',*,*,#183,.F.);
#306=ORIENTED_EDGE('',*,*,#213,.F.);
#307=ORIENTED_EDGE('',*,*,#174,.T.);
#308=CONICAL_SURFACE('',#349,184.75,0.785398163397455);
#309=CONICAL_SURFACE('',#359,184.75,0.785398163397455);
#310=ADVANCED_FACE('',(#36),#308,.T.);
#311=ADVANCED_FACE('',(#37,#26),#30,.T.);
#312=ADVANCED_FACE('',(#38),#20,.T.);
#313=ADVANCED_FACE('',(#39),#309,.T.);
#314=ADVANCED_FACE('',(#40,#27),#31,.T.);
#315=ADVANCED_FACE('',(#41),#21,.T.);
#316=ADVANCED_FACE('',(#42),#15,.F.);
#317=ADVANCED_FACE('',(#43),#22,.F.);
#318=ADVANCED_FACE('',(#44,#28),#32,.T.);
#319=ADVANCED_FACE('',(#45),#16,.T.);
#320=ADVANCED_FACE('',(#46),#17,.F.);
#321=ADVANCED_FACE('',(#47),#23,.T.);
#322=ADVANCED_FACE('',(#48),#18,.T.);
#323=ADVANCED_FACE('',(#49),#33,.T.);
#324=ADVANCED_FACE('',(#50),#34,.T.);
#325=ADVANCED_FACE('',(#51),#24,.T.);
#326=ADVANCED_FACE('',(#52,#29),#35,.T.);
#327=ADVANCED_FACE('',(#53),#25,.F.);
#328=ADVANCED_FACE('',(#54),#19,.F.);
#329=CLOSED_SHELL('',(#310,#311,#312,#313,#314,#315,#316,#317,#318,#319,
#320,#321,#322,#323,#324,#325,#326,#327,#328));
#330=DERIVED_UNIT_ELEMENT(#332,1.);
#331=DERIVED_UNIT_ELEMENT(#639,3.);
#332=(
MASS_UNIT()
NAMED_UNIT(*)
SI_UNIT($,.GRAM.)
);
#333=DERIVED_UNIT((#330,#331));
#334=MEASURE_REPRESENTATION_ITEM('density measure',
POSITIVE_RATIO_MEASURE(2.7),#333);
#335=PROPERTY_DEFINITION_REPRESENTATION(#340,#337);
#336=PROPERTY_DEFINITION_REPRESENTATION(#341,#338);
#337=REPRESENTATION('material name',(#339),#636);
#338=REPRESENTATION('density',(#334),#636);
#339=DESCRIPTIVE_REPRESENTATION_ITEM('Aluminum 6061','Aluminum 6061');
#340=PROPERTY_DEFINITION('material property','material name',#646);
#341=PROPERTY_DEFINITION('material property','density of part',#646);
#342=DATE_TIME_ROLE('creation_date');
#343=APPLIED_DATE_AND_TIME_ASSIGNMENT(#344,#342,(#646));
#344=DATE_AND_TIME(#345,#346);
#345=CALENDAR_DATE(2014,14,8);
#346=LOCAL_TIME(15,10,58.,#347);
#347=COORDINATED_UNIVERSAL_TIME_OFFSET(0,0,.BEHIND.);
#348=AXIS2_PLACEMENT_3D('placement',#533,#407,#408);
#349=AXIS2_PLACEMENT_3D('',#534,#409,#410);
#350=AXIS2_PLACEMENT_3D('',#537,#411,#412);
#351=AXIS2_PLACEMENT_3D('',#538,#413,#414);
#352=AXIS2_PLACEMENT_3D('',#541,#416,#417);
#353=AXIS2_PLACEMENT_3D('',#542,#418,#419);
#354=AXIS2_PLACEMENT_3D('',#545,#420,#421);
#355=AXIS2_PLACEMENT_3D('',#546,#422,#423);
#356=AXIS2_PLACEMENT_3D('',#547,#424,#425);
#357=AXIS2_PLACEMENT_3D('',#550,#426,#427);
#358=AXIS2_PLACEMENT_3D('',#551,#428,#429);
#359=AXIS2_PLACEMENT_3D('',#553,#431,#432);
#360=AXIS2_PLACEMENT_3D('',#555,#433,#434);
#361=AXIS2_PLACEMENT_3D('',#559,#436,#437);
#362=AXIS2_PLACEMENT_3D('',#560,#438,#439);
#363=AXIS2_PLACEMENT_3D('',#561,#440,#441);
#364=AXIS2_PLACEMENT_3D('',#564,#442,#443);
#365=AXIS2_PLACEMENT_3D('',#565,#444,#445);
#366=AXIS2_PLACEMENT_3D('',#566,#446,#447);
#367=AXIS2_PLACEMENT_3D('',#570,#449,#450);
#368=AXIS2_PLACEMENT_3D('',#571,#451,#452);
#369=AXIS2_PLACEMENT_3D('',#572,#453,#454);
#370=AXIS2_PLACEMENT_3D('',#575,#455,#456);
#371=AXIS2_PLACEMENT_3D('',#577,#457,#458);
#372=AXIS2_PLACEMENT_3D('',#579,#459,#460);
#373=AXIS2_PLACEMENT_3D('',#580,#461,#462);
#374=AXIS2_PLACEMENT_3D('',#581,#463,#464);
#375=AXIS2_PLACEMENT_3D('',#582,#465,#466);
#376=AXIS2_PLACEMENT_3D('',#585,#467,#468);
#377=AXIS2_PLACEMENT_3D('',#586,#469,#470);
#378=AXIS2_PLACEMENT_3D('',#588,#472,#473);
#379=AXIS2_PLACEMENT_3D('',#591,#474,#475);
#380=AXIS2_PLACEMENT_3D('',#592,#476,#477);
#381=AXIS2_PLACEMENT_3D('',#593,#478,#479);
#382=AXIS2_PLACEMENT_3D('',#594,#480,#481);
#383=AXIS2_PLACEMENT_3D('',#595,#482,#483);
#384=AXIS2_PLACEMENT_3D('',#597,#484,#485);
#385=AXIS2_PLACEMENT_3D('',#599,#486,#487);
#386=AXIS2_PLACEMENT_3D('',#600,#488,#489);
#387=AXIS2_PLACEMENT_3D('',#601,#490,#491);
#388=AXIS2_PLACEMENT_3D('',#604,#492,#493);
#389=AXIS2_PLACEMENT_3D('',#605,#494,#495);
#390=AXIS2_PLACEMENT_3D('',#607,#497,#498);
#391=AXIS2_PLACEMENT_3D('',#610,#499,#500);
#392=AXIS2_PLACEMENT_3D('',#611,#501,#502);
#393=AXIS2_PLACEMENT_3D('',#612,#503,#504);
#394=AXIS2_PLACEMENT_3D('',#613,#505,#506);
#395=AXIS2_PLACEMENT_3D('',#614,#507,#508);
#396=AXIS2_PLACEMENT_3D('',#617,#509,#510);
#397=AXIS2_PLACEMENT_3D('',#618,#511,#512);
#398=AXIS2_PLACEMENT_3D('',#619,#513,#514);
#399=AXIS2_PLACEMENT_3D('',#622,#515,#516);
#400=AXIS2_PLACEMENT_3D('',#623,#517,#518);
#401=AXIS2_PLACEMENT_3D('',#625,#520,#521);
#402=AXIS2_PLACEMENT_3D('',#628,#522,#523);
#403=AXIS2_PLACEMENT_3D('',#629,#524,#525);
#404=AXIS2_PLACEMENT_3D('',#630,#526,#527);
#405=AXIS2_PLACEMENT_3D('',#632,#529,#530);
#406=AXIS2_PLACEMENT_3D('',#633,#531,#532);
#407=DIRECTION('axis',(0.,0.,1.));
#408=DIRECTION('refdir',(1.,0.,0.));
#409=DIRECTION('center_axis',(-1.,0.,0.));
#410=DIRECTION('ref_axis',(0.,0.,-1.));
#411=DIRECTION('center_axis',(1.,0.,0.));
#412=DIRECTION('ref_axis',(0.,0.,-1.));
#413=DIRECTION('center_axis',(1.,0.,0.));
#414=DIRECTION('ref_axis',(0.,0.,-1.));
#415=DIRECTION('',(0.707106781186543,-8.65956056235499E-17,-0.707106781186552));
#416=DIRECTION('center_axis',(-1.,0.,0.));
#417=DIRECTION('ref_axis',(0.,0.,-1.));
#418=DIRECTION('center_axis',(1.,0.,0.));
#419=DIRECTION('ref_axis',(0.,0.,-1.));
#420=DIRECTION('center_axis',(-1.,0.,0.));
#421=DIRECTION('ref_axis',(0.,0.,1.));
#422=DIRECTION('center_axis',(-1.,0.,0.));
#423=DIRECTION('ref_axis',(0.,0.,1.));
#424=DIRECTION('center_axis',(-1.,0.,0.));
#425=DIRECTION('ref_axis',(0.,0.,1.));
#426=DIRECTION('center_axis',(-1.,0.,0.));
#427=DIRECTION('ref_axis',(0.,0.,1.));
#428=DIRECTION('center_axis',(-1.,0.,0.));
#429=DIRECTION('ref_axis',(0.,0.,1.));
#430=DIRECTION('',(1.,0.,0.));
#431=DIRECTION('center_axis',(1.,0.,0.));
#432=DIRECTION('ref_axis',(0.,0.,-1.));
#433=DIRECTION('center_axis',(1.,0.,0.));
#434=DIRECTION('ref_axis',(0.,0.,-1.));
#435=DIRECTION('',(0.707106781186542,8.65956056235499E-17,0.707106781186553));
#436=DIRECTION('center_axis',(-1.,0.,0.));
#437=DIRECTION('ref_axis',(0.,0.,-1.));
#438=DIRECTION('center_axis',(-1.,0.,0.));
#439=DIRECTION('ref_axis',(0.,0.,-1.));
#440=DIRECTION('center_axis',(-1.,0.,0.));
#441=DIRECTION('ref_axis',(0.,0.,1.));
#442=DIRECTION('center_axis',(-1.,0.,0.));
#443=DIRECTION('ref_axis',(0.,1.22464679914735E-16,-1.));
#444=DIRECTION('center_axis',(-1.,0.,0.));
#445=DIRECTION('ref_axis',(0.,1.22464679914735E-16,-1.));
#446=DIRECTION('center_axis',(-1.,0.,0.));
#447=DIRECTION('ref_axis',(0.,0.,1.));
#448=DIRECTION('',(1.,0.,0.));
#449=DIRECTION('center_axis',(-1.,0.,0.));
#450=DIRECTION('ref_axis',(0.,0.,1.));
#451=DIRECTION('center_axis',(-1.,0.,0.));
#452=DIRECTION('ref_axis',(0.,0.,1.));
#453=DIRECTION('center_axis',(-1.,0.,0.));
#454=DIRECTION('ref_axis',(0.,0.,1.));
#455=DIRECTION('center_axis',(-1.,0.,0.));
#456=DIRECTION('ref_axis',(0.,1.22464679914735E-16,-1.));
#457=DIRECTION('center_axis',(0.,-1.,1.22464679914735E-16));
#458=DIRECTION('ref_axis',(0.,-1.22464679914735E-16,-1.));
#459=DIRECTION('center_axis',(1.,0.,0.));
#460=DIRECTION('ref_axis',(0.,1.22464679914735E-16,-1.));
#461=DIRECTION('center_axis',(1.,0.,0.));
#462=DIRECTION('ref_axis',(0.,1.22464679914735E-16,-1.));
#463=DIRECTION('center_axis',(-1.,0.,0.));
#464=DIRECTION('ref_axis',(0.,1.22464679914735E-16,-1.));
#465=DIRECTION('center_axis',(-1.,0.,0.));
#466=DIRECTION('ref_axis',(0.,0.,1.));
#467=DIRECTION('center_axis',(1.,0.,0.));
#468=DIRECTION('ref_axis',(0.,1.22464679914735E-16,-1.));
#469=DIRECTION('center_axis',(1.,0.,0.));
#470=DIRECTION('ref_axis',(0.,1.22464679914735E-16,-1.));
#471=DIRECTION('',(1.,0.,0.));
#472=DIRECTION('center_axis',(-1.,0.,0.));
#473=DIRECTION('ref_axis',(0.,0.,1.));
#474=DIRECTION('center_axis',(-1.,0.,0.));
#475=DIRECTION('ref_axis',(0.,1.22464679914735E-16,-1.));
#476=DIRECTION('center_axis',(-1.,0.,0.));
#477=DIRECTION('ref_axis',(0.,1.22464679914735E-16,-1.));
#478=DIRECTION('center_axis',(-1.,0.,0.));
#479=DIRECTION('ref_axis',(0.,0.,1.));
#480=DIRECTION('center_axis',(0.,-1.,1.22464679914735E-16));
#481=DIRECTION('ref_axis',(0.,-1.22464679914735E-16,-1.));
#482=DIRECTION('center_axis',(-1.,0.,0.));
#483=DIRECTION('ref_axis',(0.,0.,1.));
#484=DIRECTION('center_axis',(0.,-1.,1.22464679914735E-16));
#485=DIRECTION('ref_axis',(0.,-1.22464679914735E-16,-1.));
#486=DIRECTION('center_axis',(1.,0.,0.));
#487=DIRECTION('ref_axis',(0.,1.22464679914735E-16,-1.));
#488=DIRECTION('center_axis',(1.,0.,0.));
#489=DIRECTION('ref_axis',(0.,1.22464679914735E-16,-1.));
#490=DIRECTION('center_axis',(-1.,0.,0.));
#491=DIRECTION('ref_axis',(0.,0.,1.));
#492=DIRECTION('center_axis',(-1.,0.,0.));
#493=DIRECTION('ref_axis',(0.,1.22464679914735E-16,-1.));
#494=DIRECTION('center_axis',(-1.,0.,0.));
#495=DIRECTION('ref_axis',(0.,1.22464679914735E-16,-1.));
#496=DIRECTION('',(1.,0.,0.));
#497=DIRECTION('center_axis',(-1.,0.,0.));
#498=DIRECTION('ref_axis',(0.,0.,1.));
#499=DIRECTION('center_axis',(1.,0.,0.));
#500=DIRECTION('ref_axis',(0.,1.22464679914735E-16,-1.));
#501=DIRECTION('center_axis',(0.,-1.,1.22464679914735E-16));
#502=DIRECTION('ref_axis',(0.,-1.22464679914735E-16,-1.));
#503=DIRECTION('center_axis',(1.,0.,0.));
#504=DIRECTION('ref_axis',(0.,1.22464679914735E-16,-1.));
#505=DIRECTION('center_axis',(-1.,0.,0.));
#506=DIRECTION('ref_axis',(0.,0.,1.));
#507=DIRECTION('center_axis',(1.,0.,0.));
#508=DIRECTION('ref_axis',(0.,0.,-1.));
#509=DIRECTION('center_axis',(-1.,0.,0.));
#510=DIRECTION('ref_axis',(0.,0.,1.));
#511=DIRECTION('center_axis',(-1.,0.,0.));
#512=DIRECTION('ref_axis',(0.,0.,1.));
#513=DIRECTION('center_axis',(-1.,0.,0.));
#514=DIRECTION('ref_axis',(0.,0.,1.));
#515=DIRECTION('center_axis',(-1.,0.,0.));
#516=DIRECTION('ref_axis',(0.,0.,1.));
#517=DIRECTION('center_axis',(-1.,0.,0.));
#518=DIRECTION('ref_axis',(0.,0.,1.));
#519=DIRECTION('',(1.,0.,0.));
#520=DIRECTION('center_axis',(1.,0.,0.));
#521=DIRECTION('ref_axis',(0.,0.,-1.));
#522=DIRECTION('center_axis',(-1.,0.,0.));
#523=DIRECTION('ref_axis',(0.,0.,1.));
#524=DIRECTION('center_axis',(-1.,0.,0.));
#525=DIRECTION('ref_axis',(0.,0.,1.));
#526=DIRECTION('center_axis',(-1.,0.,0.));
#527=DIRECTION('ref_axis',(0.,0.,1.));
#528=DIRECTION('',(1.,0.,0.));
#529=DIRECTION('center_axis',(-1.,0.,0.));
#530=DIRECTION('ref_axis',(0.,0.,1.));
#531=DIRECTION('center_axis',(0.,-1.,1.22464679914735E-16));
#532=DIRECTION('ref_axis',(0.,-1.22464679914735E-16,-1.));
#533=CARTESIAN_POINT('',(0.,0.,0.));
#534=CARTESIAN_POINT('Origin',(16.75,0.,0.));
#535=CARTESIAN_POINT('',(16.5,-2.2655965784226E-14,185.));
#536=CARTESIAN_POINT('',(16.5,-2.2655965784226E-14,-185.));
#537=CARTESIAN_POINT('Origin',(16.5,0.,0.));
#538=CARTESIAN_POINT('Origin',(16.5,0.,0.));
#539=CARTESIAN_POINT('',(17.,2.25947334442687E-14,184.5));
#540=CARTESIAN_POINT('',(16.75,2.26253496142474E-14,184.75));
#541=CARTESIAN_POINT('Origin',(17.,0.,0.));
#542=CARTESIAN_POINT('Origin',(17.,0.,185.));
#543=CARTESIAN_POINT('',(17.,0.,182.5));
#544=CARTESIAN_POINT('',(17.,-2.23498040844392E-14,-182.5));
#545=CARTESIAN_POINT('Origin',(17.,0.,0.));
#546=CARTESIAN_POINT('Origin',(17.,0.,0.));
#547=CARTESIAN_POINT('Origin',(13.25,0.,0.));
#548=CARTESIAN_POINT('',(9.5,0.,185.));
#549=CARTESIAN_POINT('',(9.5,-2.2655965784226E-14,-185.));
#550=CARTESIAN_POINT('Origin',(9.5,0.,0.));
#551=CARTESIAN_POINT('Origin',(9.5,0.,0.));
#552=CARTESIAN_POINT('',(13.25,-2.2655965784226E-14,-185.));
#553=CARTESIAN_POINT('Origin',(0.25,0.,0.));
#554=CARTESIAN_POINT('',(0.,-2.25947334442687E-14,184.5));
#555=CARTESIAN_POINT('Origin',(0.,0.,0.));
#556=CARTESIAN_POINT('',(0.5,2.2655965784226E-14,185.));
#557=CARTESIAN_POINT('',(0.25,2.26253496142474E-14,184.75));
#558=CARTESIAN_POINT('',(0.5,-2.2655965784226E-14,-185.));
#559=CARTESIAN_POINT('Origin',(0.5,0.,0.));
#560=CARTESIAN_POINT('Origin',(0.5,0.,0.));
#561=CARTESIAN_POINT('Origin',(0.,0.,159.));
#562=CARTESIAN_POINT('',(0.,0.,159.5));
#563=CARTESIAN_POINT('',(0.,-1.95331164464003E-14,-159.5));
#564=CARTESIAN_POINT('Origin',(0.,0.,0.));
#565=CARTESIAN_POINT('Origin',(0.,0.,0.));
#566=CARTESIAN_POINT('Origin',(2.25,0.,0.));
#567=CARTESIAN_POINT('',(4.50000000000001,-2.2655965784226E-14,-185.));
#568=CARTESIAN_POINT('',(2.25,-2.2655965784226E-14,-185.));
#569=CARTESIAN_POINT('',(4.50000000000001,0.,185.));
#570=CARTESIAN_POINT('Origin',(4.50000000000001,0.,0.));
#571=CARTESIAN_POINT('Origin',(4.50000000000001,0.,0.));
#572=CARTESIAN_POINT('Origin',(4.00000000000002,0.,0.));
#573=CARTESIAN_POINT('',(4.00000000000002,0.,159.));
#574=CARTESIAN_POINT('',(4.00000000000002,-1.94718841064429E-14,-159.));
#575=CARTESIAN_POINT('Origin',(4.00000000000002,0.,0.));
#576=CARTESIAN_POINT('',(4.50000000000002,-1.94106517664855E-14,-158.5));
#577=CARTESIAN_POINT('Origin',(4.00000000000002,-1.94106517664855E-14,-158.5));
#578=CARTESIAN_POINT('',(4.50000000000002,-3.88213035329711E-14,158.5));
#579=CARTESIAN_POINT('Origin',(4.50000000000002,0.,0.));
#580=CARTESIAN_POINT('Origin',(4.50000000000002,0.,0.));
#581=CARTESIAN_POINT('Origin',(4.00000000000002,0.,0.));
#582=CARTESIAN_POINT('Origin',(2.25000000000001,0.,0.));
#583=CARTESIAN_POINT('',(0.5,-3.89437682128858E-14,159.));
#584=CARTESIAN_POINT('',(0.5,-1.94718841064429E-14,-159.));
#585=CARTESIAN_POINT('Origin',(0.5,0.,0.));
#586=CARTESIAN_POINT('Origin',(0.5,0.,0.));
#587=CARTESIAN_POINT('',(2.25000000000001,-1.94718841064429E-14,-159.));
#588=CARTESIAN_POINT('Origin',(4.50000000000002,0.,154.));
#589=CARTESIAN_POINT('',(4.50000000000002,0.,154.5));
#590=CARTESIAN_POINT('',(4.50000000000002,-1.89207930468266E-14,-154.5));
#591=CARTESIAN_POINT('Origin',(4.50000000000002,0.,0.));
#592=CARTESIAN_POINT('Origin',(4.50000000000002,0.,0.));
#593=CARTESIAN_POINT('Origin',(0.5,0.,0.));
#594=CARTESIAN_POINT('Origin',(0.5,-1.95331164464003E-14,-159.5));
#595=CARTESIAN_POINT('Origin',(4.00000000000002,0.,0.));
#596=CARTESIAN_POINT('',(4.00000000000002,-1.88595607068692E-14,-154.));
#597=CARTESIAN_POINT('Origin',(4.00000000000002,-1.89207930468266E-14,-154.5));
#598=CARTESIAN_POINT('',(4.00000000000002,-3.77191214137385E-14,154.));
#599=CARTESIAN_POINT('Origin',(4.00000000000002,0.,0.));
#600=CARTESIAN_POINT('Origin',(4.00000000000002,0.,0.));
#601=CARTESIAN_POINT('Origin',(2.25000000000001,0.,0.));
#602=CARTESIAN_POINT('',(0.5,0.,154.));
#603=CARTESIAN_POINT('',(0.5,-1.88595607068692E-14,-154.));
#604=CARTESIAN_POINT('Origin',(0.5,0.,0.));
#605=CARTESIAN_POINT('Origin',(0.5,0.,0.));
#606=CARTESIAN_POINT('',(2.25000000000001,-1.88595607068692E-14,-154.));
#607=CARTESIAN_POINT('Origin',(0.5,0.,0.));
#608=CARTESIAN_POINT('',(0.,-3.75966567338237E-14,153.5));
#609=CARTESIAN_POINT('',(0.,-1.87983283669119E-14,-153.5));
#610=CARTESIAN_POINT('Origin',(0.,0.,0.));
#611=CARTESIAN_POINT('Origin',(0.5,-1.87983283669119E-14,-153.5));
#612=CARTESIAN_POINT('Origin',(0.,0.,0.));
#613=CARTESIAN_POINT('Origin',(0.,0.,0.));
#614=CARTESIAN_POINT('Origin',(17.,0.,176.));
#615=CARTESIAN_POINT('',(17.,0.,176.));
#616=CARTESIAN_POINT('',(17.,-2.15537836649934E-14,-176.));
#617=CARTESIAN_POINT('Origin',(17.,0.,0.));
#618=CARTESIAN_POINT('Origin',(17.,0.,0.));
#619=CARTESIAN_POINT('Origin',(15.6,0.,0.));
#620=CARTESIAN_POINT('',(14.2,0.,176.));
#621=CARTESIAN_POINT('',(14.2,-2.15537836649934E-14,-176.));
#622=CARTESIAN_POINT('Origin',(14.2,0.,0.));
#623=CARTESIAN_POINT('Origin',(14.2,0.,0.));
#624=CARTESIAN_POINT('',(15.6,-2.15537836649934E-14,-176.));
#625=CARTESIAN_POINT('Origin',(14.2000000000001,0.,182.5));
#626=CARTESIAN_POINT('',(14.2000000000001,0.,182.5));
#627=CARTESIAN_POINT('',(14.2000000000001,-2.23498040844392E-14,-182.5));
#628=CARTESIAN_POINT('Origin',(14.2000000000001,0.,0.));
#629=CARTESIAN_POINT('Origin',(14.2000000000001,0.,0.));
#630=CARTESIAN_POINT('Origin',(15.6,0.,0.));
#631=CARTESIAN_POINT('',(15.6,-2.23498040844392E-14,-182.5));
#632=CARTESIAN_POINT('Origin',(7.,0.,0.));
#633=CARTESIAN_POINT('Origin',(7.,-2.2655965784226E-14,-185.));
#634=UNCERTAINTY_MEASURE_WITH_UNIT(LENGTH_MEASURE(0.01),#638,
'DISTANCE_ACCURACY_VALUE',
'Maximum model space distance between geometric entities at asserted c
onnectivities');
#635=UNCERTAINTY_MEASURE_WITH_UNIT(LENGTH_MEASURE(0.01),#638,
'DISTANCE_ACCURACY_VALUE',
'Maximum model space distance between geometric entities at asserted c
onnectivities');
#636=(
GEOMETRIC_REPRESENTATION_CONTEXT(3)
GLOBAL_UNCERTAINTY_ASSIGNED_CONTEXT((#634))
GLOBAL_UNIT_ASSIGNED_CONTEXT((#638,#641,#640))
REPRESENTATION_CONTEXT('','3D')
);
#637=(
GEOMETRIC_REPRESENTATION_CONTEXT(3)
GLOBAL_UNCERTAINTY_ASSIGNED_CONTEXT((#635))
GLOBAL_UNIT_ASSIGNED_CONTEXT((#638,#641,#640))
REPRESENTATION_CONTEXT('','3D')
);
#638=(
LENGTH_UNIT()
NAMED_UNIT(*)
SI_UNIT(.MILLI.,.METRE.)
);
#639=(
LENGTH_UNIT()
NAMED_UNIT(*)
SI_UNIT(.CENTI.,.METRE.)
);
#640=(
NAMED_UNIT(*)
SI_UNIT($,.STERADIAN.)
SOLID_ANGLE_UNIT()
);
#641=(
NAMED_UNIT(*)
PLANE_ANGLE_UNIT()
SI_UNIT($,.RADIAN.)
);
#642=SHAPE_DEFINITION_REPRESENTATION(#643,#644);
#643=PRODUCT_DEFINITION_SHAPE('',$,#646);
#644=SHAPE_REPRESENTATION('',(#348),#636);
#645=PRODUCT_DEFINITION_CONTEXT('part definition',#650,'design');
#646=PRODUCT_DEFINITION('FL-A320LF','FL-A320LF',#647,#645);
#647=PRODUCT_DEFINITION_FORMATION('',$,#652);
#648=PRODUCT_RELATED_PRODUCT_CATEGORY('FL-A320LF','FL-A320LF',(#652));
#649=APPLICATION_PROTOCOL_DEFINITION('international standard',
'automotive_design',2009,#650);
#650=APPLICATION_CONTEXT(
'Core Data for Automotive Mechanical Design Process');
#651=PRODUCT_CONTEXT('part definition',#650,'mechanical');
#652=PRODUCT('FL-A320LF','FL-A320LF',$,(#651));
#653=PRESENTATION_STYLE_ASSIGNMENT((#654));
#654=SURFACE_STYLE_USAGE(.BOTH.,#655);
#655=SURFACE_SIDE_STYLE('',(#656));
#656=SURFACE_STYLE_FILL_AREA(#657);
#657=FILL_AREA_STYLE('',(#658));
#658=FILL_AREA_STYLE_COLOUR('',#659);
#659=COLOUR_RGB('',0.996078431372549,0.996078431372549,1.);
ENDSEC;
END-ISO-10303-21;
