ISO-10303-21;
HEADER;
/* Generated by software containing ST-Developer
 * from STEP Tools, Inc. (www.steptools.com) 
 */

FILE_DESCRIPTION(
/* description */ (''),
/* implementation_level */ '2;1');

FILE_NAME(
/* name */ 'G:\\FLANGES & FITTINGS\\NW320LF\\Step files\\FL-320LF-W.st
p',
/* time_stamp */ '2018-07-12T14:01:18+01:00',
/* author */ ('paul'),
/* organization */ (''),
/* preprocessor_version */ 'ST-DEVELOPER v17',
/* originating_system */ 'Autodesk Inventor 2019',
/* authorisation */ '');

FILE_SCHEMA (('AUTOMOTIVE_DESIGN { 1 0 10303 214 3 1 1 }'));
ENDSEC;

DATA;
#10=MECHANICAL_DESIGN_GEOMETRIC_PRESENTATION_REPRESENTATION('',(#13),#624);
#11=SHAPE_REPRESENTATION_RELATIONSHIP('SRR','None',#631,#12);
#12=ADVANCED_BREP_SHAPE_REPRESENTATION('',(#14),#623);
#13=STYLED_ITEM('',(#640),#14);
#14=MANIFOLD_SOLID_BREP('Solid1',#326);
#15=TOROIDAL_SURFACE('',#366,158.5,0.5);
#16=TOROIDAL_SURFACE('',#378,159.5,0.5);
#17=TOROIDAL_SURFACE('',#399,185.,2.49999999999999);
#18=CYLINDRICAL_SURFACE('',#353,185.);
#19=CYLINDRICAL_SURFACE('',#363,185.);
#20=CYLINDRICAL_SURFACE('',#372,159.);
#21=CYLINDRICAL_SURFACE('',#380,150.5);
#22=CYLINDRICAL_SURFACE('',#386,152.5);
#23=CYLINDRICAL_SURFACE('',#392,176.);
#24=CYLINDRICAL_SURFACE('',#398,182.5);
#25=FACE_BOUND('',#57,.T.);
#26=FACE_BOUND('',#61,.T.);
#27=FACE_BOUND('',#66,.T.);
#28=FACE_BOUND('',#70,.T.);
#29=FACE_BOUND('',#73,.T.);
#30=FACE_BOUND('',#76,.T.);
#31=PLANE('',#350);
#32=PLANE('',#360);
#33=PLANE('',#375);
#34=PLANE('',#383);
#35=PLANE('',#389);
#36=PLANE('',#395);
#37=FACE_OUTER_BOUND('',#55,.T.);
#38=FACE_OUTER_BOUND('',#56,.T.);
#39=FACE_OUTER_BOUND('',#58,.T.);
#40=FACE_OUTER_BOUND('',#59,.T.);
#41=FACE_OUTER_BOUND('',#60,.T.);
#42=FACE_OUTER_BOUND('',#62,.T.);
#43=FACE_OUTER_BOUND('',#63,.T.);
#44=FACE_OUTER_BOUND('',#64,.T.);
#45=FACE_OUTER_BOUND('',#65,.T.);
#46=FACE_OUTER_BOUND('',#67,.T.);
#47=FACE_OUTER_BOUND('',#68,.T.);
#48=FACE_OUTER_BOUND('',#69,.T.);
#49=FACE_OUTER_BOUND('',#71,.T.);
#50=FACE_OUTER_BOUND('',#72,.T.);
#51=FACE_OUTER_BOUND('',#74,.T.);
#52=FACE_OUTER_BOUND('',#75,.T.);
#53=FACE_OUTER_BOUND('',#77,.T.);
#54=FACE_OUTER_BOUND('',#78,.T.);
#55=EDGE_LOOP('',(#214,#215,#216,#217,#218));
#56=EDGE_LOOP('',(#219));
#57=EDGE_LOOP('',(#220,#221));
#58=EDGE_LOOP('',(#222,#223,#224,#225,#226,#227));
#59=EDGE_LOOP('',(#228,#229,#230,#231,#232));
#60=EDGE_LOOP('',(#233));
#61=EDGE_LOOP('',(#234,#235));
#62=EDGE_LOOP('',(#236,#237,#238,#239,#240,#241));
#63=EDGE_LOOP('',(#242,#243,#244,#245,#246,#247));
#64=EDGE_LOOP('',(#248,#249,#250,#251,#252,#253));
#65=EDGE_LOOP('',(#254,#255));
#66=EDGE_LOOP('',(#256,#257));
#67=EDGE_LOOP('',(#258,#259,#260,#261,#262,#263));
#68=EDGE_LOOP('',(#264,#265,#266,#267,#268,#269));
#69=EDGE_LOOP('',(#270,#271));
#70=EDGE_LOOP('',(#272,#273));
#71=EDGE_LOOP('',(#274,#275,#276,#277,#278,#279));
#72=EDGE_LOOP('',(#280,#281));
#73=EDGE_LOOP('',(#282,#283));
#74=EDGE_LOOP('',(#284,#285,#286,#287,#288,#289));
#75=EDGE_LOOP('',(#290,#291));
#76=EDGE_LOOP('',(#292,#293));
#77=EDGE_LOOP('',(#294,#295,#296,#297,#298,#299));
#78=EDGE_LOOP('',(#300,#301,#302,#303,#304,#305));
#79=LINE('',#529,#88);
#80=LINE('',#541,#89);
#81=LINE('',#546,#90);
#82=LINE('',#557,#91);
#83=LINE('',#576,#92);
#84=LINE('',#586,#93);
#85=LINE('',#597,#94);
#86=LINE('',#611,#95);
#87=LINE('',#618,#96);
#88=VECTOR('',#409,184.75);
#89=VECTOR('',#424,185.);
#90=VECTOR('',#429,184.75);
#91=VECTOR('',#442,185.);
#92=VECTOR('',#465,159.);
#93=VECTOR('',#478,150.5);
#94=VECTOR('',#491,152.5);
#95=VECTOR('',#508,176.);
#96=VECTOR('',#517,182.5);
#97=CIRCLE('',#347,185.);
#98=CIRCLE('',#348,185.);
#99=CIRCLE('',#349,184.5);
#100=CIRCLE('',#351,182.5);
#101=CIRCLE('',#352,182.5);
#102=CIRCLE('',#354,185.);
#103=CIRCLE('',#355,185.);
#104=CIRCLE('',#357,184.5);
#105=CIRCLE('',#358,185.);
#106=CIRCLE('',#359,185.);
#107=CIRCLE('',#361,159.5);
#108=CIRCLE('',#362,159.5);
#109=CIRCLE('',#364,185.);
#110=CIRCLE('',#365,185.);
#111=CIRCLE('',#367,159.);
#112=CIRCLE('',#368,0.5);
#113=CIRCLE('',#369,158.5);
#114=CIRCLE('',#370,158.5);
#115=CIRCLE('',#371,159.);
#116=CIRCLE('',#373,159.);
#117=CIRCLE('',#374,159.);
#118=CIRCLE('',#376,150.5);
#119=CIRCLE('',#377,150.5);
#120=CIRCLE('',#379,0.5);
#121=CIRCLE('',#381,150.5);
#122=CIRCLE('',#382,150.5);
#123=CIRCLE('',#384,152.5);
#124=CIRCLE('',#385,152.5);
#125=CIRCLE('',#387,152.5);
#126=CIRCLE('',#388,152.5);
#127=CIRCLE('',#390,176.);
#128=CIRCLE('',#391,176.);
#129=CIRCLE('',#393,176.);
#130=CIRCLE('',#394,176.);
#131=CIRCLE('',#396,182.5);
#132=CIRCLE('',#397,182.5);
#133=CIRCLE('',#400,2.49999999999999);
#134=VERTEX_POINT('',#524);
#135=VERTEX_POINT('',#525);
#136=VERTEX_POINT('',#528);
#137=VERTEX_POINT('',#532);
#138=VERTEX_POINT('',#533);
#139=VERTEX_POINT('',#537);
#140=VERTEX_POINT('',#538);
#141=VERTEX_POINT('',#543);
#142=VERTEX_POINT('',#545);
#143=VERTEX_POINT('',#547);
#144=VERTEX_POINT('',#551);
#145=VERTEX_POINT('',#552);
#146=VERTEX_POINT('',#556);
#147=VERTEX_POINT('',#558);
#148=VERTEX_POINT('',#562);
#149=VERTEX_POINT('',#563);
#150=VERTEX_POINT('',#565);
#151=VERTEX_POINT('',#567);
#152=VERTEX_POINT('',#572);
#153=VERTEX_POINT('',#573);
#154=VERTEX_POINT('',#578);
#155=VERTEX_POINT('',#579);
#156=VERTEX_POINT('',#585);
#157=VERTEX_POINT('',#587);
#158=VERTEX_POINT('',#591);
#159=VERTEX_POINT('',#592);
#160=VERTEX_POINT('',#596);
#161=VERTEX_POINT('',#598);
#162=VERTEX_POINT('',#602);
#163=VERTEX_POINT('',#603);
#164=VERTEX_POINT('',#607);
#165=VERTEX_POINT('',#608);
#166=VERTEX_POINT('',#613);
#167=VERTEX_POINT('',#614);
#168=EDGE_CURVE('',#134,#135,#97,.T.);
#169=EDGE_CURVE('',#135,#134,#98,.T.);
#170=EDGE_CURVE('',#134,#136,#79,.T.);
#171=EDGE_CURVE('',#136,#136,#99,.T.);
#172=EDGE_CURVE('',#137,#138,#100,.T.);
#173=EDGE_CURVE('',#138,#137,#101,.T.);
#174=EDGE_CURVE('',#139,#140,#102,.T.);
#175=EDGE_CURVE('',#140,#139,#103,.T.);
#176=EDGE_CURVE('',#140,#135,#80,.T.);
#177=EDGE_CURVE('',#141,#141,#104,.T.);
#178=EDGE_CURVE('',#141,#142,#81,.T.);
#179=EDGE_CURVE('',#142,#143,#105,.T.);
#180=EDGE_CURVE('',#143,#142,#106,.T.);
#181=EDGE_CURVE('',#144,#145,#107,.T.);
#182=EDGE_CURVE('',#145,#144,#108,.T.);
#183=EDGE_CURVE('',#143,#146,#82,.T.);
#184=EDGE_CURVE('',#146,#147,#109,.T.);
#185=EDGE_CURVE('',#147,#146,#110,.T.);
#186=EDGE_CURVE('',#148,#149,#111,.T.);
#187=EDGE_CURVE('',#149,#150,#112,.T.);
#188=EDGE_CURVE('',#150,#151,#113,.T.);
#189=EDGE_CURVE('',#151,#150,#114,.T.);
#190=EDGE_CURVE('',#149,#148,#115,.T.);
#191=EDGE_CURVE('',#152,#153,#116,.T.);
#192=EDGE_CURVE('',#153,#152,#117,.T.);
#193=EDGE_CURVE('',#153,#149,#83,.T.);
#194=EDGE_CURVE('',#154,#155,#118,.T.);
#195=EDGE_CURVE('',#155,#154,#119,.T.);
#196=EDGE_CURVE('',#153,#145,#120,.T.);
#197=EDGE_CURVE('',#155,#156,#84,.T.);
#198=EDGE_CURVE('',#157,#156,#121,.T.);
#199=EDGE_CURVE('',#156,#157,#122,.T.);
#200=EDGE_CURVE('',#158,#159,#123,.T.);
#201=EDGE_CURVE('',#159,#158,#124,.T.);
#202=EDGE_CURVE('',#159,#160,#85,.T.);
#203=EDGE_CURVE('',#161,#160,#125,.T.);
#204=EDGE_CURVE('',#160,#161,#126,.T.);
#205=EDGE_CURVE('',#162,#163,#127,.T.);
#206=EDGE_CURVE('',#163,#162,#128,.T.);
#207=EDGE_CURVE('',#164,#165,#129,.T.);
#208=EDGE_CURVE('',#165,#164,#130,.T.);
#209=EDGE_CURVE('',#165,#163,#86,.T.);
#210=EDGE_CURVE('',#166,#167,#131,.T.);
#211=EDGE_CURVE('',#167,#166,#132,.T.);
#212=EDGE_CURVE('',#167,#138,#87,.T.);
#213=EDGE_CURVE('',#140,#146,#133,.T.);
#214=ORIENTED_EDGE('',*,*,#168,.T.);
#215=ORIENTED_EDGE('',*,*,#169,.T.);
#216=ORIENTED_EDGE('',*,*,#170,.T.);
#217=ORIENTED_EDGE('',*,*,#171,.T.);
#218=ORIENTED_EDGE('',*,*,#170,.F.);
#219=ORIENTED_EDGE('',*,*,#171,.F.);
#220=ORIENTED_EDGE('',*,*,#172,.T.);
#221=ORIENTED_EDGE('',*,*,#173,.T.);
#222=ORIENTED_EDGE('',*,*,#174,.F.);
#223=ORIENTED_EDGE('',*,*,#175,.F.);
#224=ORIENTED_EDGE('',*,*,#176,.T.);
#225=ORIENTED_EDGE('',*,*,#168,.F.);
#226=ORIENTED_EDGE('',*,*,#169,.F.);
#227=ORIENTED_EDGE('',*,*,#176,.F.);
#228=ORIENTED_EDGE('',*,*,#177,.T.);
#229=ORIENTED_EDGE('',*,*,#178,.T.);
#230=ORIENTED_EDGE('',*,*,#179,.T.);
#231=ORIENTED_EDGE('',*,*,#180,.T.);
#232=ORIENTED_EDGE('',*,*,#178,.F.);
#233=ORIENTED_EDGE('',*,*,#177,.F.);
#234=ORIENTED_EDGE('',*,*,#181,.F.);
#235=ORIENTED_EDGE('',*,*,#182,.F.);
#236=ORIENTED_EDGE('',*,*,#179,.F.);
#237=ORIENTED_EDGE('',*,*,#180,.F.);
#238=ORIENTED_EDGE('',*,*,#183,.T.);
#239=ORIENTED_EDGE('',*,*,#184,.T.);
#240=ORIENTED_EDGE('',*,*,#185,.T.);
#241=ORIENTED_EDGE('',*,*,#183,.F.);
#242=ORIENTED_EDGE('',*,*,#186,.T.);
#243=ORIENTED_EDGE('',*,*,#187,.T.);
#244=ORIENTED_EDGE('',*,*,#188,.T.);
#245=ORIENTED_EDGE('',*,*,#189,.T.);
#246=ORIENTED_EDGE('',*,*,#187,.F.);
#247=ORIENTED_EDGE('',*,*,#190,.T.);
#248=ORIENTED_EDGE('',*,*,#191,.F.);
#249=ORIENTED_EDGE('',*,*,#192,.F.);
#250=ORIENTED_EDGE('',*,*,#193,.T.);
#251=ORIENTED_EDGE('',*,*,#186,.F.);
#252=ORIENTED_EDGE('',*,*,#190,.F.);
#253=ORIENTED_EDGE('',*,*,#193,.F.);
#254=ORIENTED_EDGE('',*,*,#189,.F.);
#255=ORIENTED_EDGE('',*,*,#188,.F.);
#256=ORIENTED_EDGE('',*,*,#194,.F.);
#257=ORIENTED_EDGE('',*,*,#195,.F.);
#258=ORIENTED_EDGE('',*,*,#191,.T.);
#259=ORIENTED_EDGE('',*,*,#196,.T.);
#260=ORIENTED_EDGE('',*,*,#182,.T.);
#261=ORIENTED_EDGE('',*,*,#181,.T.);
#262=ORIENTED_EDGE('',*,*,#196,.F.);
#263=ORIENTED_EDGE('',*,*,#192,.T.);
#264=ORIENTED_EDGE('',*,*,#194,.T.);
#265=ORIENTED_EDGE('',*,*,#197,.T.);
#266=ORIENTED_EDGE('',*,*,#198,.F.);
#267=ORIENTED_EDGE('',*,*,#199,.F.);
#268=ORIENTED_EDGE('',*,*,#197,.F.);
#269=ORIENTED_EDGE('',*,*,#195,.T.);
#270=ORIENTED_EDGE('',*,*,#200,.F.);
#271=ORIENTED_EDGE('',*,*,#201,.F.);
#272=ORIENTED_EDGE('',*,*,#198,.T.);
#273=ORIENTED_EDGE('',*,*,#199,.T.);
#274=ORIENTED_EDGE('',*,*,#200,.T.);
#275=ORIENTED_EDGE('',*,*,#202,.T.);
#276=ORIENTED_EDGE('',*,*,#203,.F.);
#277=ORIENTED_EDGE('',*,*,#204,.F.);
#278=ORIENTED_EDGE('',*,*,#202,.F.);
#279=ORIENTED_EDGE('',*,*,#201,.T.);
#280=ORIENTED_EDGE('',*,*,#205,.F.);
#281=ORIENTED_EDGE('',*,*,#206,.F.);
#282=ORIENTED_EDGE('',*,*,#203,.T.);
#283=ORIENTED_EDGE('',*,*,#204,.T.);
#284=ORIENTED_EDGE('',*,*,#207,.F.);
#285=ORIENTED_EDGE('',*,*,#208,.F.);
#286=ORIENTED_EDGE('',*,*,#209,.T.);
#287=ORIENTED_EDGE('',*,*,#206,.T.);
#288=ORIENTED_EDGE('',*,*,#205,.T.);
#289=ORIENTED_EDGE('',*,*,#209,.F.);
#290=ORIENTED_EDGE('',*,*,#210,.F.);
#291=ORIENTED_EDGE('',*,*,#211,.F.);
#292=ORIENTED_EDGE('',*,*,#207,.T.);
#293=ORIENTED_EDGE('',*,*,#208,.T.);
#294=ORIENTED_EDGE('',*,*,#210,.T.);
#295=ORIENTED_EDGE('',*,*,#212,.T.);
#296=ORIENTED_EDGE('',*,*,#172,.F.);
#297=ORIENTED_EDGE('',*,*,#173,.F.);
#298=ORIENTED_EDGE('',*,*,#212,.F.);
#299=ORIENTED_EDGE('',*,*,#211,.T.);
#300=ORIENTED_EDGE('',*,*,#174,.T.);
#301=ORIENTED_EDGE('',*,*,#213,.T.);
#302=ORIENTED_EDGE('',*,*,#185,.F.);
#303=ORIENTED_EDGE('',*,*,#184,.F.);
#304=ORIENTED_EDGE('',*,*,#213,.F.);
#305=ORIENTED_EDGE('',*,*,#175,.T.);
#306=CONICAL_SURFACE('',#346,184.75,0.785398163397455);
#307=CONICAL_SURFACE('',#356,184.75,0.785398163397455);
#308=ADVANCED_FACE('',(#37),#306,.T.);
#309=ADVANCED_FACE('',(#38,#25),#31,.T.);
#310=ADVANCED_FACE('',(#39),#18,.T.);
#311=ADVANCED_FACE('',(#40),#307,.T.);
#312=ADVANCED_FACE('',(#41,#26),#32,.T.);
#313=ADVANCED_FACE('',(#42),#19,.T.);
#314=ADVANCED_FACE('',(#43),#15,.F.);
#315=ADVANCED_FACE('',(#44),#20,.F.);
#316=ADVANCED_FACE('',(#45,#27),#33,.T.);
#317=ADVANCED_FACE('',(#46),#16,.T.);
#318=ADVANCED_FACE('',(#47),#21,.F.);
#319=ADVANCED_FACE('',(#48,#28),#34,.T.);
#320=ADVANCED_FACE('',(#49),#22,.F.);
#321=ADVANCED_FACE('',(#50,#29),#35,.T.);
#322=ADVANCED_FACE('',(#51),#23,.T.);
#323=ADVANCED_FACE('',(#52,#30),#36,.T.);
#324=ADVANCED_FACE('',(#53),#24,.F.);
#325=ADVANCED_FACE('',(#54),#17,.F.);
#326=CLOSED_SHELL('',(#308,#309,#310,#311,#312,#313,#314,#315,#316,#317,
#318,#319,#320,#321,#322,#323,#324,#325));
#327=DERIVED_UNIT_ELEMENT(#329,1.);
#328=DERIVED_UNIT_ELEMENT(#626,3.);
#329=(
MASS_UNIT()
NAMED_UNIT(*)
SI_UNIT($,.GRAM.)
);
#330=DERIVED_UNIT((#327,#328));
#331=MEASURE_REPRESENTATION_ITEM('density measure',
POSITIVE_RATIO_MEASURE(8.),#330);
#332=PROPERTY_DEFINITION_REPRESENTATION(#337,#334);
#333=PROPERTY_DEFINITION_REPRESENTATION(#338,#335);
#334=REPRESENTATION('material name',(#336),#623);
#335=REPRESENTATION('density',(#331),#623);
#336=DESCRIPTIVE_REPRESENTATION_ITEM('Stainless Steel, Austenitic',
'Stainless Steel, Austenitic');
#337=PROPERTY_DEFINITION('material property','material name',#633);
#338=PROPERTY_DEFINITION('material property','density of part',#633);
#339=DATE_TIME_ROLE('creation_date');
#340=APPLIED_DATE_AND_TIME_ASSIGNMENT(#341,#339,(#633));
#341=DATE_AND_TIME(#342,#343);
#342=CALENDAR_DATE(2014,14,8);
#343=LOCAL_TIME(15,10,58.,#344);
#344=COORDINATED_UNIVERSAL_TIME_OFFSET(0,0,.BEHIND.);
#345=AXIS2_PLACEMENT_3D('placement',#522,#401,#402);
#346=AXIS2_PLACEMENT_3D('',#523,#403,#404);
#347=AXIS2_PLACEMENT_3D('',#526,#405,#406);
#348=AXIS2_PLACEMENT_3D('',#527,#407,#408);
#349=AXIS2_PLACEMENT_3D('',#530,#410,#411);
#350=AXIS2_PLACEMENT_3D('',#531,#412,#413);
#351=AXIS2_PLACEMENT_3D('',#534,#414,#415);
#352=AXIS2_PLACEMENT_3D('',#535,#416,#417);
#353=AXIS2_PLACEMENT_3D('',#536,#418,#419);
#354=AXIS2_PLACEMENT_3D('',#539,#420,#421);
#355=AXIS2_PLACEMENT_3D('',#540,#422,#423);
#356=AXIS2_PLACEMENT_3D('',#542,#425,#426);
#357=AXIS2_PLACEMENT_3D('',#544,#427,#428);
#358=AXIS2_PLACEMENT_3D('',#548,#430,#431);
#359=AXIS2_PLACEMENT_3D('',#549,#432,#433);
#360=AXIS2_PLACEMENT_3D('',#550,#434,#435);
#361=AXIS2_PLACEMENT_3D('',#553,#436,#437);
#362=AXIS2_PLACEMENT_3D('',#554,#438,#439);
#363=AXIS2_PLACEMENT_3D('',#555,#440,#441);
#364=AXIS2_PLACEMENT_3D('',#559,#443,#444);
#365=AXIS2_PLACEMENT_3D('',#560,#445,#446);
#366=AXIS2_PLACEMENT_3D('',#561,#447,#448);
#367=AXIS2_PLACEMENT_3D('',#564,#449,#450);
#368=AXIS2_PLACEMENT_3D('',#566,#451,#452);
#369=AXIS2_PLACEMENT_3D('',#568,#453,#454);
#370=AXIS2_PLACEMENT_3D('',#569,#455,#456);
#371=AXIS2_PLACEMENT_3D('',#570,#457,#458);
#372=AXIS2_PLACEMENT_3D('',#571,#459,#460);
#373=AXIS2_PLACEMENT_3D('',#574,#461,#462);
#374=AXIS2_PLACEMENT_3D('',#575,#463,#464);
#375=AXIS2_PLACEMENT_3D('',#577,#466,#467);
#376=AXIS2_PLACEMENT_3D('',#580,#468,#469);
#377=AXIS2_PLACEMENT_3D('',#581,#470,#471);
#378=AXIS2_PLACEMENT_3D('',#582,#472,#473);
#379=AXIS2_PLACEMENT_3D('',#583,#474,#475);
#380=AXIS2_PLACEMENT_3D('',#584,#476,#477);
#381=AXIS2_PLACEMENT_3D('',#588,#479,#480);
#382=AXIS2_PLACEMENT_3D('',#589,#481,#482);
#383=AXIS2_PLACEMENT_3D('',#590,#483,#484);
#384=AXIS2_PLACEMENT_3D('',#593,#485,#486);
#385=AXIS2_PLACEMENT_3D('',#594,#487,#488);
#386=AXIS2_PLACEMENT_3D('',#595,#489,#490);
#387=AXIS2_PLACEMENT_3D('',#599,#492,#493);
#388=AXIS2_PLACEMENT_3D('',#600,#494,#495);
#389=AXIS2_PLACEMENT_3D('',#601,#496,#497);
#390=AXIS2_PLACEMENT_3D('',#604,#498,#499);
#391=AXIS2_PLACEMENT_3D('',#605,#500,#501);
#392=AXIS2_PLACEMENT_3D('',#606,#502,#503);
#393=AXIS2_PLACEMENT_3D('',#609,#504,#505);
#394=AXIS2_PLACEMENT_3D('',#610,#506,#507);
#395=AXIS2_PLACEMENT_3D('',#612,#509,#510);
#396=AXIS2_PLACEMENT_3D('',#615,#511,#512);
#397=AXIS2_PLACEMENT_3D('',#616,#513,#514);
#398=AXIS2_PLACEMENT_3D('',#617,#515,#516);
#399=AXIS2_PLACEMENT_3D('',#619,#518,#519);
#400=AXIS2_PLACEMENT_3D('',#620,#520,#521);
#401=DIRECTION('axis',(0.,0.,1.));
#402=DIRECTION('refdir',(1.,0.,0.));
#403=DIRECTION('center_axis',(-1.,0.,0.));
#404=DIRECTION('ref_axis',(0.,0.,-1.));
#405=DIRECTION('center_axis',(1.,0.,0.));
#406=DIRECTION('ref_axis',(0.,0.,-1.));
#407=DIRECTION('center_axis',(1.,0.,0.));
#408=DIRECTION('ref_axis',(0.,0.,-1.));
#409=DIRECTION('',(0.707106781186543,-8.65956056235499E-17,-0.707106781186552));
#410=DIRECTION('center_axis',(-1.,0.,0.));
#411=DIRECTION('ref_axis',(0.,0.,-1.));
#412=DIRECTION('center_axis',(1.,0.,0.));
#413=DIRECTION('ref_axis',(0.,0.,-1.));
#414=DIRECTION('center_axis',(-1.,0.,0.));
#415=DIRECTION('ref_axis',(0.,0.,1.));
#416=DIRECTION('center_axis',(-1.,0.,0.));
#417=DIRECTION('ref_axis',(0.,0.,1.));
#418=DIRECTION('center_axis',(-1.,0.,0.));
#419=DIRECTION('ref_axis',(0.,0.,1.));
#420=DIRECTION('center_axis',(-1.,0.,0.));
#421=DIRECTION('ref_axis',(0.,0.,1.));
#422=DIRECTION('center_axis',(-1.,0.,0.));
#423=DIRECTION('ref_axis',(0.,0.,1.));
#424=DIRECTION('',(1.,0.,0.));
#425=DIRECTION('center_axis',(1.,0.,0.));
#426=DIRECTION('ref_axis',(0.,0.,-1.));
#427=DIRECTION('center_axis',(1.,0.,0.));
#428=DIRECTION('ref_axis',(0.,0.,-1.));
#429=DIRECTION('',(0.707106781186542,8.65956056235499E-17,0.707106781186553));
#430=DIRECTION('center_axis',(-1.,0.,0.));
#431=DIRECTION('ref_axis',(0.,0.,-1.));
#432=DIRECTION('center_axis',(-1.,0.,0.));
#433=DIRECTION('ref_axis',(0.,0.,-1.));
#434=DIRECTION('center_axis',(-1.,0.,0.));
#435=DIRECTION('ref_axis',(0.,0.,1.));
#436=DIRECTION('center_axis',(-1.,0.,0.));
#437=DIRECTION('ref_axis',(0.,1.22464679914735E-16,-1.));
#438=DIRECTION('center_axis',(-1.,0.,0.));
#439=DIRECTION('ref_axis',(0.,1.22464679914735E-16,-1.));
#440=DIRECTION('center_axis',(-1.,0.,0.));
#441=DIRECTION('ref_axis',(0.,0.,1.));
#442=DIRECTION('',(1.,0.,0.));
#443=DIRECTION('center_axis',(-1.,0.,0.));
#444=DIRECTION('ref_axis',(0.,0.,1.));
#445=DIRECTION('center_axis',(-1.,0.,0.));
#446=DIRECTION('ref_axis',(0.,0.,1.));
#447=DIRECTION('center_axis',(-1.,0.,0.));
#448=DIRECTION('ref_axis',(0.,0.,1.));
#449=DIRECTION('center_axis',(-1.,0.,0.));
#450=DIRECTION('ref_axis',(0.,1.22464679914735E-16,-1.));
#451=DIRECTION('center_axis',(0.,-1.,1.22464679914735E-16));
#452=DIRECTION('ref_axis',(0.,-1.22464679914735E-16,-1.));
#453=DIRECTION('center_axis',(1.,0.,0.));
#454=DIRECTION('ref_axis',(0.,1.22464679914735E-16,-1.));
#455=DIRECTION('center_axis',(1.,0.,0.));
#456=DIRECTION('ref_axis',(0.,1.22464679914735E-16,-1.));
#457=DIRECTION('center_axis',(-1.,0.,0.));
#458=DIRECTION('ref_axis',(0.,1.22464679914735E-16,-1.));
#459=DIRECTION('center_axis',(-1.,0.,0.));
#460=DIRECTION('ref_axis',(0.,0.,1.));
#461=DIRECTION('center_axis',(1.,0.,0.));
#462=DIRECTION('ref_axis',(0.,1.22464679914735E-16,-1.));
#463=DIRECTION('center_axis',(1.,0.,0.));
#464=DIRECTION('ref_axis',(0.,1.22464679914735E-16,-1.));
#465=DIRECTION('',(1.,0.,0.));
#466=DIRECTION('center_axis',(-1.,0.,0.));
#467=DIRECTION('ref_axis',(0.,0.,1.));
#468=DIRECTION('center_axis',(-1.,0.,0.));
#469=DIRECTION('ref_axis',(0.,0.,1.));
#470=DIRECTION('center_axis',(-1.,0.,0.));
#471=DIRECTION('ref_axis',(0.,0.,1.));
#472=DIRECTION('center_axis',(-1.,0.,0.));
#473=DIRECTION('ref_axis',(0.,0.,1.));
#474=DIRECTION('center_axis',(0.,-1.,1.22464679914735E-16));
#475=DIRECTION('ref_axis',(0.,-1.22464679914735E-16,-1.));
#476=DIRECTION('center_axis',(-1.,0.,0.));
#477=DIRECTION('ref_axis',(0.,0.,1.));
#478=DIRECTION('',(1.,0.,0.));
#479=DIRECTION('center_axis',(-1.,0.,0.));
#480=DIRECTION('ref_axis',(0.,0.,1.));
#481=DIRECTION('center_axis',(-1.,0.,0.));
#482=DIRECTION('ref_axis',(0.,0.,1.));
#483=DIRECTION('center_axis',(1.,0.,0.));
#484=DIRECTION('ref_axis',(0.,0.,-1.));
#485=DIRECTION('center_axis',(-1.,0.,0.));
#486=DIRECTION('ref_axis',(0.,0.,1.));
#487=DIRECTION('center_axis',(-1.,0.,0.));
#488=DIRECTION('ref_axis',(0.,0.,1.));
#489=DIRECTION('center_axis',(-1.,0.,0.));
#490=DIRECTION('ref_axis',(0.,0.,1.));
#491=DIRECTION('',(1.,0.,0.));
#492=DIRECTION('center_axis',(-1.,0.,0.));
#493=DIRECTION('ref_axis',(0.,0.,1.));
#494=DIRECTION('center_axis',(-1.,0.,0.));
#495=DIRECTION('ref_axis',(0.,0.,1.));
#496=DIRECTION('center_axis',(1.,0.,0.));
#497=DIRECTION('ref_axis',(0.,0.,-1.));
#498=DIRECTION('center_axis',(-1.,0.,0.));
#499=DIRECTION('ref_axis',(0.,0.,1.));
#500=DIRECTION('center_axis',(-1.,0.,0.));
#501=DIRECTION('ref_axis',(0.,0.,1.));
#502=DIRECTION('center_axis',(-1.,0.,0.));
#503=DIRECTION('ref_axis',(0.,0.,1.));
#504=DIRECTION('center_axis',(-1.,0.,0.));
#505=DIRECTION('ref_axis',(0.,0.,1.));
#506=DIRECTION('center_axis',(-1.,0.,0.));
#507=DIRECTION('ref_axis',(0.,0.,1.));
#508=DIRECTION('',(1.,0.,0.));
#509=DIRECTION('center_axis',(1.,0.,0.));
#510=DIRECTION('ref_axis',(0.,0.,-1.));
#511=DIRECTION('center_axis',(-1.,0.,0.));
#512=DIRECTION('ref_axis',(0.,0.,1.));
#513=DIRECTION('center_axis',(-1.,0.,0.));
#514=DIRECTION('ref_axis',(0.,0.,1.));
#515=DIRECTION('center_axis',(-1.,0.,0.));
#516=DIRECTION('ref_axis',(0.,0.,1.));
#517=DIRECTION('',(1.,0.,0.));
#518=DIRECTION('center_axis',(-1.,0.,0.));
#519=DIRECTION('ref_axis',(0.,0.,1.));
#520=DIRECTION('center_axis',(0.,-1.,1.22464679914735E-16));
#521=DIRECTION('ref_axis',(0.,-1.22464679914735E-16,-1.));
#522=CARTESIAN_POINT('',(0.,0.,0.));
#523=CARTESIAN_POINT('Origin',(16.75,0.,0.));
#524=CARTESIAN_POINT('',(16.5,-2.2655965784226E-14,185.));
#525=CARTESIAN_POINT('',(16.5,-2.2655965784226E-14,-185.));
#526=CARTESIAN_POINT('Origin',(16.5,0.,0.));
#527=CARTESIAN_POINT('Origin',(16.5,0.,0.));
#528=CARTESIAN_POINT('',(17.,2.25947334442687E-14,184.5));
#529=CARTESIAN_POINT('',(16.75,2.26253496142474E-14,184.75));
#530=CARTESIAN_POINT('Origin',(17.,0.,0.));
#531=CARTESIAN_POINT('Origin',(17.,0.,185.));
#532=CARTESIAN_POINT('',(17.,0.,182.5));
#533=CARTESIAN_POINT('',(17.,-2.23498040844392E-14,-182.5));
#534=CARTESIAN_POINT('Origin',(17.,0.,0.));
#535=CARTESIAN_POINT('Origin',(17.,0.,0.));
#536=CARTESIAN_POINT('Origin',(13.25,0.,0.));
#537=CARTESIAN_POINT('',(9.5,0.,185.));
#538=CARTESIAN_POINT('',(9.5,-2.2655965784226E-14,-185.));
#539=CARTESIAN_POINT('Origin',(9.5,0.,0.));
#540=CARTESIAN_POINT('Origin',(9.5,0.,0.));
#541=CARTESIAN_POINT('',(13.25,-2.2655965784226E-14,-185.));
#542=CARTESIAN_POINT('Origin',(0.25,0.,0.));
#543=CARTESIAN_POINT('',(0.,-2.25947334442687E-14,184.5));
#544=CARTESIAN_POINT('Origin',(0.,0.,0.));
#545=CARTESIAN_POINT('',(0.5,2.2655965784226E-14,185.));
#546=CARTESIAN_POINT('',(0.25,2.26253496142474E-14,184.75));
#547=CARTESIAN_POINT('',(0.5,-2.2655965784226E-14,-185.));
#548=CARTESIAN_POINT('Origin',(0.5,0.,0.));
#549=CARTESIAN_POINT('Origin',(0.5,0.,0.));
#550=CARTESIAN_POINT('Origin',(0.,0.,159.));
#551=CARTESIAN_POINT('',(0.,0.,159.5));
#552=CARTESIAN_POINT('',(0.,-1.95331164464003E-14,-159.5));
#553=CARTESIAN_POINT('Origin',(0.,0.,0.));
#554=CARTESIAN_POINT('Origin',(0.,0.,0.));
#555=CARTESIAN_POINT('Origin',(2.25,0.,0.));
#556=CARTESIAN_POINT('',(4.50000000000001,-2.2655965784226E-14,-185.));
#557=CARTESIAN_POINT('',(2.25,-2.2655965784226E-14,-185.));
#558=CARTESIAN_POINT('',(4.50000000000001,0.,185.));
#559=CARTESIAN_POINT('Origin',(4.50000000000001,0.,0.));
#560=CARTESIAN_POINT('Origin',(4.50000000000001,0.,0.));
#561=CARTESIAN_POINT('Origin',(4.,0.,0.));
#562=CARTESIAN_POINT('',(4.,0.,159.));
#563=CARTESIAN_POINT('',(4.,-1.94718841064429E-14,-159.));
#564=CARTESIAN_POINT('Origin',(4.,0.,0.));
#565=CARTESIAN_POINT('',(4.5,-1.94106517664855E-14,-158.5));
#566=CARTESIAN_POINT('Origin',(4.,-1.94106517664855E-14,-158.5));
#567=CARTESIAN_POINT('',(4.5,-3.88213035329711E-14,158.5));
#568=CARTESIAN_POINT('Origin',(4.5,0.,0.));
#569=CARTESIAN_POINT('Origin',(4.5,0.,0.));
#570=CARTESIAN_POINT('Origin',(4.,0.,0.));
#571=CARTESIAN_POINT('Origin',(2.25,0.,0.));
#572=CARTESIAN_POINT('',(0.5,-3.89437682128858E-14,159.));
#573=CARTESIAN_POINT('',(0.5,-1.94718841064429E-14,-159.));
#574=CARTESIAN_POINT('Origin',(0.5,0.,0.));
#575=CARTESIAN_POINT('Origin',(0.5,0.,0.));
#576=CARTESIAN_POINT('',(2.25,-1.94718841064429E-14,-159.));
#577=CARTESIAN_POINT('Origin',(4.5,0.,150.5));
#578=CARTESIAN_POINT('',(4.5,0.,150.5));
#579=CARTESIAN_POINT('',(4.5,-1.84309343271677E-14,-150.5));
#580=CARTESIAN_POINT('Origin',(4.5,0.,0.));
#581=CARTESIAN_POINT('Origin',(4.5,0.,0.));
#582=CARTESIAN_POINT('Origin',(0.5,0.,0.));
#583=CARTESIAN_POINT('Origin',(0.5,-1.95331164464003E-14,-159.5));
#584=CARTESIAN_POINT('Origin',(5.8,0.,0.));
#585=CARTESIAN_POINT('',(7.1,-1.84309343271677E-14,-150.5));
#586=CARTESIAN_POINT('',(5.8,-1.84309343271677E-14,-150.5));
#587=CARTESIAN_POINT('',(7.1,0.,150.5));
#588=CARTESIAN_POINT('Origin',(7.1,0.,0.));
#589=CARTESIAN_POINT('Origin',(7.1,0.,0.));
#590=CARTESIAN_POINT('Origin',(7.1,0.,152.5));
#591=CARTESIAN_POINT('',(7.1,0.,152.5));
#592=CARTESIAN_POINT('',(7.1,-1.86758636869971E-14,-152.5));
#593=CARTESIAN_POINT('Origin',(7.1,0.,0.));
#594=CARTESIAN_POINT('Origin',(7.1,0.,0.));
#595=CARTESIAN_POINT('Origin',(9.6,0.,0.));
#596=CARTESIAN_POINT('',(12.1,-1.86758636869971E-14,-152.5));
#597=CARTESIAN_POINT('',(9.6,-1.86758636869971E-14,-152.5));
#598=CARTESIAN_POINT('',(12.1,0.,152.5));
#599=CARTESIAN_POINT('Origin',(12.1,0.,0.));
#600=CARTESIAN_POINT('Origin',(12.1,0.,0.));
#601=CARTESIAN_POINT('Origin',(12.1,0.,176.));
#602=CARTESIAN_POINT('',(12.1,0.,176.));
#603=CARTESIAN_POINT('',(12.1,-2.15537836649934E-14,-176.));
#604=CARTESIAN_POINT('Origin',(12.1,0.,0.));
#605=CARTESIAN_POINT('Origin',(12.1,0.,0.));
#606=CARTESIAN_POINT('Origin',(10.7,0.,0.));
#607=CARTESIAN_POINT('',(9.30000000000005,0.,176.));
#608=CARTESIAN_POINT('',(9.30000000000005,-2.15537836649934E-14,-176.));
#609=CARTESIAN_POINT('Origin',(9.30000000000005,0.,0.));
#610=CARTESIAN_POINT('Origin',(9.30000000000005,0.,0.));
#611=CARTESIAN_POINT('',(10.7,-2.15537836649934E-14,-176.));
#612=CARTESIAN_POINT('Origin',(9.30000000000005,0.,182.5));
#613=CARTESIAN_POINT('',(9.30000000000005,0.,182.5));
#614=CARTESIAN_POINT('',(9.30000000000005,-2.23498040844392E-14,-182.5));
#615=CARTESIAN_POINT('Origin',(9.30000000000005,0.,0.));
#616=CARTESIAN_POINT('Origin',(9.30000000000005,0.,0.));
#617=CARTESIAN_POINT('Origin',(13.15,0.,0.));
#618=CARTESIAN_POINT('',(13.15,-2.23498040844392E-14,-182.5));
#619=CARTESIAN_POINT('Origin',(7.,0.,0.));
#620=CARTESIAN_POINT('Origin',(7.,-2.2655965784226E-14,-185.));
#621=UNCERTAINTY_MEASURE_WITH_UNIT(LENGTH_MEASURE(0.01),#625,
'DISTANCE_ACCURACY_VALUE',
'Maximum model space distance between geometric entities at asserted c
onnectivities');
#622=UNCERTAINTY_MEASURE_WITH_UNIT(LENGTH_MEASURE(0.01),#625,
'DISTANCE_ACCURACY_VALUE',
'Maximum model space distance between geometric entities at asserted c
onnectivities');
#623=(
GEOMETRIC_REPRESENTATION_CONTEXT(3)
GLOBAL_UNCERTAINTY_ASSIGNED_CONTEXT((#621))
GLOBAL_UNIT_ASSIGNED_CONTEXT((#625,#628,#627))
REPRESENTATION_CONTEXT('','3D')
);
#624=(
GEOMETRIC_REPRESENTATION_CONTEXT(3)
GLOBAL_UNCERTAINTY_ASSIGNED_CONTEXT((#622))
GLOBAL_UNIT_ASSIGNED_CONTEXT((#625,#628,#627))
REPRESENTATION_CONTEXT('','3D')
);
#625=(
LENGTH_UNIT()
NAMED_UNIT(*)
SI_UNIT(.MILLI.,.METRE.)
);
#626=(
LENGTH_UNIT()
NAMED_UNIT(*)
SI_UNIT(.CENTI.,.METRE.)
);
#627=(
NAMED_UNIT(*)
SI_UNIT($,.STERADIAN.)
SOLID_ANGLE_UNIT()
);
#628=(
NAMED_UNIT(*)
PLANE_ANGLE_UNIT()
SI_UNIT($,.RADIAN.)
);
#629=SHAPE_DEFINITION_REPRESENTATION(#630,#631);
#630=PRODUCT_DEFINITION_SHAPE('',$,#633);
#631=SHAPE_REPRESENTATION('',(#345),#623);
#632=PRODUCT_DEFINITION_CONTEXT('part definition',#637,'design');
#633=PRODUCT_DEFINITION('FL-320LF-W','FL-320LF-W',#634,#632);
#634=PRODUCT_DEFINITION_FORMATION('',$,#639);
#635=PRODUCT_RELATED_PRODUCT_CATEGORY('FL-320LF-W','FL-320LF-W',(#639));
#636=APPLICATION_PROTOCOL_DEFINITION('international standard',
'automotive_design',2009,#637);
#637=APPLICATION_CONTEXT(
'Core Data for Automotive Mechanical Design Process');
#638=PRODUCT_CONTEXT('part definition',#637,'mechanical');
#639=PRODUCT('FL-320LF-W','FL-320LF-W',$,(#638));
#640=PRESENTATION_STYLE_ASSIGNMENT((#641));
#641=SURFACE_STYLE_USAGE(.BOTH.,#642);
#642=SURFACE_SIDE_STYLE('',(#643));
#643=SURFACE_STYLE_FILL_AREA(#644);
#644=FILL_AREA_STYLE('',(#645));
#645=FILL_AREA_STYLE_COLOUR('',#646);
#646=COLOUR_RGB('',0.745098039215686,0.737254901960784,0.729411764705882);
ENDSEC;
END-ISO-10303-21;
