ISO-10303-21;
HEADER;
/* Generated by software containing ST-Developer
 * from STEP Tools, Inc. (www.steptools.com) 
 */

FILE_DESCRIPTION(
/* description */ (''),
/* implementation_level */ '2;1');

FILE_NAME(
/* name */ 'G:\\Flanges + FITTINGS\\NW40KF\\Step files\\FL-WALLKF.stp',

/* time_stamp */ '2018-03-28T11:52:00+01:00',
/* author */ ('paul'),
/* organization */ (''),
/* preprocessor_version */ 'ST-DEVELOPER v17',
/* originating_system */ 'Autodesk Inventor 2018',
/* authorisation */ '');

FILE_SCHEMA (('AUTOMOTIVE_DESIGN { 1 0 10303 214 3 1 1 }'));
ENDSEC;

DATA;
#10=MECHANICAL_DESIGN_GEOMETRIC_PRESENTATION_REPRESENTATION('',(#13),#612);
#11=SHAPE_REPRESENTATION_RELATIONSHIP('SRR','None',#619,#12);
#12=ADVANCED_BREP_SHAPE_REPRESENTATION('',(#14),#611);
#13=STYLED_ITEM('',(#628),#14);
#14=MANIFOLD_SOLID_BREP('Solid1',#355);
#15=ELLIPSE('',#396,14.7078210486796,10.3999999999998);
#16=ELLIPSE('',#398,10.7668722762648,10.4);
#17=FACE_BOUND('',#58,.T.);
#18=FACE_BOUND('',#63,.T.);
#19=PLANE('',#386);
#20=PLANE('',#387);
#21=PLANE('',#389);
#22=PLANE('',#390);
#23=PLANE('',#391);
#24=PLANE('',#392);
#25=PLANE('',#395);
#26=PLANE('',#397);
#27=PLANE('',#399);
#28=PLANE('',#400);
#29=PLANE('',#404);
#30=PLANE('',#405);
#31=PLANE('',#406);
#32=CYLINDRICAL_SURFACE('',#385,3.25);
#33=CYLINDRICAL_SURFACE('',#401,10.4);
#34=CYLINDRICAL_SURFACE('',#402,6.);
#35=FACE_OUTER_BOUND('',#53,.T.);
#36=FACE_OUTER_BOUND('',#54,.T.);
#37=FACE_OUTER_BOUND('',#55,.T.);
#38=FACE_OUTER_BOUND('',#56,.T.);
#39=FACE_OUTER_BOUND('',#57,.T.);
#40=FACE_OUTER_BOUND('',#59,.T.);
#41=FACE_OUTER_BOUND('',#60,.T.);
#42=FACE_OUTER_BOUND('',#61,.T.);
#43=FACE_OUTER_BOUND('',#62,.T.);
#44=FACE_OUTER_BOUND('',#64,.T.);
#45=FACE_OUTER_BOUND('',#65,.T.);
#46=FACE_OUTER_BOUND('',#66,.T.);
#47=FACE_OUTER_BOUND('',#67,.T.);
#48=FACE_OUTER_BOUND('',#68,.T.);
#49=FACE_OUTER_BOUND('',#69,.T.);
#50=FACE_OUTER_BOUND('',#70,.T.);
#51=FACE_OUTER_BOUND('',#71,.T.);
#52=FACE_OUTER_BOUND('',#72,.T.);
#53=EDGE_LOOP('',(#237,#238,#239,#240,#241,#242));
#54=EDGE_LOOP('',(#243,#244,#245,#246,#247,#248));
#55=EDGE_LOOP('',(#249,#250,#251,#252,#253,#254));
#56=EDGE_LOOP('',(#255,#256,#257,#258));
#57=EDGE_LOOP('',(#259,#260,#261,#262,#263));
#58=EDGE_LOOP('',(#264,#265));
#59=EDGE_LOOP('',(#266,#267,#268,#269));
#60=EDGE_LOOP('',(#270,#271,#272,#273,#274,#275));
#61=EDGE_LOOP('',(#276,#277,#278,#279));
#62=EDGE_LOOP('',(#280,#281,#282,#283,#284,#285,#286,#287));
#63=EDGE_LOOP('',(#288,#289));
#64=EDGE_LOOP('',(#290,#291));
#65=EDGE_LOOP('',(#292,#293,#294,#295,#296));
#66=EDGE_LOOP('',(#297,#298,#299,#300,#301,#302,#303,#304));
#67=EDGE_LOOP('',(#305,#306,#307,#308,#309,#310,#311,#312,#313));
#68=EDGE_LOOP('',(#314,#315,#316,#317,#318,#319));
#69=EDGE_LOOP('',(#320,#321,#322,#323));
#70=EDGE_LOOP('',(#324,#325,#326));
#71=EDGE_LOOP('',(#327,#328,#329,#330));
#72=EDGE_LOOP('',(#331,#332,#333,#334));
#73=LINE('',#515,#108);
#74=LINE('',#525,#109);
#75=LINE('',#530,#110);
#76=LINE('',#534,#111);
#77=LINE('',#536,#112);
#78=LINE('',#538,#113);
#79=LINE('',#539,#114);
#80=LINE('',#544,#115);
#81=LINE('',#546,#116);
#82=LINE('',#547,#117);
#83=LINE('',#550,#118);
#84=LINE('',#552,#119);
#85=LINE('',#553,#120);
#86=LINE('',#557,#121);
#87=LINE('',#559,#122);
#88=LINE('',#560,#123);
#89=LINE('',#562,#124);
#90=LINE('',#563,#125);
#91=LINE('',#567,#126);
#92=LINE('',#568,#127);
#93=LINE('',#569,#128);
#94=LINE('',#573,#129);
#95=LINE('',#574,#130);
#96=LINE('',#576,#131);
#97=LINE('',#578,#132);
#98=LINE('',#582,#133);
#99=LINE('',#591,#134);
#100=LINE('',#592,#135);
#101=LINE('',#593,#136);
#102=LINE('',#595,#137);
#103=LINE('',#596,#138);
#104=LINE('',#598,#139);
#105=LINE('',#600,#140);
#106=LINE('',#601,#141);
#107=LINE('',#602,#142);
#108=VECTOR('',#415,3.25);
#109=VECTOR('',#426,3.75);
#110=VECTOR('',#433,3.25);
#111=VECTOR('',#436,1000.);
#112=VECTOR('',#437,1000.);
#113=VECTOR('',#438,1000.);
#114=VECTOR('',#439,1000.);
#115=VECTOR('',#444,1000.);
#116=VECTOR('',#445,1000.);
#117=VECTOR('',#446,1000.);
#118=VECTOR('',#449,1000.);
#119=VECTOR('',#450,1000.);
#120=VECTOR('',#451,1000.);
#121=VECTOR('',#454,1000.);
#122=VECTOR('',#455,1000.);
#123=VECTOR('',#456,1000.);
#124=VECTOR('',#457,1000.);
#125=VECTOR('',#458,1000.);
#126=VECTOR('',#461,1000.);
#127=VECTOR('',#462,1000.);
#128=VECTOR('',#463,1000.);
#129=VECTOR('',#466,1000.);
#130=VECTOR('',#467,1000.);
#131=VECTOR('',#468,1000.);
#132=VECTOR('',#469,1000.);
#133=VECTOR('',#472,1000.);
#134=VECTOR('',#483,1000.);
#135=VECTOR('',#484,1000.);
#136=VECTOR('',#485,1000.);
#137=VECTOR('',#488,1000.);
#138=VECTOR('',#489,1000.);
#139=VECTOR('',#492,1000.);
#140=VECTOR('',#493,1000.);
#141=VECTOR('',#494,1000.);
#142=VECTOR('',#495,1000.);
#143=CIRCLE('',#376,3.25);
#144=CIRCLE('',#377,3.25);
#145=CIRCLE('',#378,3.74999999999999);
#146=CIRCLE('',#379,3.74999999999999);
#147=CIRCLE('',#381,3.25);
#148=CIRCLE('',#382,3.25);
#149=CIRCLE('',#383,3.75);
#150=CIRCLE('',#384,3.75);
#151=CIRCLE('',#388,6.);
#152=CIRCLE('',#393,10.4);
#153=CIRCLE('',#394,10.4);
#154=CIRCLE('',#403,6.);
#155=VERTEX_POINT('',#510);
#156=VERTEX_POINT('',#511);
#157=VERTEX_POINT('',#514);
#158=VERTEX_POINT('',#516);
#159=VERTEX_POINT('',#520);
#160=VERTEX_POINT('',#521);
#161=VERTEX_POINT('',#524);
#162=VERTEX_POINT('',#526);
#163=VERTEX_POINT('',#532);
#164=VERTEX_POINT('',#533);
#165=VERTEX_POINT('',#535);
#166=VERTEX_POINT('',#537);
#167=VERTEX_POINT('',#541);
#168=VERTEX_POINT('',#543);
#169=VERTEX_POINT('',#545);
#170=VERTEX_POINT('',#549);
#171=VERTEX_POINT('',#551);
#172=VERTEX_POINT('',#555);
#173=VERTEX_POINT('',#556);
#174=VERTEX_POINT('',#558);
#175=VERTEX_POINT('',#561);
#176=VERTEX_POINT('',#565);
#177=VERTEX_POINT('',#566);
#178=VERTEX_POINT('',#571);
#179=VERTEX_POINT('',#572);
#180=VERTEX_POINT('',#575);
#181=VERTEX_POINT('',#577);
#182=VERTEX_POINT('',#579);
#183=VERTEX_POINT('',#581);
#184=VERTEX_POINT('',#587);
#185=VERTEX_POINT('',#588);
#186=VERTEX_POINT('',#590);
#187=VERTEX_POINT('',#599);
#188=EDGE_CURVE('',#155,#156,#143,.T.);
#189=EDGE_CURVE('',#156,#155,#144,.T.);
#190=EDGE_CURVE('',#156,#157,#73,.T.);
#191=EDGE_CURVE('',#158,#157,#145,.T.);
#192=EDGE_CURVE('',#157,#158,#146,.T.);
#193=EDGE_CURVE('',#159,#160,#147,.T.);
#194=EDGE_CURVE('',#160,#159,#148,.T.);
#195=EDGE_CURVE('',#160,#161,#74,.T.);
#196=EDGE_CURVE('',#162,#161,#149,.T.);
#197=EDGE_CURVE('',#161,#162,#150,.T.);
#198=EDGE_CURVE('',#159,#156,#75,.T.);
#199=EDGE_CURVE('',#163,#164,#76,.T.);
#200=EDGE_CURVE('',#164,#165,#77,.T.);
#201=EDGE_CURVE('',#166,#165,#78,.T.);
#202=EDGE_CURVE('',#163,#166,#79,.T.);
#203=EDGE_CURVE('',#167,#165,#151,.T.);
#204=EDGE_CURVE('',#167,#168,#80,.T.);
#205=EDGE_CURVE('',#169,#168,#81,.T.);
#206=EDGE_CURVE('',#166,#169,#82,.T.);
#207=EDGE_CURVE('',#168,#170,#83,.T.);
#208=EDGE_CURVE('',#171,#170,#84,.T.);
#209=EDGE_CURVE('',#169,#171,#85,.T.);
#210=EDGE_CURVE('',#172,#173,#86,.T.);
#211=EDGE_CURVE('',#172,#174,#87,.T.);
#212=EDGE_CURVE('',#171,#174,#88,.T.);
#213=EDGE_CURVE('',#170,#175,#89,.T.);
#214=EDGE_CURVE('',#175,#173,#90,.T.);
#215=EDGE_CURVE('',#176,#177,#91,.T.);
#216=EDGE_CURVE('',#176,#172,#92,.T.);
#217=EDGE_CURVE('',#173,#177,#93,.T.);
#218=EDGE_CURVE('',#178,#179,#94,.T.);
#219=EDGE_CURVE('',#178,#176,#95,.T.);
#220=EDGE_CURVE('',#177,#180,#96,.T.);
#221=EDGE_CURVE('',#180,#181,#97,.T.);
#222=EDGE_CURVE('',#181,#182,#152,.T.);
#223=EDGE_CURVE('',#183,#182,#98,.T.);
#224=EDGE_CURVE('',#183,#179,#153,.T.);
#225=EDGE_CURVE('',#182,#183,#15,.T.);
#226=EDGE_CURVE('',#184,#185,#16,.T.);
#227=EDGE_CURVE('',#186,#184,#99,.T.);
#228=EDGE_CURVE('',#164,#186,#100,.T.);
#229=EDGE_CURVE('',#163,#185,#101,.T.);
#230=EDGE_CURVE('',#174,#178,#102,.T.);
#231=EDGE_CURVE('',#179,#185,#103,.T.);
#232=EDGE_CURVE('',#180,#175,#104,.T.);
#233=EDGE_CURVE('',#187,#167,#105,.T.);
#234=EDGE_CURVE('',#186,#187,#106,.T.);
#235=EDGE_CURVE('',#184,#181,#107,.T.);
#236=EDGE_CURVE('',#187,#164,#154,.T.);
#237=ORIENTED_EDGE('',*,*,#188,.F.);
#238=ORIENTED_EDGE('',*,*,#189,.F.);
#239=ORIENTED_EDGE('',*,*,#190,.T.);
#240=ORIENTED_EDGE('',*,*,#191,.F.);
#241=ORIENTED_EDGE('',*,*,#192,.F.);
#242=ORIENTED_EDGE('',*,*,#190,.F.);
#243=ORIENTED_EDGE('',*,*,#193,.F.);
#244=ORIENTED_EDGE('',*,*,#194,.F.);
#245=ORIENTED_EDGE('',*,*,#195,.T.);
#246=ORIENTED_EDGE('',*,*,#196,.F.);
#247=ORIENTED_EDGE('',*,*,#197,.F.);
#248=ORIENTED_EDGE('',*,*,#195,.F.);
#249=ORIENTED_EDGE('',*,*,#193,.T.);
#250=ORIENTED_EDGE('',*,*,#194,.T.);
#251=ORIENTED_EDGE('',*,*,#198,.T.);
#252=ORIENTED_EDGE('',*,*,#189,.T.);
#253=ORIENTED_EDGE('',*,*,#188,.T.);
#254=ORIENTED_EDGE('',*,*,#198,.F.);
#255=ORIENTED_EDGE('',*,*,#199,.T.);
#256=ORIENTED_EDGE('',*,*,#200,.T.);
#257=ORIENTED_EDGE('',*,*,#201,.F.);
#258=ORIENTED_EDGE('',*,*,#202,.F.);
#259=ORIENTED_EDGE('',*,*,#201,.T.);
#260=ORIENTED_EDGE('',*,*,#203,.F.);
#261=ORIENTED_EDGE('',*,*,#204,.T.);
#262=ORIENTED_EDGE('',*,*,#205,.F.);
#263=ORIENTED_EDGE('',*,*,#206,.F.);
#264=ORIENTED_EDGE('',*,*,#191,.T.);
#265=ORIENTED_EDGE('',*,*,#192,.T.);
#266=ORIENTED_EDGE('',*,*,#207,.T.);
#267=ORIENTED_EDGE('',*,*,#208,.F.);
#268=ORIENTED_EDGE('',*,*,#209,.F.);
#269=ORIENTED_EDGE('',*,*,#205,.T.);
#270=ORIENTED_EDGE('',*,*,#210,.F.);
#271=ORIENTED_EDGE('',*,*,#211,.T.);
#272=ORIENTED_EDGE('',*,*,#212,.F.);
#273=ORIENTED_EDGE('',*,*,#208,.T.);
#274=ORIENTED_EDGE('',*,*,#213,.T.);
#275=ORIENTED_EDGE('',*,*,#214,.T.);
#276=ORIENTED_EDGE('',*,*,#215,.F.);
#277=ORIENTED_EDGE('',*,*,#216,.T.);
#278=ORIENTED_EDGE('',*,*,#210,.T.);
#279=ORIENTED_EDGE('',*,*,#217,.T.);
#280=ORIENTED_EDGE('',*,*,#218,.F.);
#281=ORIENTED_EDGE('',*,*,#219,.T.);
#282=ORIENTED_EDGE('',*,*,#215,.T.);
#283=ORIENTED_EDGE('',*,*,#220,.T.);
#284=ORIENTED_EDGE('',*,*,#221,.T.);
#285=ORIENTED_EDGE('',*,*,#222,.T.);
#286=ORIENTED_EDGE('',*,*,#223,.F.);
#287=ORIENTED_EDGE('',*,*,#224,.T.);
#288=ORIENTED_EDGE('',*,*,#196,.T.);
#289=ORIENTED_EDGE('',*,*,#197,.T.);
#290=ORIENTED_EDGE('',*,*,#223,.T.);
#291=ORIENTED_EDGE('',*,*,#225,.T.);
#292=ORIENTED_EDGE('',*,*,#226,.F.);
#293=ORIENTED_EDGE('',*,*,#227,.F.);
#294=ORIENTED_EDGE('',*,*,#228,.F.);
#295=ORIENTED_EDGE('',*,*,#199,.F.);
#296=ORIENTED_EDGE('',*,*,#229,.T.);
#297=ORIENTED_EDGE('',*,*,#212,.T.);
#298=ORIENTED_EDGE('',*,*,#230,.T.);
#299=ORIENTED_EDGE('',*,*,#218,.T.);
#300=ORIENTED_EDGE('',*,*,#231,.T.);
#301=ORIENTED_EDGE('',*,*,#229,.F.);
#302=ORIENTED_EDGE('',*,*,#202,.T.);
#303=ORIENTED_EDGE('',*,*,#206,.T.);
#304=ORIENTED_EDGE('',*,*,#209,.T.);
#305=ORIENTED_EDGE('',*,*,#221,.F.);
#306=ORIENTED_EDGE('',*,*,#232,.T.);
#307=ORIENTED_EDGE('',*,*,#213,.F.);
#308=ORIENTED_EDGE('',*,*,#207,.F.);
#309=ORIENTED_EDGE('',*,*,#204,.F.);
#310=ORIENTED_EDGE('',*,*,#233,.F.);
#311=ORIENTED_EDGE('',*,*,#234,.F.);
#312=ORIENTED_EDGE('',*,*,#227,.T.);
#313=ORIENTED_EDGE('',*,*,#235,.T.);
#314=ORIENTED_EDGE('',*,*,#225,.F.);
#315=ORIENTED_EDGE('',*,*,#222,.F.);
#316=ORIENTED_EDGE('',*,*,#235,.F.);
#317=ORIENTED_EDGE('',*,*,#226,.T.);
#318=ORIENTED_EDGE('',*,*,#231,.F.);
#319=ORIENTED_EDGE('',*,*,#224,.F.);
#320=ORIENTED_EDGE('',*,*,#203,.T.);
#321=ORIENTED_EDGE('',*,*,#200,.F.);
#322=ORIENTED_EDGE('',*,*,#236,.F.);
#323=ORIENTED_EDGE('',*,*,#233,.T.);
#324=ORIENTED_EDGE('',*,*,#234,.T.);
#325=ORIENTED_EDGE('',*,*,#236,.T.);
#326=ORIENTED_EDGE('',*,*,#228,.T.);
#327=ORIENTED_EDGE('',*,*,#211,.F.);
#328=ORIENTED_EDGE('',*,*,#216,.F.);
#329=ORIENTED_EDGE('',*,*,#219,.F.);
#330=ORIENTED_EDGE('',*,*,#230,.F.);
#331=ORIENTED_EDGE('',*,*,#214,.F.);
#332=ORIENTED_EDGE('',*,*,#232,.F.);
#333=ORIENTED_EDGE('',*,*,#220,.F.);
#334=ORIENTED_EDGE('',*,*,#217,.F.);
#335=CONICAL_SURFACE('',#375,3.25,0.785398163397451);
#336=CONICAL_SURFACE('',#380,3.75,0.785398163397447);
#337=ADVANCED_FACE('',(#35),#335,.F.);
#338=ADVANCED_FACE('',(#36),#336,.F.);
#339=ADVANCED_FACE('',(#37),#32,.F.);
#340=ADVANCED_FACE('',(#38),#19,.F.);
#341=ADVANCED_FACE('',(#39,#17),#20,.F.);
#342=ADVANCED_FACE('',(#40),#21,.F.);
#343=ADVANCED_FACE('',(#41),#22,.F.);
#344=ADVANCED_FACE('',(#42),#23,.F.);
#345=ADVANCED_FACE('',(#43,#18),#24,.F.);
#346=ADVANCED_FACE('',(#44),#25,.F.);
#347=ADVANCED_FACE('',(#45),#26,.T.);
#348=ADVANCED_FACE('',(#46),#27,.T.);
#349=ADVANCED_FACE('',(#47),#28,.F.);
#350=ADVANCED_FACE('',(#48),#33,.T.);
#351=ADVANCED_FACE('',(#49),#34,.T.);
#352=ADVANCED_FACE('',(#50),#29,.T.);
#353=ADVANCED_FACE('',(#51),#30,.T.);
#354=ADVANCED_FACE('',(#52),#31,.F.);
#355=CLOSED_SHELL('',(#337,#338,#339,#340,#341,#342,#343,#344,#345,#346,
#347,#348,#349,#350,#351,#352,#353,#354));
#356=DERIVED_UNIT_ELEMENT(#358,1.);
#357=DERIVED_UNIT_ELEMENT(#614,3.);
#358=(
MASS_UNIT()
NAMED_UNIT(*)
SI_UNIT($,.GRAM.)
);
#359=DERIVED_UNIT((#356,#357));
#360=MEASURE_REPRESENTATION_ITEM('density measure',
POSITIVE_RATIO_MEASURE(1.),#359);
#361=PROPERTY_DEFINITION_REPRESENTATION(#366,#363);
#362=PROPERTY_DEFINITION_REPRESENTATION(#367,#364);
#363=REPRESENTATION('material name',(#365),#611);
#364=REPRESENTATION('density',(#360),#611);
#365=DESCRIPTIVE_REPRESENTATION_ITEM('Generic','Generic');
#366=PROPERTY_DEFINITION('material property','material name',#621);
#367=PROPERTY_DEFINITION('material property','density of part',#621);
#368=DATE_TIME_ROLE('creation_date');
#369=APPLIED_DATE_AND_TIME_ASSIGNMENT(#370,#368,(#621));
#370=DATE_AND_TIME(#371,#372);
#371=CALENDAR_DATE(2018,27,3);
#372=LOCAL_TIME(7,10,4.,#373);
#373=COORDINATED_UNIVERSAL_TIME_OFFSET(0,0,.BEHIND.);
#374=AXIS2_PLACEMENT_3D('placement',#508,#407,#408);
#375=AXIS2_PLACEMENT_3D('',#509,#409,#410);
#376=AXIS2_PLACEMENT_3D('',#512,#411,#412);
#377=AXIS2_PLACEMENT_3D('',#513,#413,#414);
#378=AXIS2_PLACEMENT_3D('',#517,#416,#417);
#379=AXIS2_PLACEMENT_3D('',#518,#418,#419);
#380=AXIS2_PLACEMENT_3D('',#519,#420,#421);
#381=AXIS2_PLACEMENT_3D('',#522,#422,#423);
#382=AXIS2_PLACEMENT_3D('',#523,#424,#425);
#383=AXIS2_PLACEMENT_3D('',#527,#427,#428);
#384=AXIS2_PLACEMENT_3D('',#528,#429,#430);
#385=AXIS2_PLACEMENT_3D('',#529,#431,#432);
#386=AXIS2_PLACEMENT_3D('',#531,#434,#435);
#387=AXIS2_PLACEMENT_3D('',#540,#440,#441);
#388=AXIS2_PLACEMENT_3D('',#542,#442,#443);
#389=AXIS2_PLACEMENT_3D('',#548,#447,#448);
#390=AXIS2_PLACEMENT_3D('',#554,#452,#453);
#391=AXIS2_PLACEMENT_3D('',#564,#459,#460);
#392=AXIS2_PLACEMENT_3D('',#570,#464,#465);
#393=AXIS2_PLACEMENT_3D('',#580,#470,#471);
#394=AXIS2_PLACEMENT_3D('',#583,#473,#474);
#395=AXIS2_PLACEMENT_3D('',#584,#475,#476);
#396=AXIS2_PLACEMENT_3D('',#585,#477,#478);
#397=AXIS2_PLACEMENT_3D('',#586,#479,#480);
#398=AXIS2_PLACEMENT_3D('',#589,#481,#482);
#399=AXIS2_PLACEMENT_3D('',#594,#486,#487);
#400=AXIS2_PLACEMENT_3D('',#597,#490,#491);
#401=AXIS2_PLACEMENT_3D('',#603,#496,#497);
#402=AXIS2_PLACEMENT_3D('',#604,#498,#499);
#403=AXIS2_PLACEMENT_3D('',#605,#500,#501);
#404=AXIS2_PLACEMENT_3D('',#606,#502,#503);
#405=AXIS2_PLACEMENT_3D('',#607,#504,#505);
#406=AXIS2_PLACEMENT_3D('',#608,#506,#507);
#407=DIRECTION('axis',(0.,0.,1.));
#408=DIRECTION('refdir',(1.,0.,0.));
#409=DIRECTION('center_axis',(-6.24177004017725E-16,1.,0.));
#410=DIRECTION('ref_axis',(-1.,-6.24177004017725E-16,0.));
#411=DIRECTION('center_axis',(-6.24177004017725E-16,1.,0.));
#412=DIRECTION('ref_axis',(1.,6.24177004017725E-16,0.));
#413=DIRECTION('center_axis',(-6.24177004017725E-16,1.,0.));
#414=DIRECTION('ref_axis',(1.,6.24177004017725E-16,0.));
#415=DIRECTION('',(0.707106781186549,0.707106781186546,-8.65956056235496E-17));
#416=DIRECTION('center_axis',(6.24177004017724E-16,-1.,0.));
#417=DIRECTION('ref_axis',(1.,6.24177004017724E-16,0.));
#418=DIRECTION('center_axis',(6.24177004017724E-16,-1.,0.));
#419=DIRECTION('ref_axis',(1.,6.24177004017724E-16,0.));
#420=DIRECTION('center_axis',(6.24177004017724E-16,-1.,0.));
#421=DIRECTION('ref_axis',(1.,6.24177004017724E-16,0.));
#422=DIRECTION('center_axis',(6.24177004017724E-16,-1.,0.));
#423=DIRECTION('ref_axis',(-1.,-6.24177004017724E-16,0.));
#424=DIRECTION('center_axis',(6.24177004017724E-16,-1.,0.));
#425=DIRECTION('ref_axis',(-1.,-6.24177004017724E-16,0.));
#426=DIRECTION('',(-0.707106781186546,-0.707106781186549,-8.65956056235492E-17));
#427=DIRECTION('center_axis',(0.,1.,0.));
#428=DIRECTION('ref_axis',(0.,0.,1.));
#429=DIRECTION('center_axis',(0.,1.,0.));
#430=DIRECTION('ref_axis',(0.,0.,1.));
#431=DIRECTION('center_axis',(-6.24177004017724E-16,1.,0.));
#432=DIRECTION('ref_axis',(-1.,-6.24177004017724E-16,0.));
#433=DIRECTION('',(-6.24177004017724E-16,1.,0.));
#434=DIRECTION('center_axis',(-1.,0.,0.));
#435=DIRECTION('ref_axis',(0.,0.,1.));
#436=DIRECTION('',(0.,0.,-1.));
#437=DIRECTION('',(-6.24177004017724E-16,1.,0.));
#438=DIRECTION('',(0.,0.,-1.));
#439=DIRECTION('',(0.,1.,0.));
#440=DIRECTION('center_axis',(6.24177004017724E-16,-1.,0.));
#441=DIRECTION('ref_axis',(1.,6.24177004017724E-16,0.));
#442=DIRECTION('center_axis',(6.74204042301719E-16,-1.,9.86076131526265E-32));
#443=DIRECTION('ref_axis',(-1.,-6.74204042301719E-16,9.46267090725813E-48));
#444=DIRECTION('',(-1.,-6.24177004017724E-16,0.));
#445=DIRECTION('',(0.,0.,-1.));
#446=DIRECTION('',(-1.,-6.24177004017724E-16,0.));
#447=DIRECTION('center_axis',(-1.,0.,0.));
#448=DIRECTION('ref_axis',(0.,0.,1.));
#449=DIRECTION('',(0.,1.,0.));
#450=DIRECTION('',(0.,0.,-1.));
#451=DIRECTION('',(0.,1.,0.));
#452=DIRECTION('center_axis',(1.15648231731787E-15,-1.,0.));
#453=DIRECTION('ref_axis',(1.,1.15648231731787E-15,0.));
#454=DIRECTION('',(0.,0.,-1.));
#455=DIRECTION('',(0.707106781186546,8.17756488897798E-16,0.707106781186549));
#456=DIRECTION('',(-1.,-1.15648231731787E-15,0.));
#457=DIRECTION('',(-1.,-1.15648231731787E-15,0.));
#458=DIRECTION('',(-0.707106781186548,-8.177564888978E-16,0.707106781186547));
#459=DIRECTION('center_axis',(1.,0.,0.));
#460=DIRECTION('ref_axis',(0.,0.,-1.));
#461=DIRECTION('',(0.,0.,-1.));
#462=DIRECTION('',(0.,1.,0.));
#463=DIRECTION('',(0.,-1.,0.));
#464=DIRECTION('center_axis',(0.,1.,0.));
#465=DIRECTION('ref_axis',(0.,0.,1.));
#466=DIRECTION('',(1.,0.,0.));
#467=DIRECTION('',(-0.707106781186546,0.,-0.707106781186549));
#468=DIRECTION('',(0.707106781186548,0.,-0.707106781186547));
#469=DIRECTION('',(1.,0.,0.));
#470=DIRECTION('center_axis',(0.,-1.,0.));
#471=DIRECTION('ref_axis',(-3.37507799486048E-14,0.,1.));
#472=DIRECTION('',(0.,0.,-1.));
#473=DIRECTION('center_axis',(0.,-1.,0.));
#474=DIRECTION('ref_axis',(-1.06581410364015E-14,0.,1.));
#475=DIRECTION('center_axis',(-0.707106781186551,0.707106781186544,0.));
#476=DIRECTION('ref_axis',(-0.707106781186544,-0.707106781186551,0.));
#477=DIRECTION('center_axis',(0.707106781186552,-0.707106781186543,0.));
#478=DIRECTION('ref_axis',(0.707106781186543,0.707106781186552,1.17514459953368E-15));
#479=DIRECTION('center_axis',(0.258819045102526,0.965925826289067,0.));
#480=DIRECTION('ref_axis',(-0.965925826289067,0.258819045102526,0.));
#481=DIRECTION('center_axis',(-0.258819045102526,-0.965925826289067,0.));
#482=DIRECTION('ref_axis',(0.965925826289067,-0.258819045102526,4.28035462561958E-14));
#483=DIRECTION('',(0.965925826289067,-0.258819045102526,0.));
#484=DIRECTION('',(6.15486045509451E-47,-9.86076131526265E-32,-1.));
#485=DIRECTION('',(0.965925826289067,-0.258819045102526,0.));
#486=DIRECTION('center_axis',(0.,0.,1.));
#487=DIRECTION('ref_axis',(1.,0.,0.));
#488=DIRECTION('',(0.,-1.,0.));
#489=DIRECTION('',(-6.24177004017724E-16,1.,0.));
#490=DIRECTION('center_axis',(0.,0.,1.));
#491=DIRECTION('ref_axis',(1.,0.,0.));
#492=DIRECTION('',(0.,1.,0.));
#493=DIRECTION('',(-6.24177004017724E-16,1.,0.));
#494=DIRECTION('',(-1.,-6.74204042301719E-16,0.));
#495=DIRECTION('',(6.24177004017724E-16,-1.,0.));
#496=DIRECTION('center_axis',(-6.24177004017724E-16,1.,0.));
#497=DIRECTION('ref_axis',(1.,6.24177004017724E-16,1.22464679914735E-16));
#498=DIRECTION('center_axis',(-6.24177004017724E-16,1.,0.));
#499=DIRECTION('ref_axis',(0.712022177498815,4.44427869545387E-16,-0.702156975860701));
#500=DIRECTION('center_axis',(6.74204042301719E-16,-1.,9.86076131526265E-32));
#501=DIRECTION('ref_axis',(-1.,-6.74204042301719E-16,8.67361737988403E-16));
#502=DIRECTION('center_axis',(-6.74204042301719E-16,1.,-9.86076131526265E-32));
#503=DIRECTION('ref_axis',(-1.,-6.74204042301719E-16,0.));
#504=DIRECTION('center_axis',(-0.707106781186549,0.,0.707106781186546));
#505=DIRECTION('ref_axis',(0.707106781186546,0.,0.707106781186549));
#506=DIRECTION('center_axis',(0.707106781186547,0.,0.707106781186548));
#507=DIRECTION('ref_axis',(0.707106781186548,0.,-0.707106781186547));
#508=CARTESIAN_POINT('',(0.,0.,0.));
#509=CARTESIAN_POINT('Origin',(-6.74111164339143E-15,10.8,6.));
#510=CARTESIAN_POINT('',(-3.25000000000001,10.8,6.));
#511=CARTESIAN_POINT('',(3.24999999999999,10.8,6.));
#512=CARTESIAN_POINT('Origin',(-6.74111164339143E-15,10.8,6.));
#513=CARTESIAN_POINT('Origin',(-6.74111164339143E-15,10.8,6.));
#514=CARTESIAN_POINT('',(3.74999999999999,11.3,6.));
#515=CARTESIAN_POINT('',(3.24999999999999,10.8,6.));
#516=CARTESIAN_POINT('',(-3.75,11.3,6.));
#517=CARTESIAN_POINT('Origin',(-7.05320014540028E-15,11.3,6.));
#518=CARTESIAN_POINT('Origin',(-7.05320014540028E-15,11.3,6.));
#519=CARTESIAN_POINT('Origin',(0.,0.,6.));
#520=CARTESIAN_POINT('',(3.25,0.500000000000003,6.));
#521=CARTESIAN_POINT('',(-3.25,0.499999999999999,6.));
#522=CARTESIAN_POINT('Origin',(-3.12088502008863E-16,0.500000000000001,
6.));
#523=CARTESIAN_POINT('Origin',(-3.12088502008863E-16,0.500000000000001,
6.));
#524=CARTESIAN_POINT('',(-3.75,-3.81156919349373E-15,6.));
#525=CARTESIAN_POINT('',(-3.75,-2.34066376506647E-15,6.));
#526=CARTESIAN_POINT('',(3.75,0.,6.));
#527=CARTESIAN_POINT('Origin',(0.,0.,6.));
#528=CARTESIAN_POINT('Origin',(0.,0.,6.));
#529=CARTESIAN_POINT('Origin',(4.36923902812408E-16,-0.700000000000001,
6.));
#530=CARTESIAN_POINT('',(3.25,-0.699999999999999,6.));
#531=CARTESIAN_POINT('Origin',(5.91686886771335,-11.2769280962771,12.));
#532=CARTESIAN_POINT('',(5.91686886771335,5.5,12.));
#533=CARTESIAN_POINT('',(5.91686886774254,5.5,5.9999990868083));
#534=CARTESIAN_POINT('',(5.91686886771335,5.5,12.));
#535=CARTESIAN_POINT('',(5.91686886771335,11.3,6.));
#536=CARTESIAN_POINT('',(5.91686886771335,5.5,6.));
#537=CARTESIAN_POINT('',(5.91686886771335,11.3,12.));
#538=CARTESIAN_POINT('',(5.91686886771335,11.3,12.));
#539=CARTESIAN_POINT('',(5.91686886771335,-11.2769280962771,12.));
#540=CARTESIAN_POINT('Origin',(1.09999999999999,11.3,12.));
#541=CARTESIAN_POINT('',(-6.93889390390723E-15,11.3,0.));
#542=CARTESIAN_POINT('Origin',(-0.0831311046457568,11.3,5.99942407397913));
#543=CARTESIAN_POINT('',(-5.2,11.3,0.));
#544=CARTESIAN_POINT('',(1.09999999999999,11.3,0.));
#545=CARTESIAN_POINT('',(-5.2,11.3,12.));
#546=CARTESIAN_POINT('',(-5.2,11.3,12.));
#547=CARTESIAN_POINT('',(1.09999999999999,11.3,12.));
#548=CARTESIAN_POINT('Origin',(-5.2,-11.2769280962771,12.));
#549=CARTESIAN_POINT('',(-5.2,13.3,0.));
#550=CARTESIAN_POINT('',(-5.2,-11.2769280962771,0.));
#551=CARTESIAN_POINT('',(-5.2,13.3,12.));
#552=CARTESIAN_POINT('',(-5.2,13.3,12.));
#553=CARTESIAN_POINT('',(-5.2,-11.2769280962771,12.));
#554=CARTESIAN_POINT('Origin',(1.09999999999997,13.3,12.));
#555=CARTESIAN_POINT('',(-8.2,13.3,10.25));
#556=CARTESIAN_POINT('',(-8.2,13.3,1.75));
#557=CARTESIAN_POINT('',(-8.2,13.3,12.));
#558=CARTESIAN_POINT('',(-6.45,13.3,12.));
#559=CARTESIAN_POINT('',(-6.45000000000002,13.3,12.));
#560=CARTESIAN_POINT('',(1.09999999999997,13.3,12.));
#561=CARTESIAN_POINT('',(-6.45,13.3,1.0842021724855E-16));
#562=CARTESIAN_POINT('',(1.09999999999997,13.3,0.));
#563=CARTESIAN_POINT('',(-8.20000000000002,13.3,1.75000000000001));
#564=CARTESIAN_POINT('Origin',(-8.2,-11.2769280962771,12.));
#565=CARTESIAN_POINT('',(-8.2,0.,10.25));
#566=CARTESIAN_POINT('',(-8.2,0.,1.75));
#567=CARTESIAN_POINT('',(-8.2,0.,12.));
#568=CARTESIAN_POINT('',(-8.2,13.3,10.25));
#569=CARTESIAN_POINT('',(-8.2,-11.2769280962771,1.75));
#570=CARTESIAN_POINT('Origin',(1.1,0.,12.));
#571=CARTESIAN_POINT('',(-6.45,0.,12.));
#572=CARTESIAN_POINT('',(8.49470423263812,0.,12.));
#573=CARTESIAN_POINT('',(1.1,0.,12.));
#574=CARTESIAN_POINT('',(-6.45,0.,12.));
#575=CARTESIAN_POINT('',(-6.45,0.,0.));
#576=CARTESIAN_POINT('',(-8.2,0.,1.75));
#577=CARTESIAN_POINT('',(8.49470423263812,0.,0.));
#578=CARTESIAN_POINT('',(1.1,0.,0.));
#579=CARTESIAN_POINT('',(8.8,0.,0.457437415779596));
#580=CARTESIAN_POINT('Origin',(-1.73472347597681E-14,0.,6.));
#581=CARTESIAN_POINT('',(8.8,0.,11.5425625842204));
#582=CARTESIAN_POINT('',(8.8,0.,12.));
#583=CARTESIAN_POINT('Origin',(-1.73472347597681E-14,0.,6.));
#584=CARTESIAN_POINT('Origin',(-0.688464048138497,-9.4884640481386,12.));
#585=CARTESIAN_POINT('Origin',(5.02931030155196E-13,-8.7999999999996,5.99999999999999));
#586=CARTESIAN_POINT('Origin',(5.61690105485696,5.5803761332102,12.));
#587=CARTESIAN_POINT('',(8.49470423263812,4.80927109574801,0.));
#588=CARTESIAN_POINT('',(8.49470423263812,4.80927109574801,12.));
#589=CARTESIAN_POINT('Origin',(6.21724893790088E-14,7.08542023482466,5.99999999999998));
#590=CARTESIAN_POINT('',(5.91686886771335,5.5,0.));
#591=CARTESIAN_POINT('',(5.61690105485696,5.5803761332102,0.));
#592=CARTESIAN_POINT('',(5.91686886771335,5.5,6.));
#593=CARTESIAN_POINT('',(5.61690105485696,5.5803761332102,12.));
#594=CARTESIAN_POINT('Origin',(1.1,-11.2769280962771,12.));
#595=CARTESIAN_POINT('',(-6.45,0.,12.));
#596=CARTESIAN_POINT('',(8.49470423263812,-0.699999999999996,12.));
#597=CARTESIAN_POINT('Origin',(1.1,-11.2769280962771,0.));
#598=CARTESIAN_POINT('',(-6.45,-11.2769280962771,0.));
#599=CARTESIAN_POINT('',(-3.31866728060443E-15,5.5,0.));
#600=CARTESIAN_POINT('',(-3.31866728060443E-15,5.5,0.));
#601=CARTESIAN_POINT('',(-12.5065394113826,5.49999999999999,0.));
#602=CARTESIAN_POINT('',(8.49470423263812,-0.699999999999996,0.));
#603=CARTESIAN_POINT('Origin',(-1.69103108569557E-14,-0.700000000000001,
6.));
#604=CARTESIAN_POINT('Origin',(-0.0831311046457531,5.5,5.99942407397913));
#605=CARTESIAN_POINT('Origin',(-0.0831311046457531,5.5,5.99942407397913));
#606=CARTESIAN_POINT('Origin',(-12.5065394113826,5.49999999999999,6.));
#607=CARTESIAN_POINT('Origin',(-6.45,-11.2769280962771,12.));
#608=CARTESIAN_POINT('Origin',(-8.2,-11.2769280962771,1.75));
#609=UNCERTAINTY_MEASURE_WITH_UNIT(LENGTH_MEASURE(0.01),#613,
'DISTANCE_ACCURACY_VALUE',
'Maximum model space distance between geometric entities at asserted c
onnectivities');
#610=UNCERTAINTY_MEASURE_WITH_UNIT(LENGTH_MEASURE(0.01),#613,
'DISTANCE_ACCURACY_VALUE',
'Maximum model space distance between geometric entities at asserted c
onnectivities');
#611=(
GEOMETRIC_REPRESENTATION_CONTEXT(3)
GLOBAL_UNCERTAINTY_ASSIGNED_CONTEXT((#609))
GLOBAL_UNIT_ASSIGNED_CONTEXT((#613,#616,#615))
REPRESENTATION_CONTEXT('','3D')
);
#612=(
GEOMETRIC_REPRESENTATION_CONTEXT(3)
GLOBAL_UNCERTAINTY_ASSIGNED_CONTEXT((#610))
GLOBAL_UNIT_ASSIGNED_CONTEXT((#613,#616,#615))
REPRESENTATION_CONTEXT('','3D')
);
#613=(
LENGTH_UNIT()
NAMED_UNIT(*)
SI_UNIT(.MILLI.,.METRE.)
);
#614=(
LENGTH_UNIT()
NAMED_UNIT(*)
SI_UNIT(.CENTI.,.METRE.)
);
#615=(
NAMED_UNIT(*)
SI_UNIT($,.STERADIAN.)
SOLID_ANGLE_UNIT()
);
#616=(
NAMED_UNIT(*)
PLANE_ANGLE_UNIT()
SI_UNIT($,.RADIAN.)
);
#617=SHAPE_DEFINITION_REPRESENTATION(#618,#619);
#618=PRODUCT_DEFINITION_SHAPE('',$,#621);
#619=SHAPE_REPRESENTATION('',(#374),#611);
#620=PRODUCT_DEFINITION_CONTEXT('part definition',#625,'design');
#621=PRODUCT_DEFINITION('FL-WALLKF','FL-WALLKF',#622,#620);
#622=PRODUCT_DEFINITION_FORMATION('',$,#627);
#623=PRODUCT_RELATED_PRODUCT_CATEGORY('FL-WALLKF','FL-WALLKF',(#627));
#624=APPLICATION_PROTOCOL_DEFINITION('international standard',
'automotive_design',2009,#625);
#625=APPLICATION_CONTEXT(
'Core Data for Automotive Mechanical Design Process');
#626=PRODUCT_CONTEXT('part definition',#625,'mechanical');
#627=PRODUCT('FL-WALLKF','FL-WALLKF',$,(#626));
#628=PRESENTATION_STYLE_ASSIGNMENT((#629));
#629=SURFACE_STYLE_USAGE(.BOTH.,#630);
#630=SURFACE_SIDE_STYLE('',(#631));
#631=SURFACE_STYLE_FILL_AREA(#632);
#632=FILL_AREA_STYLE('',(#633));
#633=FILL_AREA_STYLE_COLOUR('',#634);
#634=COLOUR_RGB('',0.749019607843137,0.749019607843137,0.749019607843137);
ENDSEC;
END-ISO-10303-21;
