ISO-10303-21;
HEADER;
FILE_DESCRIPTION (( 'STEP AP203' ),
    '1' );
FILE_NAME ('20011141.STEP',
    '2018-07-18T02:03:00',
    ( '' ),
    ( '' ),
    'SwSTEP 2.0',
    'SolidWorks 2014',
    '' );
FILE_SCHEMA (( 'CONFIG_CONTROL_DESIGN' ));
ENDSEC;

DATA;
#1 = APPROVAL ( #56, 'Î´Ö¸¶¨' ) ;
#2 = EDGE_LOOP ( 'NONE', ( #119, #187, #12, #214 ) ) ;
#3 = CC_DESIGN_DATE_AND_TIME_ASSIGNMENT ( #28, #198, ( #7 ) ) ;
#4 = LOCAL_TIME ( 10, 3, 0.0000000000000000000, #279 ) ;
#5 = CC_DESIGN_PERSON_AND_ORGANIZATION_ASSIGNMENT ( #103, #21, ( #7 ) ) ;
#6 = DIRECTION ( 'NONE',  ( 0.0000000000000000000, 0.0000000000000000000, 1.000000000000000000 ) ) ;
#7 = SECURITY_CLASSIFICATION ( '', '', #183 ) ;
#8 = DIRECTION ( 'NONE',  ( 0.0000000000000000000, 0.0000000000000000000, 1.000000000000000000 ) ) ;
#9 = CC_DESIGN_PERSON_AND_ORGANIZATION_ASSIGNMENT ( #244, #272, ( #32 ) ) ;
#10 = DIRECTION ( 'NONE',  ( 0.0000000000000000000, 0.0000000000000000000, 1.000000000000000000 ) ) ;
#11 = APPROVAL_DATE_TIME ( #13, #1 ) ;
#12 = ORIENTED_EDGE ( 'NONE', *, *, #207, .T. ) ;
#13 = DATE_AND_TIME ( #14, #19 ) ;
#14 = CALENDAR_DATE ( 2018, 18, 7 ) ;
#15 = CARTESIAN_POINT ( 'NONE',  ( 0.0000000000000000000, 6.582476545417023700E-015, -53.75000000000000000 ) ) ;
#16 = MECHANICAL_CONTEXT ( 'NONE', #270, 'mechanical' ) ;
#17 = CC_DESIGN_PERSON_AND_ORGANIZATION_ASSIGNMENT ( #37, #161, ( #32 ) ) ;
#18 = ORIENTED_EDGE ( 'NONE', *, *, #202, .T. ) ;
#19 = LOCAL_TIME ( 10, 3, 0.0000000000000000000, #22 ) ;
#20 = CC_DESIGN_APPROVAL ( #26, ( #32 ) ) ;
#21 = PERSON_AND_ORGANIZATION_ROLE ( 'classification_officer' ) ;
#22 = COORDINATED_UNIVERSAL_TIME_OFFSET ( 8, 0, .AHEAD. ) ;
#23 = APPROVAL_PERSON_ORGANIZATION ( #24, #1, #210 ) ;
#24 = PERSON_AND_ORGANIZATION ( #236, #101 ) ;
#25 = CARTESIAN_POINT ( 'NONE',  ( 0.0000000000000000000, 0.0000000000000000000, 0.0000000000000000000 ) ) ;
#26 = APPROVAL ( #128, 'Î´Ö¸¶¨' ) ;
#27 = DIRECTION ( 'NONE',  ( 0.0000000000000000000, 0.0000000000000000000, 1.000000000000000000 ) ) ;
#28 = DATE_AND_TIME ( #29, #30 ) ;
#29 = CALENDAR_DATE ( 2018, 18, 7 ) ;
#30 = LOCAL_TIME ( 10, 3, 0.0000000000000000000, #33 ) ;
#31 = ORIENTED_EDGE ( 'NONE', *, *, #280, .F. ) ;
#32 = PRODUCT_DEFINITION_FORMATION_WITH_SPECIFIED_SOURCE ( 'ÈÎºÎ', '', #170, .NOT_KNOWN. ) ;
#33 = COORDINATED_UNIVERSAL_TIME_OFFSET ( 8, 0, .AHEAD. ) ;
#34 = CC_DESIGN_DATE_AND_TIME_ASSIGNMENT ( #72, #235, ( #42 ) ) ;
#35 = CC_DESIGN_PERSON_AND_ORGANIZATION_ASSIGNMENT ( #171, #107, ( #42 ) ) ;
#36 = CC_DESIGN_APPROVAL ( #40, ( #42 ) ) ;
#37 = PERSON_AND_ORGANIZATION ( #236, #101 ) ;
#38 = APPROVAL_DATE_TIME ( #39, #26 ) ;
#39 = DATE_AND_TIME ( #41, #52 ) ;
#40 = APPROVAL ( #78, 'Î´Ö¸¶¨' ) ;
#41 = CALENDAR_DATE ( 2018, 18, 7 ) ;
#42 = PRODUCT_DEFINITION ( 'Î´Öª', '', #32, #67 ) ;
#43 = CC_DESIGN_PERSON_AND_ORGANIZATION_ASSIGNMENT ( #100, #197, ( #170 ) ) ;
#44 = DIRECTION ( 'NONE',  ( -1.000000000000000000, -0.0000000000000000000, -0.0000000000000000000 ) ) ;
#45 = CIRCLE ( 'NONE', #110, 1.500000000000000400 ) ;
#46 = DIRECTION ( 'NONE',  ( -1.000000000000000000, -0.0000000000000000000, -0.0000000000000000000 ) ) ;
#47 = CARTESIAN_POINT ( 'NONE',  ( 0.0000000000000000000, 0.0000000000000000000, 0.0000000000000000000 ) ) ;
#48 = CARTESIAN_POINT ( 'NONE',  ( 0.0000000000000000000, 0.0000000000000000000, 0.0000000000000000000 ) ) ;
#49 = AXIS2_PLACEMENT_3D ( 'NONE', #48, #158, #182 ) ;
#50 = VERTEX_POINT ( 'NONE', #15 ) ;
#51 = CARTESIAN_POINT ( 'NONE',  ( 0.0000000000000000000, 55.21634319280506300, -1.928197192812385800 ) ) ;
#52 = LOCAL_TIME ( 10, 3, 0.0000000000000000000, #55 ) ;
#53 = APPLICATION_CONTEXT ( 'configuration controlled 3d designs of mechanical parts and assemblies' ) ;
#54 = CARTESIAN_POINT ( 'NONE',  ( 0.0000000000000000000, 6.766173565289127200E-015, -55.25000000000000000 ) ) ;
#55 = COORDINATED_UNIVERSAL_TIME_OFFSET ( 8, 0, .AHEAD. ) ;
#56 = APPROVAL_STATUS ( 'not_yet_approved' ) ;
#57 = APPROVAL_PERSON_ORGANIZATION ( #63, #26, #254 ) ;
#58 =( GEOMETRIC_REPRESENTATION_CONTEXT ( 3 ) GLOBAL_UNCERTAINTY_ASSIGNED_CONTEXT ( ( #239 ) ) GLOBAL_UNIT_ASSIGNED_CONTEXT ( ( #222, #106, #234 ) ) REPRESENTATION_CONTEXT ( 'NONE', 'WORKASPACE' ) );
#59 = CIRCLE ( 'NONE', #122, 53.75000000000000000 ) ;
#60 = EDGE_CURVE ( 'NONE', #201, #50, #242, .T. ) ;
#61 = AXIS2_PLACEMENT_3D ( 'NONE', #73, #46, #249 ) ;
#62 = AXIS2_PLACEMENT_3D ( 'NONE', #51, #206, #77 ) ;
#63 = PERSON_AND_ORGANIZATION ( #236, #101 ) ;
#64 = AXIS2_PLACEMENT_3D ( 'NONE', #71, #104, #176 ) ;
#65 = AXIS2_PLACEMENT_3D ( 'NONE', #105, #233, #124 ) ;
#66 = AXIS2_PLACEMENT_3D ( 'NONE', #277, #10, #190 ) ;
#67 = DESIGN_CONTEXT ( 'detailed design', #53, 'design' ) ;
#68 = AXIS2_PLACEMENT_3D ( 'NONE', #248, #155, #266 ) ;
#69 = ADVANCED_FACE ( 'NONE', ( #169 ), #269, .T. ) ;
#70 = AXIS2_PLACEMENT_3D ( 'NONE', #132, #152, #265 ) ;
#71 = CARTESIAN_POINT ( 'NONE',  ( 0.0000000000000000000, 0.0000000000000000000, 0.0000000000000000000 ) ) ;
#72 = DATE_AND_TIME ( #74, #4 ) ;
#73 = CARTESIAN_POINT ( 'NONE',  ( 0.0000000000000000000, 0.0000000000000000000, 0.0000000000000000000 ) ) ;
#74 = CALENDAR_DATE ( 2018, 18, 7 ) ;
#75 = AXIS2_PLACEMENT_3D ( 'NONE', #25, #189, #245 ) ;
#76 = ORIENTED_EDGE ( 'NONE', *, *, #260, .T. ) ;
#77 = DIRECTION ( 'NONE',  ( 1.000000000000000000, 0.0000000000000000000, 0.0000000000000000000 ) ) ;
#78 = APPROVAL_STATUS ( 'not_yet_approved' ) ;
#79 = TOROIDAL_SURFACE ( 'NONE', #117, 55.25000000000000000, 1.500000000000000400 ) ;
#80 = ORIENTED_EDGE ( 'NONE', *, *, #280, .T. ) ;
#81 = EDGE_LOOP ( 'NONE', ( #204, #184, #76, #168 ) ) ;
#82 = PLANE ( 'NONE',  #66 ) ;
#83 = AXIS2_PLACEMENT_3D ( 'NONE', #255, #212, #199 ) ;
#84 = APPROVAL_DATE_TIME ( #86, #40 ) ;
#85 = DIRECTION ( 'NONE',  ( 0.0000000000000000000, 0.0000000000000000000, -1.000000000000000000 ) ) ;
#86 = DATE_AND_TIME ( #90, #91 ) ;
#87 = AXIS2_PLACEMENT_3D ( 'NONE', #111, #108, #85 ) ;
#88 = MANIFOLD_SOLID_BREP ( 'Ðý×ª1', #154 ) ;
#89 = AXIS2_PLACEMENT_3D ( 'NONE', #238, #227, #213 ) ;
#90 = CALENDAR_DATE ( 2018, 18, 7 ) ;
#91 = LOCAL_TIME ( 10, 3, 0.0000000000000000000, #96 ) ;
#92 = FACE_OUTER_BOUND ( 'NONE', #252, .T. ) ;
#93 = AXIS2_PLACEMENT_3D ( 'NONE', #240, #27, #278 ) ;
#94 = ADVANCED_BREP_SHAPE_REPRESENTATION ( '20011141', ( #88, #49 ), #58 ) ;
#95 = AXIS2_PLACEMENT_3D ( 'NONE', #185, #131, #109 ) ;
#96 = COORDINATED_UNIVERSAL_TIME_OFFSET ( 8, 0, .AHEAD. ) ;
#97 = APPROVAL_PERSON_ORGANIZATION ( #99, #40, #224 ) ;
#98 = VERTEX_POINT ( 'NONE', #194 ) ;
#99 = PERSON_AND_ORGANIZATION ( #236, #101 ) ;
#100 = PERSON_AND_ORGANIZATION ( #236, #101 ) ;
#101 = ORGANIZATION ( 'Î´Ö¸¶¨', 'Î´Ö¸¶¨', '' ) ;
#102 = DIRECTION ( 'NONE',  ( 1.000000000000000000, 0.0000000000000000000, 0.0000000000000000000 ) ) ;
#103 = PERSON_AND_ORGANIZATION ( #236, #101 ) ;
#104 = DIRECTION ( 'NONE',  ( -1.000000000000000000, -0.0000000000000000000, -0.0000000000000000000 ) ) ;
#105 = CARTESIAN_POINT ( 'NONE',  ( 0.0000000000000000000, 0.0000000000000000000, 55.25000000000000000 ) ) ;
#106 =( NAMED_UNIT ( * ) PLANE_ANGLE_UNIT ( ) SI_UNIT ( $, .RADIAN. ) );
#107 = PERSON_AND_ORGANIZATION_ROLE ( 'creator' ) ;
#108 = DIRECTION ( 'NONE',  ( 0.0000000000000000000, -1.000000000000000000, 0.0000000000000000000 ) ) ;
#109 = DIRECTION ( 'NONE',  ( 0.0000000000000000000, 0.0000000000000000000, 1.000000000000000000 ) ) ;
#110 = AXIS2_PLACEMENT_3D ( 'NONE', #177, #274, #256 ) ;
#111 = CARTESIAN_POINT ( 'NONE',  ( 0.0000000000000000000, 0.0000000000000000000, 55.25000000000000000 ) ) ;
#112 = AXIS2_PLACEMENT_3D ( 'NONE', #273, #178, #127 ) ;
#113 = AXIS2_PLACEMENT_3D ( 'NONE', #47, #44, #8 ) ;
#114 = VERTEX_POINT ( 'NONE', #232 ) ;
#115 = FACE_OUTER_BOUND ( 'NONE', #228, .T. ) ;
#116 = VERTEX_POINT ( 'NONE', #203 ) ;
#117 = AXIS2_PLACEMENT_3D ( 'NONE', #153, #250, #253 ) ;
#118 = SHAPE_DEFINITION_REPRESENTATION ( #144, #94 ) ;
#119 = ORIENTED_EDGE ( 'NONE', *, *, #218, .F. ) ;
#120 = DIRECTION ( 'NONE',  ( 0.0000000000000000000, 0.0000000000000000000, 1.000000000000000000 ) ) ;
#121 = CIRCLE ( 'NONE', #62, 1.500000000000000400 ) ;
#122 = AXIS2_PLACEMENT_3D ( 'NONE', #225, #191, #173 ) ;
#123 = ADVANCED_FACE ( 'NONE', ( #92 ), #200, .T. ) ;
#124 = DIRECTION ( 'NONE',  ( 0.0000000000000000000, 0.0000000000000000000, -1.000000000000000000 ) ) ;
#125 = EDGE_CURVE ( 'NONE', #116, #201, #220, .T. ) ;
#126 = AXIS2_PLACEMENT_3D ( 'NONE', #263, #223, #6 ) ;
#127 = DIRECTION ( 'NONE',  ( 0.0000000000000000000, -1.224646799147354400E-016, 1.000000000000000000 ) ) ;
#128 = APPROVAL_STATUS ( 'not_yet_approved' ) ;
#129 = CARTESIAN_POINT ( 'NONE',  ( 0.0000000000000000000, 56.75000000000000000, 0.0000000000000000000 ) ) ;
#130 = TOROIDAL_SURFACE ( 'NONE', #61, 55.25000000000000000, 1.500000000000000400 ) ;
#131 = DIRECTION ( 'NONE',  ( -1.000000000000000000, -0.0000000000000000000, -0.0000000000000000000 ) ) ;
#132 = CARTESIAN_POINT ( 'NONE',  ( 0.0000000000000000000, 0.0000000000000000000, 0.0000000000000000000 ) ) ;
#133 = ADVANCED_FACE ( 'NONE', ( #115 ), #79, .T. ) ;
#134 = FACE_OUTER_BOUND ( 'NONE', #192, .T. ) ;
#135 = CIRCLE ( 'NONE', #68, 53.75000000000000000 ) ;
#136 = PRODUCT_RELATED_PRODUCT_CATEGORY ( 'detail', '', ( #170 ) ) ;
#137 = CIRCLE ( 'NONE', #65, 1.500000000000001300 ) ;
#138 = TOROIDAL_SURFACE ( 'NONE', #64, 55.25000000000000000, 1.500000000000000400 ) ;
#139 = FACE_OUTER_BOUND ( 'NONE', #81, .T. ) ;
#140 = CC_DESIGN_SECURITY_CLASSIFICATION ( #7, ( #32 ) ) ;
#141 = AXIS2_PLACEMENT_3D ( 'NONE', #231, #160, #102 ) ;
#142 = ORIENTED_EDGE ( 'NONE', *, *, #186, .T. ) ;
#143 = CIRCLE ( 'NONE', #70, 56.75000000000000000 ) ;
#144 = PRODUCT_DEFINITION_SHAPE ( 'NONE', 'NONE',  #42 ) ;
#145 = FACE_OUTER_BOUND ( 'NONE', #180, .T. ) ;
#146 = CIRCLE ( 'NONE', #87, 1.500000000000001300 ) ;
#147 = FACE_OUTER_BOUND ( 'NONE', #211, .T. ) ;
#148 = AXIS2_PLACEMENT_3D ( 'NONE', #221, #159, #120 ) ;
#149 = TOROIDAL_SURFACE ( 'NONE', #83, 55.25000000000000000, 1.500000000000000400 ) ;
#150 = ORIENTED_EDGE ( 'NONE', *, *, #260, .F. ) ;
#151 = DIRECTION ( 'NONE',  ( -0.0000000000000000000, 1.000000000000000000, 1.224646799147353200E-016 ) ) ;
#152 = DIRECTION ( 'NONE',  ( -1.000000000000000000, -0.0000000000000000000, -0.0000000000000000000 ) ) ;
#153 = CARTESIAN_POINT ( 'NONE',  ( 0.0000000000000000000, 0.0000000000000000000, 0.0000000000000000000 ) ) ;
#154 = CLOSED_SHELL ( 'NONE', ( #164, #276, #216, #123, #264, #133, #69, #257 ) ) ;
#155 = DIRECTION ( 'NONE',  ( -1.000000000000000000, -0.0000000000000000000, -0.0000000000000000000 ) ) ;
#156 = DIRECTION ( 'NONE',  ( 0.0000000000000000000, -1.224646799147354400E-016, 1.000000000000000000 ) ) ;
#157 = CIRCLE ( 'NONE', #75, 56.75000000000000000 ) ;
#158 = DIRECTION ( 'NONE',  ( 0.0000000000000000000, 0.0000000000000000000, 1.000000000000000000 ) ) ;
#159 = DIRECTION ( 'NONE',  ( -1.000000000000000000, -0.0000000000000000000, -0.0000000000000000000 ) ) ;
#160 = DIRECTION ( 'NONE',  ( -0.0000000000000000000, 0.03489949670248662600, 0.9993908270190963200 ) ) ;
#161 = PERSON_AND_ORGANIZATION_ROLE ( 'creator' ) ;
#162 = ORIENTED_EDGE ( 'NONE', *, *, #60, .F. ) ;
#163 = CIRCLE ( 'NONE', #93, 1.500000000000000400 ) ;
#164 = ADVANCED_FACE ( 'NONE', ( #195 ), #174, .T. ) ;
#165 = CIRCLE ( 'NONE', #89, 1.500000000000000400 ) ;
#166 = CIRCLE ( 'NONE', #95, 53.75000000000000000 ) ;
#167 = ORIENTED_EDGE ( 'NONE', *, *, #196, .F. ) ;
#168 = ORIENTED_EDGE ( 'NONE', *, *, #275, .T. ) ;
#169 = FACE_OUTER_BOUND ( 'NONE', #281, .T. ) ;
#170 = PRODUCT ( '20011141', '20011141', '', ( #16 ) ) ;
#171 = PERSON_AND_ORGANIZATION ( #236, #101 ) ;
#172 = CIRCLE ( 'NONE', #112, 1.500000000000001300 ) ;
#173 = DIRECTION ( 'NONE',  ( 0.0000000000000000000, 0.0000000000000000000, 1.000000000000000000 ) ) ;
#174 = TOROIDAL_SURFACE ( 'NONE', #113, 55.25000000000000000, 1.500000000000000400 ) ;
#175 = CARTESIAN_POINT ( 'NONE',  ( 1.836970198721029400E-016, 53.75000000000000000, 0.0000000000000000000 ) ) ;
#176 = DIRECTION ( 'NONE',  ( 0.0000000000000000000, 0.0000000000000000000, 1.000000000000000000 ) ) ;
#177 = CARTESIAN_POINT ( 'NONE',  ( 0.0000000000000000000, 55.21634319280506300, -1.928197192812385800 ) ) ;
#178 = DIRECTION ( 'NONE',  ( -0.0000000000000000000, 1.000000000000000000, 1.224646799147353200E-016 ) ) ;
#179 = AXIS2_PLACEMENT_3D ( 'NONE', #54, #151, #156 ) ;
#180 = EDGE_LOOP ( 'NONE', ( #229, #226 ) ) ;
#181 = ORIENTED_EDGE ( 'NONE', *, *, #243, .T. ) ;
#182 = DIRECTION ( 'NONE',  ( 1.000000000000000000, 0.0000000000000000000, 0.0000000000000000000 ) ) ;
#183 = SECURITY_CLASSIFICATION_LEVEL ( 'unclassified' ) ;
#184 = ORIENTED_EDGE ( 'NONE', *, *, #188, .F. ) ;
#185 = CARTESIAN_POINT ( 'NONE',  ( 1.836970198721030400E-016, 0.0000000000000000000, 0.0000000000000000000 ) ) ;
#186 = EDGE_CURVE ( 'NONE', #268, #50, #59, .T. ) ;
#187 = ORIENTED_EDGE ( 'NONE', *, *, #241, .T. ) ;
#188 = EDGE_CURVE ( 'NONE', #50, #201, #172, .T. ) ;
#189 = DIRECTION ( 'NONE',  ( -1.000000000000000000, -0.0000000000000000000, -0.0000000000000000000 ) ) ;
#190 = DIRECTION ( 'NONE',  ( 1.000000000000000000, 0.0000000000000000000, -0.0000000000000000000 ) ) ;
#191 = DIRECTION ( 'NONE',  ( -1.000000000000000000, -0.0000000000000000000, -0.0000000000000000000 ) ) ;
#192 = EDGE_LOOP ( 'NONE', ( #162, #181, #215, #150 ) ) ;
#193 = CARTESIAN_POINT ( 'NONE',  ( 1.836970198721030400E-016, 53.71725695227642200, -1.875847947758656300 ) ) ;
#194 = CARTESIAN_POINT ( 'NONE',  ( 0.0000000000000000000, 0.0000000000000000000, 53.75000000000000000 ) ) ;
#195 = FACE_OUTER_BOUND ( 'NONE', #2, .T. ) ;
#196 = EDGE_CURVE ( 'NONE', #268, #116, #45, .T. ) ;
#197 = PERSON_AND_ORGANIZATION_ROLE ( 'design_owner' ) ;
#198 = DATE_TIME_ROLE ( 'classification_date' ) ;
#199 = DIRECTION ( 'NONE',  ( 0.0000000000000000000, 0.0000000000000000000, 1.000000000000000000 ) ) ;
#200 = TOROIDAL_SURFACE ( 'NONE', #126, 55.25000000000000000, 1.500000000000000400 ) ;
#201 = VERTEX_POINT ( 'NONE', #247 ) ;
#202 = EDGE_CURVE ( 'NONE', #98, #258, #166, .T. ) ;
#203 = CARTESIAN_POINT ( 'NONE',  ( 0.0000000000000000000, 56.71542943333371100, -1.980546437866116400 ) ) ;
#204 = ORIENTED_EDGE ( 'NONE', *, *, #243, .F. ) ;
#205 = EDGE_CURVE ( 'NONE', #258, #230, #163, .T. ) ;
#206 = DIRECTION ( 'NONE',  ( 0.0000000000000000000, 0.03489949670248662000, 0.9993908270190962100 ) ) ;
#207 = EDGE_CURVE ( 'NONE', #230, #258, #165, .T. ) ;
#208 = ORIENTED_EDGE ( 'NONE', *, *, #188, .T. ) ;
#209 = APPLICATION_PROTOCOL_DEFINITION ( 'international standard', 'config_control_design', 1994, #53 ) ;
#210 = APPROVAL_ROLE ( '' ) ;
#211 = EDGE_LOOP ( 'NONE', ( #31, #237, #267, #262 ) ) ;
#212 = DIRECTION ( 'NONE',  ( -1.000000000000000000, -0.0000000000000000000, -0.0000000000000000000 ) ) ;
#213 = DIRECTION ( 'NONE',  ( 1.000000000000000000, 0.0000000000000000000, 0.0000000000000000000 ) ) ;
#214 = ORIENTED_EDGE ( 'NONE', *, *, #202, .F. ) ;
#215 = ORIENTED_EDGE ( 'NONE', *, *, #218, .T. ) ;
#216 = ADVANCED_FACE ( 'NONE', ( #147 ), #149, .T. ) ;
#217 = ORIENTED_EDGE ( 'NONE', *, *, #275, .F. ) ;
#218 = EDGE_CURVE ( 'NONE', #114, #98, #146, .T. ) ;
#219 = ORIENTED_EDGE ( 'NONE', *, *, #241, .F. ) ;
#220 = CIRCLE ( 'NONE', #148, 56.75000000000000000 ) ;
#221 = CARTESIAN_POINT ( 'NONE',  ( 0.0000000000000000000, 0.0000000000000000000, 0.0000000000000000000 ) ) ;
#222 =( LENGTH_UNIT ( ) NAMED_UNIT ( * ) SI_UNIT ( .MILLI., .METRE. ) );
#223 = DIRECTION ( 'NONE',  ( -1.000000000000000000, -0.0000000000000000000, -0.0000000000000000000 ) ) ;
#224 = APPROVAL_ROLE ( '' ) ;
#225 = CARTESIAN_POINT ( 'NONE',  ( 1.836970198721030400E-016, 0.0000000000000000000, 0.0000000000000000000 ) ) ;
#226 = ORIENTED_EDGE ( 'NONE', *, *, #207, .F. ) ;
#227 = DIRECTION ( 'NONE',  ( 0.0000000000000000000, 0.0000000000000000000, 1.000000000000000000 ) ) ;
#228 = EDGE_LOOP ( 'NONE', ( #219, #217, #18, #246 ) ) ;
#229 = ORIENTED_EDGE ( 'NONE', *, *, #205, .F. ) ;
#230 = VERTEX_POINT ( 'NONE', #129 ) ;
#231 = CARTESIAN_POINT ( 'NONE',  ( 0.0000000000000000000, 55.21634319280506300, -1.928197192812385800 ) ) ;
#232 = CARTESIAN_POINT ( 'NONE',  ( 0.0000000000000000000, 0.0000000000000000000, 56.75000000000000000 ) ) ;
#233 = DIRECTION ( 'NONE',  ( 0.0000000000000000000, -1.000000000000000000, 0.0000000000000000000 ) ) ;
#234 =( NAMED_UNIT ( * ) SI_UNIT ( $, .STERADIAN. ) SOLID_ANGLE_UNIT ( ) );
#235 = DATE_TIME_ROLE ( 'creation_date' ) ;
#236 = PERSON ( 'Î´Ö¸¶¨', 'Î´Ö¸¶¨', 'Î´Ö¸¶¨', ('Î´Ö¸¶¨'), ('Î´Ö¸¶¨'), ('Î´Ö¸¶¨') ) ;
#237 = ORIENTED_EDGE ( 'NONE', *, *, #125, .T. ) ;
#238 = CARTESIAN_POINT ( 'NONE',  ( 0.0000000000000000000, 55.25000000000000000, 0.0000000000000000000 ) ) ;
#239 = UNCERTAINTY_MEASURE_WITH_UNIT (LENGTH_MEASURE( 1.000000000000000100E-005 ), #222, 'distance_accuracy_value', 'NONE');
#240 = CARTESIAN_POINT ( 'NONE',  ( 0.0000000000000000000, 55.25000000000000000, 0.0000000000000000000 ) ) ;
#241 = EDGE_CURVE ( 'NONE', #114, #230, #157, .T. ) ;
#242 = CIRCLE ( 'NONE', #179, 1.500000000000001300 ) ;
#243 = EDGE_CURVE ( 'NONE', #201, #114, #143, .T. ) ;
#244 = PERSON_AND_ORGANIZATION ( #236, #101 ) ;
#245 = DIRECTION ( 'NONE',  ( 0.0000000000000000000, 0.0000000000000000000, 1.000000000000000000 ) ) ;
#246 = ORIENTED_EDGE ( 'NONE', *, *, #205, .T. ) ;
#247 = CARTESIAN_POINT ( 'NONE',  ( 0.0000000000000000000, 6.949870585161229100E-015, -56.75000000000000000 ) ) ;
#248 = CARTESIAN_POINT ( 'NONE',  ( 1.836970198721030400E-016, 0.0000000000000000000, 0.0000000000000000000 ) ) ;
#249 = DIRECTION ( 'NONE',  ( 0.0000000000000000000, 0.0000000000000000000, 1.000000000000000000 ) ) ;
#250 = DIRECTION ( 'NONE',  ( -1.000000000000000000, -0.0000000000000000000, -0.0000000000000000000 ) ) ;
#251 = APPLICATION_PROTOCOL_DEFINITION ( 'international standard', 'config_control_design', 1994, #270 ) ;
#252 = EDGE_LOOP ( 'NONE', ( #261, #167, #142, #208 ) ) ;
#253 = DIRECTION ( 'NONE',  ( 0.0000000000000000000, 0.0000000000000000000, 1.000000000000000000 ) ) ;
#254 = APPROVAL_ROLE ( '' ) ;
#255 = CARTESIAN_POINT ( 'NONE',  ( 0.0000000000000000000, 0.0000000000000000000, 0.0000000000000000000 ) ) ;
#256 = DIRECTION ( 'NONE',  ( 1.000000000000000000, 0.0000000000000000000, 0.0000000000000000000 ) ) ;
#257 = ADVANCED_FACE ( 'NONE', ( #145 ), #82, .F. ) ;
#258 = VERTEX_POINT ( 'NONE', #175 ) ;
#259 = ORIENTED_EDGE ( 'NONE', *, *, #196, .T. ) ;
#260 = EDGE_CURVE ( 'NONE', #50, #98, #135, .T. ) ;
#261 = ORIENTED_EDGE ( 'NONE', *, *, #125, .F. ) ;
#262 = ORIENTED_EDGE ( 'NONE', *, *, #186, .F. ) ;
#263 = CARTESIAN_POINT ( 'NONE',  ( 0.0000000000000000000, 0.0000000000000000000, 0.0000000000000000000 ) ) ;
#264 = ADVANCED_FACE ( 'NONE', ( #139 ), #138, .T. ) ;
#265 = DIRECTION ( 'NONE',  ( 0.0000000000000000000, 0.0000000000000000000, 1.000000000000000000 ) ) ;
#266 = DIRECTION ( 'NONE',  ( 0.0000000000000000000, 0.0000000000000000000, 1.000000000000000000 ) ) ;
#267 = ORIENTED_EDGE ( 'NONE', *, *, #60, .T. ) ;
#268 = VERTEX_POINT ( 'NONE', #193 ) ;
#269 = PLANE ( 'NONE',  #141 ) ;
#270 = APPLICATION_CONTEXT ( 'configuration controlled 3d designs of mechanical parts and assemblies' ) ;
#271 = CC_DESIGN_APPROVAL ( #1, ( #7 ) ) ;
#272 = PERSON_AND_ORGANIZATION_ROLE ( 'design_supplier' ) ;
#273 = CARTESIAN_POINT ( 'NONE',  ( 0.0000000000000000000, 6.766173565289127200E-015, -55.25000000000000000 ) ) ;
#274 = DIRECTION ( 'NONE',  ( 0.0000000000000000000, 0.03489949670248662000, 0.9993908270190962100 ) ) ;
#275 = EDGE_CURVE ( 'NONE', #98, #114, #137, .T. ) ;
#276 = ADVANCED_FACE ( 'NONE', ( #134 ), #130, .T. ) ;
#277 = CARTESIAN_POINT ( 'NONE',  ( 0.0000000000000000000, 55.25000000000000000, 0.0000000000000000000 ) ) ;
#278 = DIRECTION ( 'NONE',  ( 1.000000000000000000, 0.0000000000000000000, 0.0000000000000000000 ) ) ;
#279 = COORDINATED_UNIVERSAL_TIME_OFFSET ( 8, 0, .AHEAD. ) ;
#280 = EDGE_CURVE ( 'NONE', #116, #268, #121, .T. ) ;
#281 = EDGE_LOOP ( 'NONE', ( #259, #80 ) ) ;
ENDSEC;
END-ISO-10303-21;
