ISO-10303-21;
HEADER;
FILE_DESCRIPTION (( 'STEP AP203' ),
    '1' );
FILE_NAME ('20011041.STEP',
    '2018-07-18T02:02:39',
    ( '' ),
    ( '' ),
    'SwSTEP 2.0',
    'SolidWorks 2014',
    '' );
FILE_SCHEMA (( 'CONFIG_CONTROL_DESIGN' ));
ENDSEC;

DATA;
#1 = CC_DESIGN_PERSON_AND_ORGANIZATION_ASSIGNMENT ( #30, #177, ( #57 ) ) ;
#2 = CALENDAR_DATE ( 2018, 18, 7 ) ;
#3 = DIRECTION ( 'NONE',  ( 0.0000000000000000000, 0.0000000000000000000, 1.000000000000000000 ) ) ;
#4 = CC_DESIGN_DATE_AND_TIME_ASSIGNMENT ( #250, #105, ( #19 ) ) ;
#5 = CARTESIAN_POINT ( 'NONE',  ( 1.836970198721028200E-016, 46.25000000000000000, 0.0000000000000000000 ) ) ;
#6 = ADVANCED_FACE ( 'NONE', ( #231 ), #244, .T. ) ;
#7 = CC_DESIGN_APPROVAL ( #10, ( #19 ) ) ;
#8 = DIRECTION ( 'NONE',  ( -1.000000000000000000, -0.0000000000000000000, -0.0000000000000000000 ) ) ;
#9 = CC_DESIGN_PERSON_AND_ORGANIZATION_ASSIGNMENT ( #120, #227, ( #19 ) ) ;
#10 = APPROVAL ( #211, 'Î´Ö¸¶¨' ) ;
#11 = CARTESIAN_POINT ( 'NONE',  ( 0.0000000000000000000, 47.72091199016184500, -1.666450967543736200 ) ) ;
#12 = EDGE_LOOP ( 'NONE', ( #18, #276, #106, #271 ) ) ;
#13 = EDGE_LOOP ( 'NONE', ( #248, #85 ) ) ;
#14 = DIRECTION ( 'NONE',  ( 0.0000000000000000000, -1.000000000000000000, 0.0000000000000000000 ) ) ;
#15 = ORIENTED_EDGE ( 'NONE', *, *, #51, .T. ) ;
#16 = PERSON_AND_ORGANIZATION_ROLE ( 'design_owner' ) ;
#17 = PRODUCT_DEFINITION_FORMATION_WITH_SPECIFIED_SOURCE ( 'ÈÎºÎ', '', #173, .NOT_KNOWN. ) ;
#18 = ORIENTED_EDGE ( 'NONE', *, *, #40, .F. ) ;
#19 = PRODUCT_DEFINITION ( 'Î´Öª', '', #17, #58 ) ;
#20 = DATE_TIME_ROLE ( 'classification_date' ) ;
#21 = VERTEX_POINT ( 'NONE', #147 ) ;
#22 = EDGE_LOOP ( 'NONE', ( #264, #158, #116, #133 ) ) ;
#23 = FACE_OUTER_BOUND ( 'NONE', #22, .T. ) ;
#24 = DIRECTION ( 'NONE',  ( -1.000000000000000000, -0.0000000000000000000, -0.0000000000000000000 ) ) ;
#25 = APPROVAL ( #237, 'Î´Ö¸¶¨' ) ;
#26 = COORDINATED_UNIVERSAL_TIME_OFFSET ( 8, 0, .AHEAD. ) ;
#27 = ORIENTED_EDGE ( 'NONE', *, *, #34, .T. ) ;
#28 = CIRCLE ( 'NONE', #240, 1.500000000000000000 ) ;
#29 = AXIS2_PLACEMENT_3D ( 'NONE', #68, #93, #265 ) ;
#30 = PERSON_AND_ORGANIZATION ( #230, #232 ) ;
#31 =( GEOMETRIC_REPRESENTATION_CONTEXT ( 3 ) GLOBAL_UNCERTAINTY_ASSIGNED_CONTEXT ( ( #41 ) ) GLOBAL_UNIT_ASSIGNED_CONTEXT ( ( #78, #226, #104 ) ) REPRESENTATION_CONTEXT ( 'NONE', 'WORKASPACE' ) );
#32 = DIRECTION ( 'NONE',  ( 0.0000000000000000000, 0.0000000000000000000, 1.000000000000000000 ) ) ;
#33 = AXIS2_PLACEMENT_3D ( 'NONE', #74, #103, #236 ) ;
#34 = EDGE_CURVE ( 'NONE', #21, #89, #223, .T. ) ;
#35 = CALENDAR_DATE ( 2018, 18, 7 ) ;
#36 = ORIENTED_EDGE ( 'NONE', *, *, #118, .T. ) ;
#37 = CIRCLE ( 'NONE', #77, 49.25000000000000000 ) ;
#38 = AXIS2_PLACEMENT_3D ( 'NONE', #193, #48, #209 ) ;
#39 = ORIENTED_EDGE ( 'NONE', *, *, #184, .T. ) ;
#40 = EDGE_CURVE ( 'NONE', #97, #21, #115, .T. ) ;
#41 = UNCERTAINTY_MEASURE_WITH_UNIT (LENGTH_MEASURE( 1.000000000000000100E-005 ), #78, 'distance_accuracy_value', 'NONE');
#42 = AXIS2_PLACEMENT_3D ( 'NONE', #171, #14, #192 ) ;
#43 = DIRECTION ( 'NONE',  ( 1.000000000000000000, 0.0000000000000000000, 0.0000000000000000000 ) ) ;
#44 = ADVANCED_FACE ( 'NONE', ( #63 ), #163, .T. ) ;
#45 = DIRECTION ( 'NONE',  ( 0.0000000000000000000, 0.0000000000000000000, 1.000000000000000000 ) ) ;
#46 = AXIS2_PLACEMENT_3D ( 'NONE', #11, #190, #43 ) ;
#47 = AXIS2_PLACEMENT_3D ( 'NONE', #235, #123, #252 ) ;
#48 = DIRECTION ( 'NONE',  ( -0.0000000000000000000, 1.000000000000000000, 1.224646799147353200E-016 ) ) ;
#49 = EDGE_LOOP ( 'NONE', ( #39, #15 ) ) ;
#50 = APPLICATION_PROTOCOL_DEFINITION ( 'international standard', 'config_control_design', 1994, #195 ) ;
#51 = EDGE_CURVE ( 'NONE', #241, #189, #183, .T. ) ;
#52 = CLOSED_SHELL ( 'NONE', ( #216, #96, #60, #6, #83, #117, #44, #224 ) ) ;
#53 = APPROVAL_ROLE ( '' ) ;
#54 = DIRECTION ( 'NONE',  ( 0.0000000000000000000, 0.0000000000000000000, 1.000000000000000000 ) ) ;
#55 = APPROVAL_DATE_TIME ( #218, #10 ) ;
#56 = CARTESIAN_POINT ( 'NONE',  ( 1.836970198721029900E-016, 46.22182574963319700, -1.614101722490006300 ) ) ;
#57 = SECURITY_CLASSIFICATION ( '', '', #273 ) ;
#58 = DESIGN_CONTEXT ( 'detailed design', #195, 'design' ) ;
#59 = AXIS2_PLACEMENT_3D ( 'NONE', #255, #131, #70 ) ;
#60 = ADVANCED_FACE ( 'NONE', ( #111 ), #75, .T. ) ;
#61 = AXIS2_PLACEMENT_3D ( 'NONE', #277, #228, #257 ) ;
#62 = EDGE_CURVE ( 'NONE', #89, #21, #28, .T. ) ;
#63 = FACE_OUTER_BOUND ( 'NONE', #49, .T. ) ;
#64 = AXIS2_PLACEMENT_3D ( 'NONE', #107, #24, #54 ) ;
#65 = CARTESIAN_POINT ( 'NONE',  ( 0.0000000000000000000, 47.75000000000000000, 0.0000000000000000000 ) ) ;
#66 = EDGE_CURVE ( 'NONE', #166, #89, #238, .T. ) ;
#67 = AXIS2_PLACEMENT_3D ( 'NONE', #258, #128, #198 ) ;
#68 = CARTESIAN_POINT ( 'NONE',  ( 0.0000000000000000000, 0.0000000000000000000, 0.0000000000000000000 ) ) ;
#69 = AXIS2_PLACEMENT_3D ( 'NONE', #205, #243, #3 ) ;
#70 = DIRECTION ( 'NONE',  ( 0.0000000000000000000, 0.0000000000000000000, 1.000000000000000000 ) ) ;
#71 = CARTESIAN_POINT ( 'NONE',  ( 0.0000000000000000000, 0.0000000000000000000, 0.0000000000000000000 ) ) ;
#72 = AXIS2_PLACEMENT_3D ( 'NONE', #156, #239, #212 ) ;
#73 = AXIS2_PLACEMENT_3D ( 'NONE', #206, #170, #45 ) ;
#74 = CARTESIAN_POINT ( 'NONE',  ( 0.0000000000000000000, 47.75000000000000000, 0.0000000000000000000 ) ) ;
#75 = TOROIDAL_SURFACE ( 'NONE', #29, 47.75000000000000000, 1.500000000000000000 ) ;
#76 = ORIENTED_EDGE ( 'NONE', *, *, #180, .T. ) ;
#77 = AXIS2_PLACEMENT_3D ( 'NONE', #157, #80, #178 ) ;
#78 =( LENGTH_UNIT ( ) NAMED_UNIT ( * ) SI_UNIT ( .MILLI., .METRE. ) );
#79 = APPROVAL_ROLE ( '' ) ;
#80 = DIRECTION ( 'NONE',  ( -1.000000000000000000, -0.0000000000000000000, -0.0000000000000000000 ) ) ;
#81 = CC_DESIGN_PERSON_AND_ORGANIZATION_ASSIGNMENT ( #187, #152, ( #17 ) ) ;
#82 = DATE_AND_TIME ( #263, #110 ) ;
#83 = ADVANCED_FACE ( 'NONE', ( #23 ), #92, .T. ) ;
#84 = CARTESIAN_POINT ( 'NONE',  ( 0.0000000000000000000, 0.0000000000000000000, 49.25000000000000000 ) ) ;
#85 = ORIENTED_EDGE ( 'NONE', *, *, #34, .F. ) ;
#86 = AXIS2_PLACEMENT_3D ( 'NONE', #201, #164, #203 ) ;
#87 = CC_DESIGN_APPROVAL ( #25, ( #17 ) ) ;
#88 = ORIENTED_EDGE ( 'NONE', *, *, #180, .F. ) ;
#89 = VERTEX_POINT ( 'NONE', #5 ) ;
#90 = AXIS2_PLACEMENT_3D ( 'NONE', #99, #234, #100 ) ;
#91 = EDGE_CURVE ( 'NONE', #197, #97, #262, .T. ) ;
#92 = TOROIDAL_SURFACE ( 'NONE', #86, 47.75000000000000000, 1.500000000000000000 ) ;
#93 = DIRECTION ( 'NONE',  ( -1.000000000000000000, -0.0000000000000000000, -0.0000000000000000000 ) ) ;
#94 = CARTESIAN_POINT ( 'NONE',  ( 0.0000000000000000000, 47.75000000000000000, 0.0000000000000000000 ) ) ;
#95 = EDGE_LOOP ( 'NONE', ( #135, #182, #76, #204 ) ) ;
#96 = ADVANCED_FACE ( 'NONE', ( #261 ), #134, .T. ) ;
#97 = VERTEX_POINT ( 'NONE', #84 ) ;
#98 = TOROIDAL_SURFACE ( 'NONE', #73, 47.75000000000000000, 1.500000000000000000 ) ;
#99 = CARTESIAN_POINT ( 'NONE',  ( 0.0000000000000000000, 47.72091199016184500, -1.666450967543736200 ) ) ;
#100 = DIRECTION ( 'NONE',  ( 1.000000000000000000, 0.0000000000000000000, 0.0000000000000000000 ) ) ;
#101 = FACE_OUTER_BOUND ( 'NONE', #165, .T. ) ;
#102 = EDGE_LOOP ( 'NONE', ( #280, #36, #214, #88 ) ) ;
#103 = DIRECTION ( 'NONE',  ( 0.0000000000000000000, 0.0000000000000000000, 1.000000000000000000 ) ) ;
#104 =( NAMED_UNIT ( * ) SI_UNIT ( $, .STERADIAN. ) SOLID_ANGLE_UNIT ( ) );
#105 = DATE_TIME_ROLE ( 'creation_date' ) ;
#106 = ORIENTED_EDGE ( 'NONE', *, *, #66, .T. ) ;
#107 = CARTESIAN_POINT ( 'NONE',  ( 1.836970198721029900E-016, 0.0000000000000000000, 0.0000000000000000000 ) ) ;
#108 = AXIS2_PLACEMENT_3D ( 'NONE', #269, #138, #109 ) ;
#109 = DIRECTION ( 'NONE',  ( 0.0000000000000000000, 0.0000000000000000000, 1.000000000000000000 ) ) ;
#110 = LOCAL_TIME ( 10, 2, 39.00000000000000000, #139 ) ;
#111 = FACE_OUTER_BOUND ( 'NONE', #102, .T. ) ;
#112 = ORIENTED_EDGE ( 'NONE', *, *, #207, .T. ) ;
#113 = CC_DESIGN_DATE_AND_TIME_ASSIGNMENT ( #251, #20, ( #57 ) ) ;
#114 = AXIS2_PLACEMENT_3D ( 'NONE', #71, #8, #148 ) ;
#115 = CIRCLE ( 'NONE', #114, 49.25000000000000000 ) ;
#116 = ORIENTED_EDGE ( 'NONE', *, *, #174, .T. ) ;
#117 = ADVANCED_FACE ( 'NONE', ( #274 ), #154, .T. ) ;
#118 = EDGE_CURVE ( 'NONE', #241, #197, #37, .T. ) ;
#119 = ORIENTED_EDGE ( 'NONE', *, *, #207, .F. ) ;
#120 = PERSON_AND_ORGANIZATION ( #230, #232 ) ;
#121 = APPROVAL_DATE_TIME ( #82, #25 ) ;
#122 = AXIS2_PLACEMENT_3D ( 'NONE', #246, #168, #222 ) ;
#123 = DIRECTION ( 'NONE',  ( 0.0000000000000000000, -1.000000000000000000, 0.0000000000000000000 ) ) ;
#124 = EDGE_CURVE ( 'NONE', #140, #197, #253, .T. ) ;
#125 = APPLICATION_PROTOCOL_DEFINITION ( 'international standard', 'config_control_design', 1994, #151 ) ;
#126 = APPROVAL_ROLE ( '' ) ;
#127 = ADVANCED_BREP_SHAPE_REPRESENTATION ( '20011041', ( #267, #219 ), #31 ) ;
#128 = DIRECTION ( 'NONE',  ( -0.0000000000000000000, 1.000000000000000000, 1.224646799147353200E-016 ) ) ;
#129 = ORIENTED_EDGE ( 'NONE', *, *, #174, .F. ) ;
#130 = LOCAL_TIME ( 10, 2, 39.00000000000000000, #132 ) ;
#131 = DIRECTION ( 'NONE',  ( -1.000000000000000000, -0.0000000000000000000, -0.0000000000000000000 ) ) ;
#132 = COORDINATED_UNIVERSAL_TIME_OFFSET ( 8, 0, .AHEAD. ) ;
#133 = ORIENTED_EDGE ( 'NONE', *, *, #200, .T. ) ;
#134 = TOROIDAL_SURFACE ( 'NONE', #108, 47.75000000000000000, 1.500000000000000000 ) ;
#135 = ORIENTED_EDGE ( 'NONE', *, *, #118, .F. ) ;
#136 = PERSON_AND_ORGANIZATION ( #230, #232 ) ;
#137 = PRODUCT_RELATED_PRODUCT_CATEGORY ( 'detail', '', ( #173 ) ) ;
#138 = DIRECTION ( 'NONE',  ( -1.000000000000000000, -0.0000000000000000000, -0.0000000000000000000 ) ) ;
#139 = COORDINATED_UNIVERSAL_TIME_OFFSET ( 8, 0, .AHEAD. ) ;
#140 = VERTEX_POINT ( 'NONE', #155 ) ;
#141 = CALENDAR_DATE ( 2018, 18, 7 ) ;
#142 = DIRECTION ( 'NONE',  ( 1.000000000000000000, 0.0000000000000000000, 0.0000000000000000000 ) ) ;
#143 = DATE_AND_TIME ( #141, #130 ) ;
#144 = APPROVAL ( #196, 'Î´Ö¸¶¨' ) ;
#145 = DIRECTION ( 'NONE',  ( 0.0000000000000000000, 0.0000000000000000000, 1.000000000000000000 ) ) ;
#146 = APPROVAL_PERSON_ORGANIZATION ( #162, #144, #53 ) ;
#147 = CARTESIAN_POINT ( 'NONE',  ( 0.0000000000000000000, 49.25000000000000000, 0.0000000000000000000 ) ) ;
#148 = DIRECTION ( 'NONE',  ( 0.0000000000000000000, 0.0000000000000000000, 1.000000000000000000 ) ) ;
#149 = EDGE_LOOP ( 'NONE', ( #159, #279, #112, #129 ) ) ;
#150 = CARTESIAN_POINT ( 'NONE',  ( 0.0000000000000000000, 0.0000000000000000000, 0.0000000000000000000 ) ) ;
#151 = APPLICATION_CONTEXT ( 'configuration controlled 3d designs of mechanical parts and assemblies' ) ;
#152 = PERSON_AND_ORGANIZATION_ROLE ( 'design_supplier' ) ;
#153 = CC_DESIGN_SECURITY_CLASSIFICATION ( #57, ( #17 ) ) ;
#154 = TOROIDAL_SURFACE ( 'NONE', #61, 47.75000000000000000, 1.500000000000000000 ) ;
#155 = CARTESIAN_POINT ( 'NONE',  ( 0.0000000000000000000, 5.663991446056508500E-015, -46.25000000000000000 ) ) ;
#156 = CARTESIAN_POINT ( 'NONE',  ( 0.0000000000000000000, 0.0000000000000000000, 0.0000000000000000000 ) ) ;
#157 = CARTESIAN_POINT ( 'NONE',  ( 0.0000000000000000000, 0.0000000000000000000, 0.0000000000000000000 ) ) ;
#158 = ORIENTED_EDGE ( 'NONE', *, *, #124, .F. ) ;
#159 = ORIENTED_EDGE ( 'NONE', *, *, #275, .F. ) ;
#160 = ORIENTED_EDGE ( 'NONE', *, *, #66, .F. ) ;
#161 = APPROVAL_DATE_TIME ( #143, #144 ) ;
#162 = PERSON_AND_ORGANIZATION ( #230, #232 ) ;
#163 = PLANE ( 'NONE',  #122 ) ;
#164 = DIRECTION ( 'NONE',  ( -1.000000000000000000, -0.0000000000000000000, -0.0000000000000000000 ) ) ;
#165 = EDGE_LOOP ( 'NONE', ( #119, #188, #27, #160 ) ) ;
#166 = VERTEX_POINT ( 'NONE', #278 ) ;
#167 = DIRECTION ( 'NONE',  ( 0.0000000000000000000, 0.0000000000000000000, 1.000000000000000000 ) ) ;
#168 = DIRECTION ( 'NONE',  ( -0.0000000000000000000, 0.03489949670248662600, 0.9993908270190963200 ) ) ;
#169 = LOCAL_TIME ( 10, 2, 39.00000000000000000, #242 ) ;
#170 = DIRECTION ( 'NONE',  ( -1.000000000000000000, -0.0000000000000000000, -0.0000000000000000000 ) ) ;
#171 = CARTESIAN_POINT ( 'NONE',  ( 0.0000000000000000000, 0.0000000000000000000, 47.75000000000000000 ) ) ;
#172 = DIRECTION ( 'NONE',  ( 0.0000000000000000000, 0.0000000000000000000, 1.000000000000000000 ) ) ;
#173 = PRODUCT ( '20011041', '20011041', '', ( #176 ) ) ;
#174 = EDGE_CURVE ( 'NONE', #140, #166, #179, .T. ) ;
#175 = CIRCLE ( 'NONE', #59, 46.25000000000000000 ) ;
#176 = MECHANICAL_CONTEXT ( 'NONE', #151, 'mechanical' ) ;
#177 = PERSON_AND_ORGANIZATION_ROLE ( 'classification_officer' ) ;
#178 = DIRECTION ( 'NONE',  ( 0.0000000000000000000, 0.0000000000000000000, 1.000000000000000000 ) ) ;
#179 = CIRCLE ( 'NONE', #64, 46.25000000000000000 ) ;
#180 = EDGE_CURVE ( 'NONE', #189, #140, #175, .T. ) ;
#181 = FACE_OUTER_BOUND ( 'NONE', #13, .T. ) ;
#182 = ORIENTED_EDGE ( 'NONE', *, *, #184, .F. ) ;
#183 = CIRCLE ( 'NONE', #90, 1.500000000000000000 ) ;
#184 = EDGE_CURVE ( 'NONE', #189, #241, #259, .T. ) ;
#185 = COORDINATED_UNIVERSAL_TIME_OFFSET ( 8, 0, .AHEAD. ) ;
#186 = SHAPE_DEFINITION_REPRESENTATION ( #229, #127 ) ;
#187 = PERSON_AND_ORGANIZATION ( #230, #232 ) ;
#188 = ORIENTED_EDGE ( 'NONE', *, *, #40, .T. ) ;
#189 = VERTEX_POINT ( 'NONE', #56 ) ;
#190 = DIRECTION ( 'NONE',  ( 0.0000000000000000000, 0.03489949670248662000, 0.9993908270190962100 ) ) ;
#191 = PERSON_AND_ORGANIZATION ( #230, #232 ) ;
#192 = DIRECTION ( 'NONE',  ( 0.0000000000000000000, 0.0000000000000000000, -1.000000000000000000 ) ) ;
#193 = CARTESIAN_POINT ( 'NONE',  ( 0.0000000000000000000, 5.847688465928612000E-015, -47.75000000000000000 ) ) ;
#194 = CC_DESIGN_APPROVAL ( #144, ( #57 ) ) ;
#195 = APPLICATION_CONTEXT ( 'configuration controlled 3d designs of mechanical parts and assemblies' ) ;
#196 = APPROVAL_STATUS ( 'not_yet_approved' ) ;
#197 = VERTEX_POINT ( 'NONE', #213 ) ;
#198 = DIRECTION ( 'NONE',  ( 0.0000000000000000000, -1.224646799147354400E-016, 1.000000000000000000 ) ) ;
#199 = APPROVAL_PERSON_ORGANIZATION ( #208, #10, #79 ) ;
#200 = EDGE_CURVE ( 'NONE', #166, #97, #256, .T. ) ;
#201 = CARTESIAN_POINT ( 'NONE',  ( 0.0000000000000000000, 0.0000000000000000000, 0.0000000000000000000 ) ) ;
#202 = CALENDAR_DATE ( 2018, 18, 7 ) ;
#203 = DIRECTION ( 'NONE',  ( 0.0000000000000000000, 0.0000000000000000000, 1.000000000000000000 ) ) ;
#204 = ORIENTED_EDGE ( 'NONE', *, *, #124, .T. ) ;
#205 = CARTESIAN_POINT ( 'NONE',  ( 1.836970198721029900E-016, 0.0000000000000000000, 0.0000000000000000000 ) ) ;
#206 = CARTESIAN_POINT ( 'NONE',  ( 0.0000000000000000000, 0.0000000000000000000, 0.0000000000000000000 ) ) ;
#207 = EDGE_CURVE ( 'NONE', #97, #166, #260, .T. ) ;
#208 = PERSON_AND_ORGANIZATION ( #230, #232 ) ;
#209 = DIRECTION ( 'NONE',  ( 0.0000000000000000000, -1.224646799147354400E-016, 1.000000000000000000 ) ) ;
#210 = AXIS2_PLACEMENT_3D ( 'NONE', #233, #247, #145 ) ;
#211 = APPROVAL_STATUS ( 'not_yet_approved' ) ;
#212 = DIRECTION ( 'NONE',  ( 0.0000000000000000000, 0.0000000000000000000, 1.000000000000000000 ) ) ;
#213 = CARTESIAN_POINT ( 'NONE',  ( 0.0000000000000000000, 6.031385485800714700E-015, -49.25000000000000000 ) ) ;
#214 = ORIENTED_EDGE ( 'NONE', *, *, #275, .T. ) ;
#215 = APPROVAL_PERSON_ORGANIZATION ( #191, #25, #126 ) ;
#216 = ADVANCED_FACE ( 'NONE', ( #101 ), #98, .T. ) ;
#217 = LOCAL_TIME ( 10, 2, 39.00000000000000000, #26 ) ;
#218 = DATE_AND_TIME ( #2, #217 ) ;
#219 = AXIS2_PLACEMENT_3D ( 'NONE', #150, #172, #272 ) ;
#220 = CIRCLE ( 'NONE', #38, 1.500000000000001300 ) ;
#221 = DIRECTION ( 'NONE',  ( 1.000000000000000000, 0.0000000000000000000, 0.0000000000000000000 ) ) ;
#222 = DIRECTION ( 'NONE',  ( 1.000000000000000000, 0.0000000000000000000, 0.0000000000000000000 ) ) ;
#223 = CIRCLE ( 'NONE', #266, 1.500000000000000000 ) ;
#224 = ADVANCED_FACE ( 'NONE', ( #181 ), #270, .F. ) ;
#225 = CARTESIAN_POINT ( 'NONE',  ( 0.0000000000000000000, 49.21999823069048600, -1.718800212597466000 ) ) ;
#226 =( NAMED_UNIT ( * ) PLANE_ANGLE_UNIT ( ) SI_UNIT ( $, .RADIAN. ) );
#227 = PERSON_AND_ORGANIZATION_ROLE ( 'creator' ) ;
#228 = DIRECTION ( 'NONE',  ( -1.000000000000000000, -0.0000000000000000000, -0.0000000000000000000 ) ) ;
#229 = PRODUCT_DEFINITION_SHAPE ( 'NONE', 'NONE',  #19 ) ;
#230 = PERSON ( 'Î´Ö¸¶¨', 'Î´Ö¸¶¨', 'Î´Ö¸¶¨', ('Î´Ö¸¶¨'), ('Î´Ö¸¶¨'), ('Î´Ö¸¶¨') ) ;
#231 = FACE_OUTER_BOUND ( 'NONE', #95, .T. ) ;
#232 = ORGANIZATION ( 'Î´Ö¸¶¨', 'Î´Ö¸¶¨', '' ) ;
#233 = CARTESIAN_POINT ( 'NONE',  ( 0.0000000000000000000, 0.0000000000000000000, 0.0000000000000000000 ) ) ;
#234 = DIRECTION ( 'NONE',  ( 0.0000000000000000000, 0.03489949670248662000, 0.9993908270190962100 ) ) ;
#235 = CARTESIAN_POINT ( 'NONE',  ( 0.0000000000000000000, 0.0000000000000000000, 47.75000000000000000 ) ) ;
#236 = DIRECTION ( 'NONE',  ( 1.000000000000000000, 0.0000000000000000000, -0.0000000000000000000 ) ) ;
#237 = APPROVAL_STATUS ( 'not_yet_approved' ) ;
#238 = CIRCLE ( 'NONE', #69, 46.25000000000000000 ) ;
#239 = DIRECTION ( 'NONE',  ( -1.000000000000000000, -0.0000000000000000000, -0.0000000000000000000 ) ) ;
#240 = AXIS2_PLACEMENT_3D ( 'NONE', #94, #32, #221 ) ;
#241 = VERTEX_POINT ( 'NONE', #225 ) ;
#242 = COORDINATED_UNIVERSAL_TIME_OFFSET ( 8, 0, .AHEAD. ) ;
#243 = DIRECTION ( 'NONE',  ( -1.000000000000000000, -0.0000000000000000000, -0.0000000000000000000 ) ) ;
#244 = TOROIDAL_SURFACE ( 'NONE', #210, 47.75000000000000000, 1.500000000000000000 ) ;
#245 = CC_DESIGN_PERSON_AND_ORGANIZATION_ASSIGNMENT ( #249, #16, ( #173 ) ) ;
#246 = CARTESIAN_POINT ( 'NONE',  ( 0.0000000000000000000, 47.72091199016184500, -1.666450967543736200 ) ) ;
#247 = DIRECTION ( 'NONE',  ( -1.000000000000000000, -0.0000000000000000000, -0.0000000000000000000 ) ) ;
#248 = ORIENTED_EDGE ( 'NONE', *, *, #62, .F. ) ;
#249 = PERSON_AND_ORGANIZATION ( #230, #232 ) ;
#250 = DATE_AND_TIME ( #35, #169 ) ;
#251 = DATE_AND_TIME ( #202, #268 ) ;
#252 = DIRECTION ( 'NONE',  ( 0.0000000000000000000, 0.0000000000000000000, -1.000000000000000000 ) ) ;
#253 = CIRCLE ( 'NONE', #67, 1.500000000000001300 ) ;
#254 = PERSON_AND_ORGANIZATION_ROLE ( 'creator' ) ;
#255 = CARTESIAN_POINT ( 'NONE',  ( 1.836970198721029900E-016, 0.0000000000000000000, 0.0000000000000000000 ) ) ;
#256 = CIRCLE ( 'NONE', #47, 1.500000000000001300 ) ;
#257 = DIRECTION ( 'NONE',  ( 0.0000000000000000000, 0.0000000000000000000, 1.000000000000000000 ) ) ;
#258 = CARTESIAN_POINT ( 'NONE',  ( 0.0000000000000000000, 5.847688465928612000E-015, -47.75000000000000000 ) ) ;
#259 = CIRCLE ( 'NONE', #46, 1.500000000000000000 ) ;
#260 = CIRCLE ( 'NONE', #42, 1.500000000000001300 ) ;
#261 = FACE_OUTER_BOUND ( 'NONE', #149, .T. ) ;
#262 = CIRCLE ( 'NONE', #72, 49.25000000000000000 ) ;
#263 = CALENDAR_DATE ( 2018, 18, 7 ) ;
#264 = ORIENTED_EDGE ( 'NONE', *, *, #91, .F. ) ;
#265 = DIRECTION ( 'NONE',  ( 0.0000000000000000000, 0.0000000000000000000, 1.000000000000000000 ) ) ;
#266 = AXIS2_PLACEMENT_3D ( 'NONE', #65, #167, #142 ) ;
#267 = MANIFOLD_SOLID_BREP ( 'Ðý×ª1', #52 ) ;
#268 = LOCAL_TIME ( 10, 2, 39.00000000000000000, #185 ) ;
#269 = CARTESIAN_POINT ( 'NONE',  ( 0.0000000000000000000, 0.0000000000000000000, 0.0000000000000000000 ) ) ;
#270 = PLANE ( 'NONE',  #33 ) ;
#271 = ORIENTED_EDGE ( 'NONE', *, *, #62, .T. ) ;
#272 = DIRECTION ( 'NONE',  ( 1.000000000000000000, 0.0000000000000000000, 0.0000000000000000000 ) ) ;
#273 = SECURITY_CLASSIFICATION_LEVEL ( 'unclassified' ) ;
#274 = FACE_OUTER_BOUND ( 'NONE', #12, .T. ) ;
#275 = EDGE_CURVE ( 'NONE', #197, #140, #220, .T. ) ;
#276 = ORIENTED_EDGE ( 'NONE', *, *, #200, .F. ) ;
#277 = CARTESIAN_POINT ( 'NONE',  ( 0.0000000000000000000, 0.0000000000000000000, 0.0000000000000000000 ) ) ;
#278 = CARTESIAN_POINT ( 'NONE',  ( 0.0000000000000000000, 0.0000000000000000000, 46.25000000000000000 ) ) ;
#279 = ORIENTED_EDGE ( 'NONE', *, *, #91, .T. ) ;
#280 = ORIENTED_EDGE ( 'NONE', *, *, #51, .F. ) ;
#281 = CC_DESIGN_PERSON_AND_ORGANIZATION_ASSIGNMENT ( #136, #254, ( #17 ) ) ;
ENDSEC;
END-ISO-10303-21;
