ISO-10303-21;
HEADER;
FILE_DESCRIPTION (( 'STEP AP203' ),
    '1' );
FILE_NAME ('20012341.STEP',
    '2018-07-18T02:04:40',
    ( '' ),
    ( '' ),
    'SwSTEP 2.0',
    'SolidWorks 2014',
    '' );
FILE_SCHEMA (( 'CONFIG_CONTROL_DESIGN' ));
ENDSEC;

DATA;
#1 = ADVANCED_FACE ( 'NONE', ( #260 ), #29, .T. ) ;
#2 = CARTESIAN_POINT ( 'NONE',  ( 0.0000000000000000000, 275.2322337610590900, -9.611321391864814600 ) ) ;
#3 = PRODUCT_RELATED_PRODUCT_CATEGORY ( 'detail', '', ( #268 ) ) ;
#4 = CARTESIAN_POINT ( 'NONE',  ( 0.0000000000000000000, 3.421663156817704700E-014, -279.3999999999999800 ) ) ;
#5 = CC_DESIGN_SECURITY_CLASSIFICATION ( #22, ( #49 ) ) ;
#6 = DIRECTION ( 'NONE',  ( 1.000000000000000000, 0.0000000000000000000, 0.0000000000000000000 ) ) ;
#7 = PERSON_AND_ORGANIZATION_ROLE ( 'design_owner' ) ;
#8 = CC_DESIGN_APPROVAL ( #10, ( #22 ) ) ;
#9 = CALENDAR_DATE ( 2018, 18, 7 ) ;
#10 = APPROVAL ( #186, 'Î´Ö¸¶¨' ) ;
#11 = DATE_TIME_ROLE ( 'classification_date' ) ;
#12 = ORIENTED_EDGE ( 'NONE', *, *, #26, .F. ) ;
#13 = ORIENTED_EDGE ( 'NONE', *, *, #110, .T. ) ;
#14 = CARTESIAN_POINT ( 'NONE',  ( 4.898587196589413800E-016, 271.3999999999999800, 0.0000000000000000000 ) ) ;
#15 = CC_DESIGN_DATE_AND_TIME_ASSIGNMENT ( #18, #11, ( #22 ) ) ;
#16 = ADVANCED_BREP_SHAPE_REPRESENTATION ( '20012341', ( #52, #64 ), #75 ) ;
#17 = ADVANCED_FACE ( 'NONE', ( #210 ), #96, .T. ) ;
#18 = DATE_AND_TIME ( #89, #153 ) ;
#19 = CC_DESIGN_PERSON_AND_ORGANIZATION_ASSIGNMENT ( #252, #166, ( #22 ) ) ;
#20 = VERTEX_POINT ( 'NONE', #225 ) ;
#21 = APPROVAL_PERSON_ORGANIZATION ( #92, #39, #120 ) ;
#22 = SECURITY_CLASSIFICATION ( '', '', #277 ) ;
#23 = CC_DESIGN_PERSON_AND_ORGANIZATION_ASSIGNMENT ( #27, #142, ( #49 ) ) ;
#24 = ORGANIZATION ( 'Î´Ö¸¶¨', 'Î´Ö¸¶¨', '' ) ;
#25 = DIRECTION ( 'NONE',  ( 0.0000000000000000000, 0.0000000000000000000, 1.000000000000000000 ) ) ;
#26 = EDGE_CURVE ( 'NONE', #176, #102, #205, .T. ) ;
#27 = PERSON_AND_ORGANIZATION ( #51, #24 ) ;
#28 = CC_DESIGN_PERSON_AND_ORGANIZATION_ASSIGNMENT ( #97, #253, ( #49 ) ) ;
#29 = TOROIDAL_SURFACE ( 'NONE', #197, 275.3999999999999800, 4.000000000000001800 ) ;
#30 = COORDINATED_UNIVERSAL_TIME_OFFSET ( 8, 0, .AHEAD. ) ;
#31 = EDGE_CURVE ( 'NONE', #32, #20, #159, .T. ) ;
#32 = VERTEX_POINT ( 'NONE', #217 ) ;
#33 = DIRECTION ( 'NONE',  ( 0.0000000000000000000, 0.0000000000000000000, 1.000000000000000000 ) ) ;
#34 = EDGE_CURVE ( 'NONE', #229, #81, #250, .T. ) ;
#35 = CC_DESIGN_APPROVAL ( #39, ( #49 ) ) ;
#36 = DIRECTION ( 'NONE',  ( -1.000000000000000000, -0.0000000000000000000, -0.0000000000000000000 ) ) ;
#37 = CIRCLE ( 'NONE', #115, 279.3999999999999800 ) ;
#38 = APPLICATION_PROTOCOL_DEFINITION ( 'international standard', 'config_control_design', 1994, #185 ) ;
#39 = APPROVAL ( #239, 'Î´Ö¸¶¨' ) ;
#40 = APPROVAL_ROLE ( '' ) ;
#41 = LOCAL_TIME ( 10, 4, 40.00000000000000000, #106 ) ;
#42 = EDGE_LOOP ( 'NONE', ( #182, #47, #200, #264 ) ) ;
#43 = CIRCLE ( 'NONE', #77, 4.000000000000001800 ) ;
#44 = DIRECTION ( 'NONE',  ( 0.0000000000000000000, -1.224646799147349500E-016, 1.000000000000000000 ) ) ;
#45 = ORIENTED_EDGE ( 'NONE', *, *, #245, .T. ) ;
#46 = EDGE_CURVE ( 'NONE', #20, #32, #67, .T. ) ;
#47 = ORIENTED_EDGE ( 'NONE', *, *, #31, .F. ) ;
#48 = ORIENTED_EDGE ( 'NONE', *, *, #175, .T. ) ;
#49 = PRODUCT_DEFINITION_FORMATION_WITH_SPECIFIED_SOURCE ( 'ÈÎºÎ', '', #268, .NOT_KNOWN. ) ;
#50 = FACE_OUTER_BOUND ( 'NONE', #177, .T. ) ;
#51 = PERSON ( 'Î´Ö¸¶¨', 'Î´Ö¸¶¨', 'Î´Ö¸¶¨', ('Î´Ö¸¶¨'), ('Î´Ö¸¶¨'), ('Î´Ö¸¶¨') ) ;
#52 = MANIFOLD_SOLID_BREP ( 'Ðý×ª1', #207 ) ;
#53 = CC_DESIGN_DATE_AND_TIME_ASSIGNMENT ( #154, #90, ( #59 ) ) ;
#54 = CC_DESIGN_PERSON_AND_ORGANIZATION_ASSIGNMENT ( #99, #224, ( #59 ) ) ;
#55 = CC_DESIGN_APPROVAL ( #56, ( #59 ) ) ;
#56 = APPROVAL ( #199, 'Î´Ö¸¶¨' ) ;
#57 = ORIENTED_EDGE ( 'NONE', *, *, #117, .F. ) ;
#58 = ORIENTED_EDGE ( 'NONE', *, *, #31, .T. ) ;
#59 = PRODUCT_DEFINITION ( 'Î´Öª', '', #49, #132 ) ;
#60 = TOROIDAL_SURFACE ( 'NONE', #134, 275.3999999999999800, 4.000000000000001800 ) ;
#61 = CC_DESIGN_PERSON_AND_ORGANIZATION_ASSIGNMENT ( #172, #7, ( #268 ) ) ;
#62 = PRODUCT_DEFINITION_SHAPE ( 'NONE', 'NONE',  #59 ) ;
#63 = CARTESIAN_POINT ( 'NONE',  ( 0.0000000000000000000, 0.0000000000000000000, 0.0000000000000000000 ) ) ;
#64 = AXIS2_PLACEMENT_3D ( 'NONE', #236, #33, #275 ) ;
#65 = DIRECTION ( 'NONE',  ( 0.0000000000000000000, 0.0000000000000000000, 1.000000000000000000 ) ) ;
#66 = DIRECTION ( 'NONE',  ( 0.0000000000000000000, 0.0000000000000000000, 1.000000000000000000 ) ) ;
#67 = CIRCLE ( 'NONE', #168, 4.000000000000003600 ) ;
#68 = DIRECTION ( 'NONE',  ( -1.000000000000000000, -0.0000000000000000000, -0.0000000000000000000 ) ) ;
#69 =( LENGTH_UNIT ( ) NAMED_UNIT ( * ) SI_UNIT ( .MILLI., .METRE. ) );
#70 = CARTESIAN_POINT ( 'NONE',  ( 0.0000000000000000000, 0.0000000000000000000, 0.0000000000000000000 ) ) ;
#71 = APPROVAL_ROLE ( '' ) ;
#72 = ADVANCED_FACE ( 'NONE', ( #281 ), #233, .T. ) ;
#73 = CARTESIAN_POINT ( 'NONE',  ( 0.0000000000000000000, 279.3999999999999800, 0.0000000000000000000 ) ) ;
#74 = CARTESIAN_POINT ( 'NONE',  ( 0.0000000000000000000, 275.2322337610590900, -9.611321391864814600 ) ) ;
#75 =( GEOMETRIC_REPRESENTATION_CONTEXT ( 3 ) GLOBAL_UNCERTAINTY_ASSIGNED_CONTEXT ( ( #257 ) ) GLOBAL_UNIT_ASSIGNED_CONTEXT ( ( #69, #222, #88 ) ) REPRESENTATION_CONTEXT ( 'NONE', 'WORKASPACE' ) );
#76 = AXIS2_PLACEMENT_3D ( 'NONE', #184, #36, #196 ) ;
#77 = AXIS2_PLACEMENT_3D ( 'NONE', #251, #139, #274 ) ;
#78 = AXIS2_PLACEMENT_3D ( 'NONE', #195, #68, #219 ) ;
#79 = LOCAL_TIME ( 10, 4, 40.00000000000000000, #147 ) ;
#80 = ORIENTED_EDGE ( 'NONE', *, *, #175, .F. ) ;
#81 = VERTEX_POINT ( 'NONE', #73 ) ;
#82 = ADVANCED_FACE ( 'NONE', ( #273 ), #60, .T. ) ;
#83 = DIRECTION ( 'NONE',  ( 0.0000000000000000000, 0.0000000000000000000, 1.000000000000000000 ) ) ;
#84 = DIRECTION ( 'NONE',  ( 0.0000000000000000000, 0.0000000000000000000, -1.000000000000000000 ) ) ;
#85 = DIRECTION ( 'NONE',  ( 0.0000000000000000000, -1.000000000000000000, 0.0000000000000000000 ) ) ;
#86 = CARTESIAN_POINT ( 'NONE',  ( 0.0000000000000000000, 0.0000000000000000000, 275.3999999999999800 ) ) ;
#87 = AXIS2_PLACEMENT_3D ( 'NONE', #193, #65, #216 ) ;
#88 =( NAMED_UNIT ( * ) SI_UNIT ( $, .STERADIAN. ) SOLID_ANGLE_UNIT ( ) );
#89 = CALENDAR_DATE ( 2018, 18, 7 ) ;
#90 = DATE_TIME_ROLE ( 'creation_date' ) ;
#91 = CARTESIAN_POINT ( 'NONE',  ( 0.0000000000000000000, 0.0000000000000000000, 0.0000000000000000000 ) ) ;
#92 = PERSON_AND_ORGANIZATION ( #51, #24 ) ;
#93 = DIRECTION ( 'NONE',  ( 0.0000000000000000000, 0.0000000000000000000, 1.000000000000000000 ) ) ;
#94 = AXIS2_PLACEMENT_3D ( 'NONE', #272, #160, #6 ) ;
#95 = DIRECTION ( 'NONE',  ( -1.000000000000000000, -0.0000000000000000000, -0.0000000000000000000 ) ) ;
#96 = TOROIDAL_SURFACE ( 'NONE', #194, 275.3999999999999800, 4.000000000000001800 ) ;
#97 = PERSON_AND_ORGANIZATION ( #51, #24 ) ;
#98 = EDGE_CURVE ( 'NONE', #20, #81, #183, .T. ) ;
#99 = PERSON_AND_ORGANIZATION ( #51, #24 ) ;
#100 = SHAPE_DEFINITION_REPRESENTATION ( #62, #16 ) ;
#101 = AXIS2_PLACEMENT_3D ( 'NONE', #2, #135, #269 ) ;
#102 = VERTEX_POINT ( 'NONE', #4 ) ;
#103 = DIRECTION ( 'NONE',  ( -1.000000000000000000, -0.0000000000000000000, -0.0000000000000000000 ) ) ;
#104 = TOROIDAL_SURFACE ( 'NONE', #105, 275.3999999999999800, 4.000000000000001800 ) ;
#105 = AXIS2_PLACEMENT_3D ( 'NONE', #255, #240, #93 ) ;
#106 = COORDINATED_UNIVERSAL_TIME_OFFSET ( 8, 0, .AHEAD. ) ;
#107 = ORIENTED_EDGE ( 'NONE', *, *, #276, .T. ) ;
#108 = DIRECTION ( 'NONE',  ( 1.000000000000000000, 0.0000000000000000000, 0.0000000000000000000 ) ) ;
#109 = ORIENTED_EDGE ( 'NONE', *, *, #26, .T. ) ;
#110 = EDGE_CURVE ( 'NONE', #102, #176, #231, .T. ) ;
#111 = DIRECTION ( 'NONE',  ( 0.0000000000000000000, 0.0000000000000000000, 1.000000000000000000 ) ) ;
#112 = AXIS2_PLACEMENT_3D ( 'NONE', #91, #146, #204 ) ;
#113 = EDGE_LOOP ( 'NONE', ( #178, #48, #230, #148 ) ) ;
#114 = ORIENTED_EDGE ( 'NONE', *, *, #98, .T. ) ;
#115 = AXIS2_PLACEMENT_3D ( 'NONE', #63, #103, #25 ) ;
#116 = CIRCLE ( 'NONE', #128, 271.3999999999999800 ) ;
#117 = EDGE_CURVE ( 'NONE', #248, #126, #179, .T. ) ;
#118 = APPLICATION_PROTOCOL_DEFINITION ( 'international standard', 'config_control_design', 1994, #141 ) ;
#119 = CARTESIAN_POINT ( 'NONE',  ( 0.0000000000000000000, 275.3999999999999800, 0.0000000000000000000 ) ) ;
#120 = APPROVAL_ROLE ( '' ) ;
#121 = CARTESIAN_POINT ( 'NONE',  ( 0.0000000000000000000, 0.0000000000000000000, 0.0000000000000000000 ) ) ;
#122 = AXIS2_PLACEMENT_3D ( 'NONE', #280, #259, #169 ) ;
#123 = CARTESIAN_POINT ( 'NONE',  ( 4.898587196589415800E-016, 0.0000000000000000000, 0.0000000000000000000 ) ) ;
#124 = DIRECTION ( 'NONE',  ( 0.0000000000000000000, 0.03489949670248662000, 0.9993908270190962100 ) ) ;
#125 = PLANE ( 'NONE',  #101 ) ;
#126 = VERTEX_POINT ( 'NONE', #227 ) ;
#127 = CIRCLE ( 'NONE', #122, 271.3999999999999800 ) ;
#128 = AXIS2_PLACEMENT_3D ( 'NONE', #123, #95, #258 ) ;
#129 = EDGE_CURVE ( 'NONE', #176, #32, #116, .T. ) ;
#130 = AXIS2_PLACEMENT_3D ( 'NONE', #74, #124, #145 ) ;
#131 = AXIS2_PLACEMENT_3D ( 'NONE', #202, #187, #44 ) ;
#132 = DESIGN_CONTEXT ( 'detailed design', #185, 'design' ) ;
#133 = EDGE_CURVE ( 'NONE', #32, #229, #127, .T. ) ;
#134 = AXIS2_PLACEMENT_3D ( 'NONE', #70, #156, #66 ) ;
#135 = DIRECTION ( 'NONE',  ( -0.0000000000000000000, 0.03489949670248662600, 0.9993908270190963200 ) ) ;
#136 = CARTESIAN_POINT ( 'NONE',  ( 4.898587196589415800E-016, 271.2346704529826400, -9.471723405054866900 ) ) ;
#137 = ADVANCED_FACE ( 'NONE', ( #50 ), #267, .T. ) ;
#138 = DIRECTION ( 'NONE',  ( 0.0000000000000000000, 0.0000000000000000000, -1.000000000000000000 ) ) ;
#139 = DIRECTION ( 'NONE',  ( 0.0000000000000000000, 0.0000000000000000000, 1.000000000000000000 ) ) ;
#140 = DIRECTION ( 'NONE',  ( 0.0000000000000000000, -1.000000000000000000, 0.0000000000000000000 ) ) ;
#141 = APPLICATION_CONTEXT ( 'configuration controlled 3d designs of mechanical parts and assemblies' ) ;
#142 = PERSON_AND_ORGANIZATION_ROLE ( 'design_supplier' ) ;
#143 = AXIS2_PLACEMENT_3D ( 'NONE', #121, #161, #83 ) ;
#144 = ORIENTED_EDGE ( 'NONE', *, *, #117, .T. ) ;
#145 = DIRECTION ( 'NONE',  ( 1.000000000000000000, 0.0000000000000000000, 0.0000000000000000000 ) ) ;
#146 = DIRECTION ( 'NONE',  ( -1.000000000000000000, -0.0000000000000000000, -0.0000000000000000000 ) ) ;
#147 = COORDINATED_UNIVERSAL_TIME_OFFSET ( 8, 0, .AHEAD. ) ;
#148 = ORIENTED_EDGE ( 'NONE', *, *, #129, .F. ) ;
#149 = EDGE_LOOP ( 'NONE', ( #243, #45, #13, #247 ) ) ;
#150 = CALENDAR_DATE ( 2018, 18, 7 ) ;
#151 = ADVANCED_FACE ( 'NONE', ( #221 ), #104, .T. ) ;
#152 = FACE_OUTER_BOUND ( 'NONE', #254, .T. ) ;
#153 = LOCAL_TIME ( 10, 4, 40.00000000000000000, #206 ) ;
#154 = DATE_AND_TIME ( #208, #256 ) ;
#155 = CARTESIAN_POINT ( 'NONE',  ( 0.0000000000000000000, 0.0000000000000000000, 275.3999999999999800 ) ) ;
#156 = DIRECTION ( 'NONE',  ( -1.000000000000000000, -0.0000000000000000000, -0.0000000000000000000 ) ) ;
#157 = PLANE ( 'NONE',  #87 ) ;
#158 = CARTESIAN_POINT ( 'NONE',  ( 0.0000000000000000000, 0.0000000000000000000, 0.0000000000000000000 ) ) ;
#159 = CIRCLE ( 'NONE', #189, 4.000000000000003600 ) ;
#160 = DIRECTION ( 'NONE',  ( 0.0000000000000000000, 0.03489949670248662000, 0.9993908270190962100 ) ) ;
#161 = DIRECTION ( 'NONE',  ( -1.000000000000000000, -0.0000000000000000000, -0.0000000000000000000 ) ) ;
#162 = APPROVAL_DATE_TIME ( #211, #39 ) ;
#163 = DIRECTION ( 'NONE',  ( 0.0000000000000000000, -1.224646799147349500E-016, 1.000000000000000000 ) ) ;
#164 = AXIS2_PLACEMENT_3D ( 'NONE', #158, #188, #278 ) ;
#165 = MECHANICAL_CONTEXT ( 'NONE', #141, 'mechanical' ) ;
#166 = PERSON_AND_ORGANIZATION_ROLE ( 'classification_officer' ) ;
#167 = APPROVAL_DATE_TIME ( #213, #56 ) ;
#168 = AXIS2_PLACEMENT_3D ( 'NONE', #86, #85, #84 ) ;
#169 = DIRECTION ( 'NONE',  ( 0.0000000000000000000, 0.0000000000000000000, 1.000000000000000000 ) ) ;
#170 = ORIENTED_EDGE ( 'NONE', *, *, #46, .F. ) ;
#171 = AXIS2_PLACEMENT_3D ( 'NONE', #119, #111, #108 ) ;
#172 = PERSON_AND_ORGANIZATION ( #51, #24 ) ;
#173 = APPROVAL_PERSON_ORGANIZATION ( #226, #56, #71 ) ;
#174 = CIRCLE ( 'NONE', #94, 4.000000000000001800 ) ;
#175 = EDGE_CURVE ( 'NONE', #102, #20, #37, .T. ) ;
#176 = VERTEX_POINT ( 'NONE', #279 ) ;
#177 = EDGE_LOOP ( 'NONE', ( #80, #12, #265, #58 ) ) ;
#178 = ORIENTED_EDGE ( 'NONE', *, *, #110, .F. ) ;
#179 = CIRCLE ( 'NONE', #130, 4.000000000000001800 ) ;
#180 = DIRECTION ( 'NONE',  ( -0.0000000000000000000, 1.000000000000000000, 1.224646799147353200E-016 ) ) ;
#181 = CARTESIAN_POINT ( 'NONE',  ( 0.0000000000000000000, 3.372677284851810700E-014, -275.3999999999999800 ) ) ;
#182 = ORIENTED_EDGE ( 'NONE', *, *, #98, .F. ) ;
#183 = CIRCLE ( 'NONE', #164, 279.3999999999999800 ) ;
#184 = CARTESIAN_POINT ( 'NONE',  ( 4.898587196589415800E-016, 0.0000000000000000000, 0.0000000000000000000 ) ) ;
#185 = APPLICATION_CONTEXT ( 'configuration controlled 3d designs of mechanical parts and assemblies' ) ;
#186 = APPROVAL_STATUS ( 'not_yet_approved' ) ;
#187 = DIRECTION ( 'NONE',  ( -0.0000000000000000000, 1.000000000000000000, 1.224646799147353200E-016 ) ) ;
#188 = DIRECTION ( 'NONE',  ( -1.000000000000000000, -0.0000000000000000000, -0.0000000000000000000 ) ) ;
#189 = AXIS2_PLACEMENT_3D ( 'NONE', #155, #140, #138 ) ;
#190 = APPROVAL_DATE_TIME ( #242, #10 ) ;
#191 = EDGE_LOOP ( 'NONE', ( #170, #114, #218, #201 ) ) ;
#192 = EDGE_LOOP ( 'NONE', ( #270, #228 ) ) ;
#193 = CARTESIAN_POINT ( 'NONE',  ( 0.0000000000000000000, 275.3999999999999800, 0.0000000000000000000 ) ) ;
#194 = AXIS2_PLACEMENT_3D ( 'NONE', #220, #238, #235 ) ;
#195 = CARTESIAN_POINT ( 'NONE',  ( 0.0000000000000000000, 0.0000000000000000000, 0.0000000000000000000 ) ) ;
#196 = DIRECTION ( 'NONE',  ( 0.0000000000000000000, 0.0000000000000000000, 1.000000000000000000 ) ) ;
#197 = AXIS2_PLACEMENT_3D ( 'NONE', #234, #223, #237 ) ;
#198 = APPROVAL_PERSON_ORGANIZATION ( #246, #10, #40 ) ;
#199 = APPROVAL_STATUS ( 'not_yet_approved' ) ;
#200 = ORIENTED_EDGE ( 'NONE', *, *, #133, .T. ) ;
#201 = ORIENTED_EDGE ( 'NONE', *, *, #133, .F. ) ;
#202 = CARTESIAN_POINT ( 'NONE',  ( 0.0000000000000000000, 3.372677284851810700E-014, -275.3999999999999800 ) ) ;
#203 = LOCAL_TIME ( 10, 4, 40.00000000000000000, #249 ) ;
#204 = DIRECTION ( 'NONE',  ( 0.0000000000000000000, 0.0000000000000000000, 1.000000000000000000 ) ) ;
#205 = CIRCLE ( 'NONE', #212, 4.000000000000003600 ) ;
#206 = COORDINATED_UNIVERSAL_TIME_OFFSET ( 8, 0, .AHEAD. ) ;
#207 = CLOSED_SHELL ( 'NONE', ( #17, #82, #151, #1, #137, #72, #209, #232 ) ) ;
#208 = CALENDAR_DATE ( 2018, 18, 7 ) ;
#209 = ADVANCED_FACE ( 'NONE', ( #152 ), #125, .T. ) ;
#210 = FACE_OUTER_BOUND ( 'NONE', #191, .T. ) ;
#211 = DATE_AND_TIME ( #150, #203 ) ;
#212 = AXIS2_PLACEMENT_3D ( 'NONE', #181, #180, #163 ) ;
#213 = DATE_AND_TIME ( #262, #41 ) ;
#214 = CIRCLE ( 'NONE', #76, 271.3999999999999800 ) ;
#215 = ORIENTED_EDGE ( 'NONE', *, *, #241, .T. ) ;
#216 = DIRECTION ( 'NONE',  ( 1.000000000000000000, 0.0000000000000000000, -0.0000000000000000000 ) ) ;
#217 = CARTESIAN_POINT ( 'NONE',  ( 0.0000000000000000000, 0.0000000000000000000, 271.3999999999999800 ) ) ;
#218 = ORIENTED_EDGE ( 'NONE', *, *, #266, .T. ) ;
#219 = DIRECTION ( 'NONE',  ( 0.0000000000000000000, 0.0000000000000000000, 1.000000000000000000 ) ) ;
#220 = CARTESIAN_POINT ( 'NONE',  ( 0.0000000000000000000, 0.0000000000000000000, 0.0000000000000000000 ) ) ;
#221 = FACE_OUTER_BOUND ( 'NONE', #149, .T. ) ;
#222 =( NAMED_UNIT ( * ) PLANE_ANGLE_UNIT ( ) SI_UNIT ( $, .RADIAN. ) );
#223 = DIRECTION ( 'NONE',  ( -1.000000000000000000, -0.0000000000000000000, -0.0000000000000000000 ) ) ;
#224 = PERSON_AND_ORGANIZATION_ROLE ( 'creator' ) ;
#225 = CARTESIAN_POINT ( 'NONE',  ( 0.0000000000000000000, 0.0000000000000000000, 279.3999999999999800 ) ) ;
#226 = PERSON_AND_ORGANIZATION ( #51, #24 ) ;
#227 = CARTESIAN_POINT ( 'NONE',  ( 0.0000000000000000000, 279.2297970691354900, -9.750919378674758800 ) ) ;
#228 = ORIENTED_EDGE ( 'NONE', *, *, #266, .F. ) ;
#229 = VERTEX_POINT ( 'NONE', #14 ) ;
#230 = ORIENTED_EDGE ( 'NONE', *, *, #46, .T. ) ;
#231 = CIRCLE ( 'NONE', #131, 4.000000000000003600 ) ;
#232 = ADVANCED_FACE ( 'NONE', ( #261 ), #157, .F. ) ;
#233 = TOROIDAL_SURFACE ( 'NONE', #143, 275.3999999999999800, 4.000000000000001800 ) ;
#234 = CARTESIAN_POINT ( 'NONE',  ( 0.0000000000000000000, 0.0000000000000000000, 0.0000000000000000000 ) ) ;
#235 = DIRECTION ( 'NONE',  ( 0.0000000000000000000, 0.0000000000000000000, 1.000000000000000000 ) ) ;
#236 = CARTESIAN_POINT ( 'NONE',  ( 0.0000000000000000000, 0.0000000000000000000, 0.0000000000000000000 ) ) ;
#237 = DIRECTION ( 'NONE',  ( 0.0000000000000000000, 0.0000000000000000000, 1.000000000000000000 ) ) ;
#238 = DIRECTION ( 'NONE',  ( -1.000000000000000000, -0.0000000000000000000, -0.0000000000000000000 ) ) ;
#239 = APPROVAL_STATUS ( 'not_yet_approved' ) ;
#240 = DIRECTION ( 'NONE',  ( -1.000000000000000000, -0.0000000000000000000, -0.0000000000000000000 ) ) ;
#241 = EDGE_CURVE ( 'NONE', #126, #248, #174, .T. ) ;
#242 = DATE_AND_TIME ( #9, #79 ) ;
#243 = ORIENTED_EDGE ( 'NONE', *, *, #241, .F. ) ;
#244 = ORIENTED_EDGE ( 'NONE', *, *, #245, .F. ) ;
#245 = EDGE_CURVE ( 'NONE', #126, #102, #263, .T. ) ;
#246 = PERSON_AND_ORGANIZATION ( #51, #24 ) ;
#247 = ORIENTED_EDGE ( 'NONE', *, *, #276, .F. ) ;
#248 = VERTEX_POINT ( 'NONE', #136 ) ;
#249 = COORDINATED_UNIVERSAL_TIME_OFFSET ( 8, 0, .AHEAD. ) ;
#250 = CIRCLE ( 'NONE', #171, 4.000000000000001800 ) ;
#251 = CARTESIAN_POINT ( 'NONE',  ( 0.0000000000000000000, 275.3999999999999800, 0.0000000000000000000 ) ) ;
#252 = PERSON_AND_ORGANIZATION ( #51, #24 ) ;
#253 = PERSON_AND_ORGANIZATION_ROLE ( 'creator' ) ;
#254 = EDGE_LOOP ( 'NONE', ( #144, #215 ) ) ;
#255 = CARTESIAN_POINT ( 'NONE',  ( 0.0000000000000000000, 0.0000000000000000000, 0.0000000000000000000 ) ) ;
#256 = LOCAL_TIME ( 10, 4, 40.00000000000000000, #30 ) ;
#257 = UNCERTAINTY_MEASURE_WITH_UNIT (LENGTH_MEASURE( 1.000000000000000100E-005 ), #69, 'distance_accuracy_value', 'NONE');
#258 = DIRECTION ( 'NONE',  ( 0.0000000000000000000, 0.0000000000000000000, 1.000000000000000000 ) ) ;
#259 = DIRECTION ( 'NONE',  ( -1.000000000000000000, -0.0000000000000000000, -0.0000000000000000000 ) ) ;
#260 = FACE_OUTER_BOUND ( 'NONE', #271, .T. ) ;
#261 = FACE_OUTER_BOUND ( 'NONE', #192, .T. ) ;
#262 = CALENDAR_DATE ( 2018, 18, 7 ) ;
#263 = CIRCLE ( 'NONE', #78, 279.3999999999999800 ) ;
#264 = ORIENTED_EDGE ( 'NONE', *, *, #34, .T. ) ;
#265 = ORIENTED_EDGE ( 'NONE', *, *, #129, .T. ) ;
#266 = EDGE_CURVE ( 'NONE', #81, #229, #43, .T. ) ;
#267 = TOROIDAL_SURFACE ( 'NONE', #112, 275.3999999999999800, 4.000000000000001800 ) ;
#268 = PRODUCT ( '20012341', '20012341', '', ( #165 ) ) ;
#269 = DIRECTION ( 'NONE',  ( 1.000000000000000000, 0.0000000000000000000, 0.0000000000000000000 ) ) ;
#270 = ORIENTED_EDGE ( 'NONE', *, *, #34, .F. ) ;
#271 = EDGE_LOOP ( 'NONE', ( #244, #57, #107, #109 ) ) ;
#272 = CARTESIAN_POINT ( 'NONE',  ( 0.0000000000000000000, 275.2322337610590900, -9.611321391864814600 ) ) ;
#273 = FACE_OUTER_BOUND ( 'NONE', #113, .T. ) ;
#274 = DIRECTION ( 'NONE',  ( 1.000000000000000000, 0.0000000000000000000, 0.0000000000000000000 ) ) ;
#275 = DIRECTION ( 'NONE',  ( 1.000000000000000000, 0.0000000000000000000, 0.0000000000000000000 ) ) ;
#276 = EDGE_CURVE ( 'NONE', #248, #176, #214, .T. ) ;
#277 = SECURITY_CLASSIFICATION_LEVEL ( 'unclassified' ) ;
#278 = DIRECTION ( 'NONE',  ( 0.0000000000000000000, 0.0000000000000000000, 1.000000000000000000 ) ) ;
#279 = CARTESIAN_POINT ( 'NONE',  ( 0.0000000000000000000, 3.323691412885916600E-014, -271.3999999999999800 ) ) ;
#280 = CARTESIAN_POINT ( 'NONE',  ( 4.898587196589415800E-016, 0.0000000000000000000, 0.0000000000000000000 ) ) ;
#281 = FACE_OUTER_BOUND ( 'NONE', #42, .T. ) ;
ENDSEC;
END-ISO-10303-21;
