ISO-10303-21;
HEADER;
FILE_DESCRIPTION (( 'STEP AP203' ),
    '1' );
FILE_NAME ('20012141.STEP',
    '2018-07-18T02:04:27',
    ( '' ),
    ( '' ),
    'SwSTEP 2.0',
    'SolidWorks 2014',
    '' );
FILE_SCHEMA (( 'CONFIG_CONTROL_DESIGN' ));
ENDSEC;

DATA;
#1 = SECURITY_CLASSIFICATION ( '', '', #160 ) ;
#2 = CC_DESIGN_PERSON_AND_ORGANIZATION_ASSIGNMENT ( #263, #279, ( #11 ) ) ;
#3 = CARTESIAN_POINT ( 'NONE',  ( 0.0000000000000000000, 0.0000000000000000000, 0.0000000000000000000 ) ) ;
#4 = AXIS2_PLACEMENT_3D ( 'NONE', #86, #115, #159 ) ;
#5 = CC_DESIGN_PERSON_AND_ORGANIZATION_ASSIGNMENT ( #44, #138, ( #11 ) ) ;
#6 = DIRECTION ( 'NONE',  ( 0.0000000000000000000, 0.0000000000000000000, 1.000000000000000000 ) ) ;
#7 = DIRECTION ( 'NONE',  ( -1.000000000000000000, -0.0000000000000000000, -0.0000000000000000000 ) ) ;
#8 = CC_DESIGN_APPROVAL ( #9, ( #11 ) ) ;
#9 = APPROVAL ( #120, 'Î´Ö¸¶¨' ) ;
#10 = DIRECTION ( 'NONE',  ( 1.000000000000000000, 0.0000000000000000000, -0.0000000000000000000 ) ) ;
#11 = PRODUCT_DEFINITION_FORMATION_WITH_SPECIFIED_SOURCE ( 'ÈÎºÎ', '', #239, .NOT_KNOWN. ) ;
#12 = DIRECTION ( 'NONE',  ( 0.0000000000000000000, 0.0000000000000000000, 1.000000000000000000 ) ) ;
#13 = DIRECTION ( 'NONE',  ( 0.0000000000000000000, 0.0000000000000000000, 1.000000000000000000 ) ) ;
#14 = MECHANICAL_CONTEXT ( 'NONE', #276, 'mechanical' ) ;
#15 = CC_DESIGN_DATE_AND_TIME_ASSIGNMENT ( #28, #237, ( #27 ) ) ;
#16 = TOROIDAL_SURFACE ( 'NONE', #101, 225.3999999999999500, 4.000000000000001800 ) ;
#17 = CARTESIAN_POINT ( 'NONE',  ( 0.0000000000000000000, 0.0000000000000000000, 221.3999999999999500 ) ) ;
#18 = CC_DESIGN_PERSON_AND_ORGANIZATION_ASSIGNMENT ( #260, #93, ( #27 ) ) ;
#19 = PERSON_AND_ORGANIZATION_ROLE ( 'classification_officer' ) ;
#20 = EDGE_LOOP ( 'NONE', ( #143, #140, #94, #257 ) ) ;
#21 = DIRECTION ( 'NONE',  ( -1.000000000000000000, -0.0000000000000000000, -0.0000000000000000000 ) ) ;
#22 = CC_DESIGN_APPROVAL ( #24, ( #27 ) ) ;
#23 = ORIENTED_EDGE ( 'NONE', *, *, #139, .T. ) ;
#24 = APPROVAL ( #71, 'Î´Ö¸¶¨' ) ;
#25 = EDGE_LOOP ( 'NONE', ( #98, #103, #46, #202 ) ) ;
#26 = LOCAL_TIME ( 10, 4, 27.00000000000000000, #95 ) ;
#27 = PRODUCT_DEFINITION ( 'Î´Öª', '', #11, #128 ) ;
#28 = DATE_AND_TIME ( #97, #150 ) ;
#29 = CC_DESIGN_PERSON_AND_ORGANIZATION_ASSIGNMENT ( #170, #181, ( #239 ) ) ;
#30 = ADVANCED_FACE ( 'NONE', ( #228 ), #198, .T. ) ;
#31 = ORIENTED_EDGE ( 'NONE', *, *, #197, .T. ) ;
#32 =( GEOMETRIC_REPRESENTATION_CONTEXT ( 3 ) GLOBAL_UNCERTAINTY_ASSIGNED_CONTEXT ( ( #175 ) ) GLOBAL_UNIT_ASSIGNED_CONTEXT ( ( #219, #90, #235 ) ) REPRESENTATION_CONTEXT ( 'NONE', 'WORKASPACE' ) );
#33 = EDGE_LOOP ( 'NONE', ( #91, #156 ) ) ;
#34 = CALENDAR_DATE ( 2018, 18, 7 ) ;
#35 = ADVANCED_FACE ( 'NONE', ( #142 ), #154, .T. ) ;
#36 = APPROVAL_DATE_TIME ( #100, #24 ) ;
#37 = AXIS2_PLACEMENT_3D ( 'NONE', #38, #196, #69 ) ;
#38 = CARTESIAN_POINT ( 'NONE',  ( 0.0000000000000000000, 225.3999999999999800, 0.0000000000000000000 ) ) ;
#39 = CARTESIAN_POINT ( 'NONE',  ( 4.898587196589413800E-016, 221.3999999999999800, 0.0000000000000000000 ) ) ;
#40 = TOROIDAL_SURFACE ( 'NONE', #52, 225.3999999999999500, 4.000000000000001800 ) ;
#41 = APPLICATION_CONTEXT ( 'configuration controlled 3d designs of mechanical parts and assemblies' ) ;
#42 = CC_DESIGN_PERSON_AND_ORGANIZATION_ASSIGNMENT ( #212, #19, ( #1 ) ) ;
#43 = APPROVAL_STATUS ( 'not_yet_approved' ) ;
#44 = PERSON_AND_ORGANIZATION ( #262, #241 ) ;
#45 = APPROVAL_PERSON_ORGANIZATION ( #109, #24, #222 ) ;
#46 = ORIENTED_EDGE ( 'NONE', *, *, #184, .T. ) ;
#47 = AXIS2_PLACEMENT_3D ( 'NONE', #135, #275, #155 ) ;
#48 = FACE_OUTER_BOUND ( 'NONE', #20, .T. ) ;
#49 = ADVANCED_BREP_SHAPE_REPRESENTATION ( '20012141', ( #259, #4 ), #32 ) ;
#50 = ORIENTED_EDGE ( 'NONE', *, *, #158, .F. ) ;
#51 = AXIS2_PLACEMENT_3D ( 'NONE', #195, #67, #218 ) ;
#52 = AXIS2_PLACEMENT_3D ( 'NONE', #192, #64, #216 ) ;
#53 = AXIS2_PLACEMENT_3D ( 'NONE', #131, #270, #152 ) ;
#54 = AXIS2_PLACEMENT_3D ( 'NONE', #272, #153, #12 ) ;
#55 = ADVANCED_FACE ( 'NONE', ( #80 ), #185, .T. ) ;
#56 = AXIS2_PLACEMENT_3D ( 'NONE', #177, #21, #123 ) ;
#57 = CIRCLE ( 'NONE', #78, 4.000000000000003600 ) ;
#58 = AXIS2_PLACEMENT_3D ( 'NONE', #231, #72, #149 ) ;
#59 = PRODUCT_DEFINITION_SHAPE ( 'NONE', 'NONE',  #27 ) ;
#60 = CARTESIAN_POINT ( 'NONE',  ( 0.0000000000000000000, 0.0000000000000000000, 0.0000000000000000000 ) ) ;
#61 = AXIS2_PLACEMENT_3D ( 'NONE', #82, #132, #10 ) ;
#62 = AXIS2_PLACEMENT_3D ( 'NONE', #190, #157, #217 ) ;
#63 = AXIS2_PLACEMENT_3D ( 'NONE', #85, #112, #182 ) ;
#64 = DIRECTION ( 'NONE',  ( -1.000000000000000000, -0.0000000000000000000, -0.0000000000000000000 ) ) ;
#65 = CARTESIAN_POINT ( 'NONE',  ( 0.0000000000000000000, 2.760353885278133600E-014, -225.3999999999999500 ) ) ;
#66 = CIRCLE ( 'NONE', #77, 229.3999999999999800 ) ;
#67 = DIRECTION ( 'NONE',  ( 0.0000000000000000000, 0.03489949670248662000, 0.9993908270190962100 ) ) ;
#68 = DIRECTION ( 'NONE',  ( -0.0000000000000000000, 1.000000000000000000, 1.224646799147353200E-016 ) ) ;
#69 = DIRECTION ( 'NONE',  ( 1.000000000000000000, 0.0000000000000000000, 0.0000000000000000000 ) ) ;
#70 = DIRECTION ( 'NONE',  ( 0.0000000000000000000, -1.224646799147349500E-016, 1.000000000000000000 ) ) ;
#71 = APPROVAL_STATUS ( 'not_yet_approved' ) ;
#72 = DIRECTION ( 'NONE',  ( 0.0000000000000000000, 0.03489949670248662000, 0.9993908270190962100 ) ) ;
#73 = AXIS2_PLACEMENT_3D ( 'NONE', #118, #130, #134 ) ;
#74 = AXIS2_PLACEMENT_3D ( 'NONE', #88, #92, #110 ) ;
#75 = AXIS2_PLACEMENT_3D ( 'NONE', #65, #68, #70 ) ;
#76 = VERTEX_POINT ( 'NONE', #223 ) ;
#77 = AXIS2_PLACEMENT_3D ( 'NONE', #236, #256, #13 ) ;
#78 = AXIS2_PLACEMENT_3D ( 'NONE', #273, #277, #280 ) ;
#79 = ADVANCED_FACE ( 'NONE', ( #281 ), #16, .T. ) ;
#80 = FACE_OUTER_BOUND ( 'NONE', #141, .T. ) ;
#81 = VERTEX_POINT ( 'NONE', #210 ) ;
#82 = CARTESIAN_POINT ( 'NONE',  ( 0.0000000000000000000, 225.3999999999999800, 0.0000000000000000000 ) ) ;
#83 = DIRECTION ( 'NONE',  ( -1.000000000000000000, -0.0000000000000000000, -0.0000000000000000000 ) ) ;
#84 = LOCAL_TIME ( 10, 4, 27.00000000000000000, #145 ) ;
#85 = CARTESIAN_POINT ( 'NONE',  ( 0.0000000000000000000, 0.0000000000000000000, 0.0000000000000000000 ) ) ;
#86 = CARTESIAN_POINT ( 'NONE',  ( 0.0000000000000000000, 0.0000000000000000000, 0.0000000000000000000 ) ) ;
#87 = DIRECTION ( 'NONE',  ( 0.0000000000000000000, 0.0000000000000000000, 1.000000000000000000 ) ) ;
#88 = CARTESIAN_POINT ( 'NONE',  ( 0.0000000000000000000, 0.0000000000000000000, 0.0000000000000000000 ) ) ;
#89 = APPROVAL ( #43, 'Î´Ö¸¶¨' ) ;
#90 =( NAMED_UNIT ( * ) PLANE_ANGLE_UNIT ( ) SI_UNIT ( $, .RADIAN. ) );
#91 = ORIENTED_EDGE ( 'NONE', *, *, #127, .F. ) ;
#92 = DIRECTION ( 'NONE',  ( -1.000000000000000000, -0.0000000000000000000, -0.0000000000000000000 ) ) ;
#93 = PERSON_AND_ORGANIZATION_ROLE ( 'creator' ) ;
#94 = ORIENTED_EDGE ( 'NONE', *, *, #278, .T. ) ;
#95 = COORDINATED_UNIVERSAL_TIME_OFFSET ( 8, 0, .AHEAD. ) ;
#96 = AXIS2_PLACEMENT_3D ( 'NONE', #233, #151, #251 ) ;
#97 = CALENDAR_DATE ( 2018, 18, 7 ) ;
#98 = ORIENTED_EDGE ( 'NONE', *, *, #166, .F. ) ;
#99 = LOCAL_TIME ( 10, 4, 27.00000000000000000, #161 ) ;
#100 = DATE_AND_TIME ( #162, #213 ) ;
#101 = AXIS2_PLACEMENT_3D ( 'NONE', #271, #83, #87 ) ;
#102 = SHAPE_DEFINITION_REPRESENTATION ( #59, #49 ) ;
#103 = ORIENTED_EDGE ( 'NONE', *, *, #267, .F. ) ;
#104 = AXIS2_PLACEMENT_3D ( 'NONE', #60, #249, #121 ) ;
#105 = CC_DESIGN_SECURITY_CLASSIFICATION ( #1, ( #11 ) ) ;
#106 = CIRCLE ( 'NONE', #56, 229.3999999999999800 ) ;
#107 = CC_DESIGN_APPROVAL ( #89, ( #1 ) ) ;
#108 = APPROVAL_DATE_TIME ( #169, #9 ) ;
#109 = PERSON_AND_ORGANIZATION ( #262, #241 ) ;
#110 = DIRECTION ( 'NONE',  ( 0.0000000000000000000, 0.0000000000000000000, 1.000000000000000000 ) ) ;
#111 = PLANE ( 'NONE',  #61 ) ;
#112 = DIRECTION ( 'NONE',  ( -1.000000000000000000, -0.0000000000000000000, -0.0000000000000000000 ) ) ;
#113 = EDGE_LOOP ( 'NONE', ( #266, #119, #242, #269 ) ) ;
#114 = CC_DESIGN_DATE_AND_TIME_ASSIGNMENT ( #258, #183, ( #1 ) ) ;
#115 = DIRECTION ( 'NONE',  ( 0.0000000000000000000, 0.0000000000000000000, 1.000000000000000000 ) ) ;
#116 = AXIS2_PLACEMENT_3D ( 'NONE', #238, #176, #136 ) ;
#117 = TOROIDAL_SURFACE ( 'NONE', #63, 225.3999999999999500, 4.000000000000001800 ) ;
#118 = CARTESIAN_POINT ( 'NONE',  ( 4.898587196589415800E-016, 0.0000000000000000000, 0.0000000000000000000 ) ) ;
#119 = ORIENTED_EDGE ( 'NONE', *, *, #244, .F. ) ;
#120 = APPROVAL_STATUS ( 'not_yet_approved' ) ;
#121 = DIRECTION ( 'NONE',  ( 0.0000000000000000000, 0.0000000000000000000, 1.000000000000000000 ) ) ;
#122 = AXIS2_PLACEMENT_3D ( 'NONE', #220, #193, #180 ) ;
#123 = DIRECTION ( 'NONE',  ( 0.0000000000000000000, 0.0000000000000000000, 1.000000000000000000 ) ) ;
#124 = CIRCLE ( 'NONE', #75, 4.000000000000003600 ) ;
#125 = AXIS2_PLACEMENT_3D ( 'NONE', #3, #7, #6 ) ;
#126 = EDGE_CURVE ( 'NONE', #221, #187, #230, .T. ) ;
#127 = EDGE_CURVE ( 'NONE', #226, #81, #179, .T. ) ;
#128 = DESIGN_CONTEXT ( 'detailed design', #41, 'design' ) ;
#129 = PRODUCT_RELATED_PRODUCT_CATEGORY ( 'detail', '', ( #239 ) ) ;
#130 = DIRECTION ( 'NONE',  ( -1.000000000000000000, -0.0000000000000000000, -0.0000000000000000000 ) ) ;
#131 = CARTESIAN_POINT ( 'NONE',  ( 0.0000000000000000000, 0.0000000000000000000, 0.0000000000000000000 ) ) ;
#132 = DIRECTION ( 'NONE',  ( 0.0000000000000000000, 0.0000000000000000000, 1.000000000000000000 ) ) ;
#133 = CARTESIAN_POINT ( 'NONE',  ( 0.0000000000000000000, 2.711368013312239600E-014, -221.3999999999999500 ) ) ;
#134 = DIRECTION ( 'NONE',  ( 0.0000000000000000000, 0.0000000000000000000, 1.000000000000000000 ) ) ;
#135 = CARTESIAN_POINT ( 'NONE',  ( 0.0000000000000000000, 2.760353885278133600E-014, -225.3999999999999500 ) ) ;
#136 = DIRECTION ( 'NONE',  ( 1.000000000000000000, 0.0000000000000000000, 0.0000000000000000000 ) ) ;
#137 = FACE_OUTER_BOUND ( 'NONE', #172, .T. ) ;
#138 = PERSON_AND_ORGANIZATION_ROLE ( 'creator' ) ;
#139 = EDGE_CURVE ( 'NONE', #187, #221, #57, .T. ) ;
#140 = ORIENTED_EDGE ( 'NONE', *, *, #158, .T. ) ;
#141 = EDGE_LOOP ( 'NONE', ( #50, #247, #253, #243 ) ) ;
#142 = FACE_OUTER_BOUND ( 'NONE', #168, .T. ) ;
#143 = ORIENTED_EDGE ( 'NONE', *, *, #139, .F. ) ;
#144 = APPROVAL_DATE_TIME ( #203, #89 ) ;
#145 = COORDINATED_UNIVERSAL_TIME_OFFSET ( 8, 0, .AHEAD. ) ;
#146 = VERTEX_POINT ( 'NONE', #234 ) ;
#147 = ORIENTED_EDGE ( 'NONE', *, *, #163, .T. ) ;
#148 = APPROVAL_PERSON_ORGANIZATION ( #207, #89, #201 ) ;
#149 = DIRECTION ( 'NONE',  ( 1.000000000000000000, 0.0000000000000000000, 0.0000000000000000000 ) ) ;
#150 = LOCAL_TIME ( 10, 4, 27.00000000000000000, #208 ) ;
#151 = DIRECTION ( 'NONE',  ( 0.0000000000000000000, 0.0000000000000000000, 1.000000000000000000 ) ) ;
#152 = DIRECTION ( 'NONE',  ( 0.0000000000000000000, 0.0000000000000000000, 1.000000000000000000 ) ) ;
#153 = DIRECTION ( 'NONE',  ( -1.000000000000000000, -0.0000000000000000000, -0.0000000000000000000 ) ) ;
#154 = PLANE ( 'NONE',  #116 ) ;
#155 = DIRECTION ( 'NONE',  ( 0.0000000000000000000, -1.224646799147349500E-016, 1.000000000000000000 ) ) ;
#156 = ORIENTED_EDGE ( 'NONE', *, *, #278, .F. ) ;
#157 = DIRECTION ( 'NONE',  ( -1.000000000000000000, -0.0000000000000000000, -0.0000000000000000000 ) ) ;
#158 = EDGE_CURVE ( 'NONE', #187, #81, #66, .T. ) ;
#159 = DIRECTION ( 'NONE',  ( 1.000000000000000000, 0.0000000000000000000, 0.0000000000000000000 ) ) ;
#160 = SECURITY_CLASSIFICATION_LEVEL ( 'unclassified' ) ;
#161 = COORDINATED_UNIVERSAL_TIME_OFFSET ( 8, 0, .AHEAD. ) ;
#162 = CALENDAR_DATE ( 2018, 18, 7 ) ;
#163 = EDGE_CURVE ( 'NONE', #246, #245, #124, .T. ) ;
#164 = CIRCLE ( 'NONE', #37, 4.000000000000001800 ) ;
#165 = ORIENTED_EDGE ( 'NONE', *, *, #194, .F. ) ;
#166 = EDGE_CURVE ( 'NONE', #246, #187, #274, .T. ) ;
#167 = FACE_OUTER_BOUND ( 'NONE', #33, .T. ) ;
#168 = EDGE_LOOP ( 'NONE', ( #205, #31 ) ) ;
#169 = DATE_AND_TIME ( #224, #84 ) ;
#170 = PERSON_AND_ORGANIZATION ( #262, #241 ) ;
#171 = CIRCLE ( 'NONE', #54, 221.3999999999999500 ) ;
#172 = EDGE_LOOP ( 'NONE', ( #200, #186, #147, #165 ) ) ;
#173 = CIRCLE ( 'NONE', #58, 4.000000000000001800 ) ;
#174 = CLOSED_SHELL ( 'NONE', ( #189, #30, #229, #232, #79, #55, #35, #191 ) ) ;
#175 = UNCERTAINTY_MEASURE_WITH_UNIT (LENGTH_MEASURE( 1.000000000000000100E-005 ), #219, 'distance_accuracy_value', 'NONE');
#176 = DIRECTION ( 'NONE',  ( -0.0000000000000000000, 0.03489949670248662600, 0.9993908270190963200 ) ) ;
#177 = CARTESIAN_POINT ( 'NONE',  ( 0.0000000000000000000, 0.0000000000000000000, 0.0000000000000000000 ) ) ;
#178 = CARTESIAN_POINT ( 'NONE',  ( 0.0000000000000000000, 2.809339757244028000E-014, -229.3999999999999800 ) ) ;
#179 = CIRCLE ( 'NONE', #96, 4.000000000000001800 ) ;
#180 = DIRECTION ( 'NONE',  ( 0.0000000000000000000, 0.0000000000000000000, -1.000000000000000000 ) ) ;
#181 = PERSON_AND_ORGANIZATION_ROLE ( 'design_owner' ) ;
#182 = DIRECTION ( 'NONE',  ( 0.0000000000000000000, 0.0000000000000000000, 1.000000000000000000 ) ) ;
#183 = DATE_TIME_ROLE ( 'classification_date' ) ;
#184 = EDGE_CURVE ( 'NONE', #245, #221, #227, .T. ) ;
#185 = TOROIDAL_SURFACE ( 'NONE', #104, 225.3999999999999500, 4.000000000000001800 ) ;
#186 = ORIENTED_EDGE ( 'NONE', *, *, #211, .T. ) ;
#187 = VERTEX_POINT ( 'NONE', #252 ) ;
#188 = ORIENTED_EDGE ( 'NONE', *, *, #184, .F. ) ;
#189 = ADVANCED_FACE ( 'NONE', ( #48 ), #117, .T. ) ;
#190 = CARTESIAN_POINT ( 'NONE',  ( 4.898587196589415800E-016, 0.0000000000000000000, 0.0000000000000000000 ) ) ;
#191 = ADVANCED_FACE ( 'NONE', ( #167 ), #111, .F. ) ;
#192 = CARTESIAN_POINT ( 'NONE',  ( 0.0000000000000000000, 0.0000000000000000000, 0.0000000000000000000 ) ) ;
#193 = DIRECTION ( 'NONE',  ( 0.0000000000000000000, -1.000000000000000000, 0.0000000000000000000 ) ) ;
#194 = EDGE_CURVE ( 'NONE', #146, #245, #268, .T. ) ;
#195 = CARTESIAN_POINT ( 'NONE',  ( 0.0000000000000000000, 225.2626924101042800, -7.866346556740483100 ) ) ;
#196 = DIRECTION ( 'NONE',  ( 0.0000000000000000000, 0.0000000000000000000, 1.000000000000000000 ) ) ;
#197 = EDGE_CURVE ( 'NONE', #76, #146, #173, .T. ) ;
#198 = TOROIDAL_SURFACE ( 'NONE', #125, 225.3999999999999500, 4.000000000000001800 ) ;
#199 = APPLICATION_PROTOCOL_DEFINITION ( 'international standard', 'config_control_design', 1994, #41 ) ;
#200 = ORIENTED_EDGE ( 'NONE', *, *, #197, .F. ) ;
#201 = APPROVAL_ROLE ( '' ) ;
#202 = ORIENTED_EDGE ( 'NONE', *, *, #126, .T. ) ;
#203 = DATE_AND_TIME ( #248, #26 ) ;
#204 = APPROVAL_PERSON_ORGANIZATION ( #250, #9, #255 ) ;
#205 = ORIENTED_EDGE ( 'NONE', *, *, #244, .T. ) ;
#206 = EDGE_LOOP ( 'NONE', ( #209, #215, #23, #188 ) ) ;
#207 = PERSON_AND_ORGANIZATION ( #262, #241 ) ;
#208 = COORDINATED_UNIVERSAL_TIME_OFFSET ( 8, 0, .AHEAD. ) ;
#209 = ORIENTED_EDGE ( 'NONE', *, *, #163, .F. ) ;
#210 = CARTESIAN_POINT ( 'NONE',  ( 0.0000000000000000000, 229.4000000000000100, 0.0000000000000000000 ) ) ;
#211 = EDGE_CURVE ( 'NONE', #76, #246, #106, .T. ) ;
#212 = PERSON_AND_ORGANIZATION ( #262, #241 ) ;
#213 = LOCAL_TIME ( 10, 4, 27.00000000000000000, #264 ) ;
#214 = CIRCLE ( 'NONE', #47, 4.000000000000003600 ) ;
#215 = ORIENTED_EDGE ( 'NONE', *, *, #166, .T. ) ;
#216 = DIRECTION ( 'NONE',  ( 0.0000000000000000000, 0.0000000000000000000, 1.000000000000000000 ) ) ;
#217 = DIRECTION ( 'NONE',  ( 0.0000000000000000000, 0.0000000000000000000, 1.000000000000000000 ) ) ;
#218 = DIRECTION ( 'NONE',  ( 1.000000000000000000, 0.0000000000000000000, 0.0000000000000000000 ) ) ;
#219 =( LENGTH_UNIT ( ) NAMED_UNIT ( * ) SI_UNIT ( .MILLI., .METRE. ) );
#220 = CARTESIAN_POINT ( 'NONE',  ( 0.0000000000000000000, 0.0000000000000000000, 225.3999999999999500 ) ) ;
#221 = VERTEX_POINT ( 'NONE', #17 ) ;
#222 = APPROVAL_ROLE ( '' ) ;
#223 = CARTESIAN_POINT ( 'NONE',  ( 0.0000000000000000000, 229.2602557181806400, -8.005944543550427300 ) ) ;
#224 = CALENDAR_DATE ( 2018, 18, 7 ) ;
#225 = FACE_OUTER_BOUND ( 'NONE', #113, .T. ) ;
#226 = VERTEX_POINT ( 'NONE', #39 ) ;
#227 = CIRCLE ( 'NONE', #73, 221.3999999999999500 ) ;
#228 = FACE_OUTER_BOUND ( 'NONE', #206, .T. ) ;
#229 = ADVANCED_FACE ( 'NONE', ( #137 ), #261, .T. ) ;
#230 = CIRCLE ( 'NONE', #122, 4.000000000000003600 ) ;
#231 = CARTESIAN_POINT ( 'NONE',  ( 0.0000000000000000000, 225.2626924101042800, -7.866346556740483100 ) ) ;
#232 = ADVANCED_FACE ( 'NONE', ( #225 ), #40, .T. ) ;
#233 = CARTESIAN_POINT ( 'NONE',  ( 0.0000000000000000000, 225.3999999999999800, 0.0000000000000000000 ) ) ;
#234 = CARTESIAN_POINT ( 'NONE',  ( 4.898587196589415800E-016, 221.2651291020278800, -7.726748569930535400 ) ) ;
#235 =( NAMED_UNIT ( * ) SI_UNIT ( $, .STERADIAN. ) SOLID_ANGLE_UNIT ( ) );
#236 = CARTESIAN_POINT ( 'NONE',  ( 0.0000000000000000000, 0.0000000000000000000, 0.0000000000000000000 ) ) ;
#237 = DATE_TIME_ROLE ( 'creation_date' ) ;
#238 = CARTESIAN_POINT ( 'NONE',  ( 0.0000000000000000000, 225.2626924101042800, -7.866346556740483100 ) ) ;
#239 = PRODUCT ( '20012141', '20012141', '', ( #14 ) ) ;
#240 = EDGE_CURVE ( 'NONE', #221, #226, #171, .T. ) ;
#241 = ORGANIZATION ( 'Î´Ö¸¶¨', 'Î´Ö¸¶¨', '' ) ;
#242 = ORIENTED_EDGE ( 'NONE', *, *, #194, .T. ) ;
#243 = ORIENTED_EDGE ( 'NONE', *, *, #127, .T. ) ;
#244 = EDGE_CURVE ( 'NONE', #146, #76, #265, .T. ) ;
#245 = VERTEX_POINT ( 'NONE', #133 ) ;
#246 = VERTEX_POINT ( 'NONE', #178 ) ;
#247 = ORIENTED_EDGE ( 'NONE', *, *, #126, .F. ) ;
#248 = CALENDAR_DATE ( 2018, 18, 7 ) ;
#249 = DIRECTION ( 'NONE',  ( -1.000000000000000000, -0.0000000000000000000, -0.0000000000000000000 ) ) ;
#250 = PERSON_AND_ORGANIZATION ( #262, #241 ) ;
#251 = DIRECTION ( 'NONE',  ( 1.000000000000000000, 0.0000000000000000000, 0.0000000000000000000 ) ) ;
#252 = CARTESIAN_POINT ( 'NONE',  ( 0.0000000000000000000, 0.0000000000000000000, 229.3999999999999800 ) ) ;
#253 = ORIENTED_EDGE ( 'NONE', *, *, #240, .T. ) ;
#254 = APPLICATION_PROTOCOL_DEFINITION ( 'international standard', 'config_control_design', 1994, #276 ) ;
#255 = APPROVAL_ROLE ( '' ) ;
#256 = DIRECTION ( 'NONE',  ( -1.000000000000000000, -0.0000000000000000000, -0.0000000000000000000 ) ) ;
#257 = ORIENTED_EDGE ( 'NONE', *, *, #240, .F. ) ;
#258 = DATE_AND_TIME ( #34, #99 ) ;
#259 = MANIFOLD_SOLID_BREP ( 'Ðý×ª1', #174 ) ;
#260 = PERSON_AND_ORGANIZATION ( #262, #241 ) ;
#261 = TOROIDAL_SURFACE ( 'NONE', #53, 225.3999999999999500, 4.000000000000001800 ) ;
#262 = PERSON ( 'Î´Ö¸¶¨', 'Î´Ö¸¶¨', 'Î´Ö¸¶¨', ('Î´Ö¸¶¨'), ('Î´Ö¸¶¨'), ('Î´Ö¸¶¨') ) ;
#263 = PERSON_AND_ORGANIZATION ( #262, #241 ) ;
#264 = COORDINATED_UNIVERSAL_TIME_OFFSET ( 8, 0, .AHEAD. ) ;
#265 = CIRCLE ( 'NONE', #51, 4.000000000000001800 ) ;
#266 = ORIENTED_EDGE ( 'NONE', *, *, #211, .F. ) ;
#267 = EDGE_CURVE ( 'NONE', #245, #246, #214, .T. ) ;
#268 = CIRCLE ( 'NONE', #62, 221.3999999999999500 ) ;
#269 = ORIENTED_EDGE ( 'NONE', *, *, #267, .T. ) ;
#270 = DIRECTION ( 'NONE',  ( -1.000000000000000000, -0.0000000000000000000, -0.0000000000000000000 ) ) ;
#271 = CARTESIAN_POINT ( 'NONE',  ( 0.0000000000000000000, 0.0000000000000000000, 0.0000000000000000000 ) ) ;
#272 = CARTESIAN_POINT ( 'NONE',  ( 4.898587196589415800E-016, 0.0000000000000000000, 0.0000000000000000000 ) ) ;
#273 = CARTESIAN_POINT ( 'NONE',  ( 0.0000000000000000000, 0.0000000000000000000, 225.3999999999999500 ) ) ;
#274 = CIRCLE ( 'NONE', #74, 229.3999999999999800 ) ;
#275 = DIRECTION ( 'NONE',  ( -0.0000000000000000000, 1.000000000000000000, 1.224646799147353200E-016 ) ) ;
#276 = APPLICATION_CONTEXT ( 'configuration controlled 3d designs of mechanical parts and assemblies' ) ;
#277 = DIRECTION ( 'NONE',  ( 0.0000000000000000000, -1.000000000000000000, 0.0000000000000000000 ) ) ;
#278 = EDGE_CURVE ( 'NONE', #81, #226, #164, .T. ) ;
#279 = PERSON_AND_ORGANIZATION_ROLE ( 'design_supplier' ) ;
#280 = DIRECTION ( 'NONE',  ( 0.0000000000000000000, 0.0000000000000000000, -1.000000000000000000 ) ) ;
#281 = FACE_OUTER_BOUND ( 'NONE', #25, .T. ) ;
ENDSEC;
END-ISO-10303-21;
