ISO-10303-21;
HEADER;
FILE_DESCRIPTION (( 'STEP AP203' ),
    '1' );
FILE_NAME ('20011941.STEP',
    '2018-07-18T02:04:13',
    ( '' ),
    ( '' ),
    'SwSTEP 2.0',
    'SolidWorks 2014',
    '' );
FILE_SCHEMA (( 'CONFIG_CONTROL_DESIGN' ));
ENDSEC;

DATA;
#1 = APPROVAL ( #44, 'Î´Ö¸¶¨' ) ;
#2 = ORIENTED_EDGE ( 'NONE', *, *, #244, .T. ) ;
#3 = CC_DESIGN_DATE_AND_TIME_ASSIGNMENT ( #78, #184, ( #10 ) ) ;
#4 = CARTESIAN_POINT ( 'NONE',  ( 0.0000000000000000000, 0.0000000000000000000, 0.0000000000000000000 ) ) ;
#5 = CC_DESIGN_PERSON_AND_ORGANIZATION_ASSIGNMENT ( #18, #17, ( #10 ) ) ;
#6 = DIRECTION ( 'NONE',  ( 0.0000000000000000000, 0.03489949670248662000, 0.9993908270190962100 ) ) ;
#7 = ADVANCED_FACE ( 'NONE', ( #138 ), #205, .T. ) ;
#8 = PERSON_AND_ORGANIZATION ( #102, #45 ) ;
#9 = CARTESIAN_POINT ( 'NONE',  ( 0.0000000000000000000, 0.0000000000000000000, 0.0000000000000000000 ) ) ;
#10 = SECURITY_CLASSIFICATION ( '', '', #164 ) ;
#11 = CC_DESIGN_PERSON_AND_ORGANIZATION_ASSIGNMENT ( #84, #276, ( #19 ) ) ;
#12 = CC_DESIGN_PERSON_AND_ORGANIZATION_ASSIGNMENT ( #143, #135, ( #19 ) ) ;
#13 = DIRECTION ( 'NONE',  ( -1.000000000000000000, -0.0000000000000000000, -0.0000000000000000000 ) ) ;
#14 = MECHANICAL_CONTEXT ( 'NONE', #274, 'mechanical' ) ;
#15 = CC_DESIGN_APPROVAL ( #16, ( #19 ) ) ;
#16 = APPROVAL ( #116, 'Î´Ö¸¶¨' ) ;
#17 = PERSON_AND_ORGANIZATION_ROLE ( 'classification_officer' ) ;
#18 = PERSON_AND_ORGANIZATION ( #102, #45 ) ;
#19 = PRODUCT_DEFINITION_FORMATION_WITH_SPECIFIED_SOURCE ( 'ÈÎºÎ', '', #229, .NOT_KNOWN. ) ;
#20 = DIRECTION ( 'NONE',  ( 0.0000000000000000000, -1.000000000000000000, 0.0000000000000000000 ) ) ;
#21 = CC_DESIGN_DATE_AND_TIME_ASSIGNMENT ( #145, #236, ( #30 ) ) ;
#22 = CALENDAR_DATE ( 2018, 18, 7 ) ;
#23 = COORDINATED_UNIVERSAL_TIME_OFFSET ( 8, 0, .AHEAD. ) ;
#24 = CC_DESIGN_PERSON_AND_ORGANIZATION_ASSIGNMENT ( #93, #91, ( #30 ) ) ;
#25 = EDGE_LOOP ( 'NONE', ( #262, #218, #110, #169 ) ) ;
#26 = CC_DESIGN_APPROVAL ( #28, ( #30 ) ) ;
#27 = DIRECTION ( 'NONE',  ( 0.0000000000000000000, 0.0000000000000000000, 1.000000000000000000 ) ) ;
#28 = APPROVAL ( #72, 'Î´Ö¸¶¨' ) ;
#29 = CARTESIAN_POINT ( 'NONE',  ( 0.0000000000000000000, 185.0372116225856900, -6.461641814465397500 ) ) ;
#30 = PRODUCT_DEFINITION ( 'Î´Öª', '', #19, #126 ) ;
#31 = APPROVAL_DATE_TIME ( #97, #1 ) ;
#32 = DIRECTION ( 'NONE',  ( -1.000000000000000000, -0.0000000000000000000, -0.0000000000000000000 ) ) ;
#33 = CC_DESIGN_PERSON_AND_ORGANIZATION_ASSIGNMENT ( #260, #183, ( #229 ) ) ;
#34 = AXIS2_PLACEMENT_3D ( 'NONE', #158, #234, #163 ) ;
#35 = LOCAL_TIME ( 10, 4, 12.00000000000000000, #98 ) ;
#36 = ORIENTED_EDGE ( 'NONE', *, *, #214, .F. ) ;
#37 = ORIENTED_EDGE ( 'NONE', *, *, #199, .F. ) ;
#38 = FACE_OUTER_BOUND ( 'NONE', #51, .T. ) ;
#39 = CARTESIAN_POINT ( 'NONE',  ( 0.0000000000000000000, 0.0000000000000000000, 0.0000000000000000000 ) ) ;
#40 = EDGE_CURVE ( 'NONE', #215, #219, #226, .T. ) ;
#41 = CARTESIAN_POINT ( 'NONE',  ( 0.0000000000000000000, 0.0000000000000000000, 0.0000000000000000000 ) ) ;
#42 = APPLICATION_CONTEXT ( 'configuration controlled 3d designs of mechanical parts and assemblies' ) ;
#43 = ORIENTED_EDGE ( 'NONE', *, *, #277, .T. ) ;
#44 = APPROVAL_STATUS ( 'not_yet_approved' ) ;
#45 = ORGANIZATION ( 'Î´Ö¸¶¨', 'Î´Ö¸¶¨', '' ) ;
#46 = ORIENTED_EDGE ( 'NONE', *, *, #197, .T. ) ;
#47 = ORIENTED_EDGE ( 'NONE', *, *, #52, .F. ) ;
#48 = CARTESIAN_POINT ( 'NONE',  ( 0.0000000000000000000, 2.294988101602140100E-014, -187.4000000000000100 ) ) ;
#49 = ADVANCED_FACE ( 'NONE', ( #178 ), #83, .T. ) ;
#50 = TOROIDAL_SURFACE ( 'NONE', #115, 185.1500000000000100, 2.250000000000001800 ) ;
#51 = EDGE_LOOP ( 'NONE', ( #174, #221, #264, #113 ) ) ;
#52 = EDGE_CURVE ( 'NONE', #215, #105, #263, .T. ) ;
#53 = SHAPE_DEFINITION_REPRESENTATION ( #63, #81 ) ;
#54 = MANIFOLD_SOLID_BREP ( 'Ðý×ª1', #79 ) ;
#55 =( GEOMETRIC_REPRESENTATION_CONTEXT ( 3 ) GLOBAL_UNCERTAINTY_ASSIGNED_CONTEXT ( ( #267 ) ) GLOBAL_UNIT_ASSIGNED_CONTEXT ( ( #224, #90, #235 ) ) REPRESENTATION_CONTEXT ( 'NONE', 'WORKASPACE' ) );
#56 = CC_DESIGN_APPROVAL ( #1, ( #10 ) ) ;
#57 = AXIS2_PLACEMENT_3D ( 'NONE', #41, #198, #71 ) ;
#58 = AXIS2_PLACEMENT_3D ( 'NONE', #134, #273, #160 ) ;
#59 = DIRECTION ( 'NONE',  ( -1.000000000000000000, -0.0000000000000000000, -0.0000000000000000000 ) ) ;
#60 = AXIS2_PLACEMENT_3D ( 'NONE', #39, #222, #271 ) ;
#61 = CIRCLE ( 'NONE', #57, 187.4000000000000100 ) ;
#62 = AXIS2_PLACEMENT_3D ( 'NONE', #69, #223, #89 ) ;
#63 = PRODUCT_DEFINITION_SHAPE ( 'NONE', 'NONE',  #30 ) ;
#64 = CARTESIAN_POINT ( 'NONE',  ( 0.0000000000000000000, 0.0000000000000000000, 0.0000000000000000000 ) ) ;
#65 = AXIS2_PLACEMENT_3D ( 'NONE', #172, #13, #181 ) ;
#66 = AXIS2_PLACEMENT_3D ( 'NONE', #114, #250, #133 ) ;
#67 = AXIS2_PLACEMENT_3D ( 'NONE', #119, #132, #270 ) ;
#68 = CIRCLE ( 'NONE', #67, 2.250000000000001800 ) ;
#69 = CARTESIAN_POINT ( 'NONE',  ( 2.755455298081546700E-016, 0.0000000000000000000, 0.0000000000000000000 ) ) ;
#70 = AXIS2_PLACEMENT_3D ( 'NONE', #73, #20, #159 ) ;
#71 = DIRECTION ( 'NONE',  ( 0.0000000000000000000, 0.0000000000000000000, 1.000000000000000000 ) ) ;
#72 = APPROVAL_STATUS ( 'not_yet_approved' ) ;
#73 = CARTESIAN_POINT ( 'NONE',  ( 0.0000000000000000000, 0.0000000000000000000, 185.1500000000000100 ) ) ;
#74 = AXIS2_PLACEMENT_3D ( 'NONE', #141, #139, #118 ) ;
#75 = ORIENTED_EDGE ( 'NONE', *, *, #199, .T. ) ;
#76 = AXIS2_PLACEMENT_3D ( 'NONE', #206, #203, #186 ) ;
#77 = AXIS2_PLACEMENT_3D ( 'NONE', #4, #32, #241 ) ;
#78 = DATE_AND_TIME ( #137, #193 ) ;
#79 = CLOSED_SHELL ( 'NONE', ( #7, #251, #140, #269, #166, #192, #49, #189 ) ) ;
#80 = AXIS2_PLACEMENT_3D ( 'NONE', #279, #278, #255 ) ;
#81 = ADVANCED_BREP_SHAPE_REPRESENTATION ( '20011941', ( #54, #34 ), #55 ) ;
#82 = AXIS2_PLACEMENT_3D ( 'NONE', #216, #180, #128 ) ;
#83 = PLANE ( 'NONE',  #123 ) ;
#84 = PERSON_AND_ORGANIZATION ( #102, #45 ) ;
#85 = CARTESIAN_POINT ( 'NONE',  ( 0.0000000000000000000, 0.0000000000000000000, 0.0000000000000000000 ) ) ;
#86 = ORIENTED_EDGE ( 'NONE', *, *, #244, .F. ) ;
#87 = DIRECTION ( 'NONE',  ( -1.000000000000000000, -0.0000000000000000000, -0.0000000000000000000 ) ) ;
#88 = CIRCLE ( 'NONE', #74, 2.250000000000001800 ) ;
#89 = DIRECTION ( 'NONE',  ( 0.0000000000000000000, 0.0000000000000000000, 1.000000000000000000 ) ) ;
#90 =( NAMED_UNIT ( * ) PLANE_ANGLE_UNIT ( ) SI_UNIT ( $, .RADIAN. ) );
#91 = PERSON_AND_ORGANIZATION_ROLE ( 'creator' ) ;
#92 = LOCAL_TIME ( 10, 4, 12.00000000000000000, #150 ) ;
#93 = PERSON_AND_ORGANIZATION ( #102, #45 ) ;
#94 = AXIS2_PLACEMENT_3D ( 'NONE', #239, #185, #171 ) ;
#95 = EDGE_LOOP ( 'NONE', ( #227, #124, #187, #2 ) ) ;
#96 = CIRCLE ( 'NONE', #94, 182.9000000000000100 ) ;
#97 = DATE_AND_TIME ( #161, #212 ) ;
#98 = COORDINATED_UNIVERSAL_TIME_OFFSET ( 8, 0, .AHEAD. ) ;
#99 = ORIENTED_EDGE ( 'NONE', *, *, #266, .F. ) ;
#100 = ORIENTED_EDGE ( 'NONE', *, *, #175, .F. ) ;
#101 = AXIS2_PLACEMENT_3D ( 'NONE', #265, #108, #148 ) ;
#102 = PERSON ( 'Î´Ö¸¶¨', 'Î´Ö¸¶¨', 'Î´Ö¸¶¨', ('Î´Ö¸¶¨'), ('Î´Ö¸¶¨'), ('Î´Ö¸¶¨') ) ;
#103 = TOROIDAL_SURFACE ( 'NONE', #106, 185.1500000000000100, 2.250000000000001800 ) ;
#104 = DIRECTION ( 'NONE',  ( 0.0000000000000000000, 0.0000000000000000000, 1.000000000000000000 ) ) ;
#105 = VERTEX_POINT ( 'NONE', #130 ) ;
#106 = AXIS2_PLACEMENT_3D ( 'NONE', #9, #154, #268 ) ;
#107 = DIRECTION ( 'NONE',  ( -0.0000000000000000000, 0.03489949670248662600, 0.9993908270190963200 ) ) ;
#108 = DIRECTION ( 'NONE',  ( -1.000000000000000000, -0.0000000000000000000, -0.0000000000000000000 ) ) ;
#109 = ORIENTED_EDGE ( 'NONE', *, *, #191, .T. ) ;
#110 = ORIENTED_EDGE ( 'NONE', *, *, #52, .T. ) ;
#111 = DIRECTION ( 'NONE',  ( 1.000000000000000000, 0.0000000000000000000, 0.0000000000000000000 ) ) ;
#112 = FACE_OUTER_BOUND ( 'NONE', #259, .T. ) ;
#113 = ORIENTED_EDGE ( 'NONE', *, *, #242, .T. ) ;
#114 = CARTESIAN_POINT ( 'NONE',  ( 2.755455298081546700E-016, 0.0000000000000000000, 0.0000000000000000000 ) ) ;
#115 = AXIS2_PLACEMENT_3D ( 'NONE', #129, #127, #156 ) ;
#116 = APPROVAL_STATUS ( 'not_yet_approved' ) ;
#117 = PRODUCT_RELATED_PRODUCT_CATEGORY ( 'detail', '', ( #229 ) ) ;
#118 = DIRECTION ( 'NONE',  ( 0.0000000000000000000, 0.0000000000000000000, -1.000000000000000000 ) ) ;
#119 = CARTESIAN_POINT ( 'NONE',  ( 0.0000000000000000000, 185.1500000000000100, 0.0000000000000000000 ) ) ;
#120 = CIRCLE ( 'NONE', #66, 182.9000000000000100 ) ;
#121 = CC_DESIGN_SECURITY_CLASSIFICATION ( #10, ( #19 ) ) ;
#122 = AXIS2_PLACEMENT_3D ( 'NONE', #195, #6, #213 ) ;
#123 = AXIS2_PLACEMENT_3D ( 'NONE', #29, #107, #111 ) ;
#124 = ORIENTED_EDGE ( 'NONE', *, *, #242, .F. ) ;
#125 = AXIS2_PLACEMENT_3D ( 'NONE', #149, #151, #152 ) ;
#126 = DESIGN_CONTEXT ( 'detailed design', #42, 'design' ) ;
#127 = DIRECTION ( 'NONE',  ( -1.000000000000000000, -0.0000000000000000000, -0.0000000000000000000 ) ) ;
#128 = DIRECTION ( 'NONE',  ( 1.000000000000000000, 0.0000000000000000000, -0.0000000000000000000 ) ) ;
#129 = CARTESIAN_POINT ( 'NONE',  ( 0.0000000000000000000, 0.0000000000000000000, 0.0000000000000000000 ) ) ;
#130 = CARTESIAN_POINT ( 'NONE',  ( 0.0000000000000000000, 2.239878995640509000E-014, -182.9000000000000100 ) ) ;
#131 = EDGE_LOOP ( 'NONE', ( #47, #210, #257, #168 ) ) ;
#132 = DIRECTION ( 'NONE',  ( 0.0000000000000000000, 0.0000000000000000000, 1.000000000000000000 ) ) ;
#133 = DIRECTION ( 'NONE',  ( 0.0000000000000000000, 0.0000000000000000000, 1.000000000000000000 ) ) ;
#134 = CARTESIAN_POINT ( 'NONE',  ( 0.0000000000000000000, 185.1500000000000100, 0.0000000000000000000 ) ) ;
#135 = PERSON_AND_ORGANIZATION_ROLE ( 'creator' ) ;
#136 = AXIS2_PLACEMENT_3D ( 'NONE', #64, #59, #27 ) ;
#137 = CALENDAR_DATE ( 2018, 18, 7 ) ;
#138 = FACE_OUTER_BOUND ( 'NONE', #179, .T. ) ;
#139 = DIRECTION ( 'NONE',  ( 0.0000000000000000000, -1.000000000000000000, 0.0000000000000000000 ) ) ;
#140 = ADVANCED_FACE ( 'NONE', ( #220 ), #50, .T. ) ;
#141 = CARTESIAN_POINT ( 'NONE',  ( 0.0000000000000000000, 0.0000000000000000000, 185.1500000000000100 ) ) ;
#142 = CARTESIAN_POINT ( 'NONE',  ( 2.755455298081546700E-016, 182.7885822617927300, -6.383117946884802100 ) ) ;
#143 = PERSON_AND_ORGANIZATION ( #102, #45 ) ;
#144 = ORIENTED_EDGE ( 'NONE', *, *, #277, .F. ) ;
#145 = DATE_AND_TIME ( #204, #247 ) ;
#146 = FACE_OUTER_BOUND ( 'NONE', #131, .T. ) ;
#147 = CIRCLE ( 'NONE', #70, 2.250000000000001800 ) ;
#148 = DIRECTION ( 'NONE',  ( 0.0000000000000000000, 0.0000000000000000000, 1.000000000000000000 ) ) ;
#149 = CARTESIAN_POINT ( 'NONE',  ( 0.0000000000000000000, 2.267433548621324400E-014, -185.1500000000000100 ) ) ;
#150 = COORDINATED_UNIVERSAL_TIME_OFFSET ( 8, 0, .AHEAD. ) ;
#151 = DIRECTION ( 'NONE',  ( -0.0000000000000000000, 1.000000000000000000, 1.224646799147353200E-016 ) ) ;
#152 = DIRECTION ( 'NONE',  ( 0.0000000000000000000, -1.224646799147349800E-016, 1.000000000000000000 ) ) ;
#153 = APPROVAL_DATE_TIME ( #209, #28 ) ;
#154 = DIRECTION ( 'NONE',  ( -1.000000000000000000, -0.0000000000000000000, -0.0000000000000000000 ) ) ;
#155 = VERTEX_POINT ( 'NONE', #232 ) ;
#156 = DIRECTION ( 'NONE',  ( 0.0000000000000000000, 0.0000000000000000000, 1.000000000000000000 ) ) ;
#157 = TOROIDAL_SURFACE ( 'NONE', #77, 185.1500000000000100, 2.250000000000001800 ) ;
#158 = CARTESIAN_POINT ( 'NONE',  ( 0.0000000000000000000, 0.0000000000000000000, 0.0000000000000000000 ) ) ;
#159 = DIRECTION ( 'NONE',  ( 0.0000000000000000000, 0.0000000000000000000, -1.000000000000000000 ) ) ;
#160 = DIRECTION ( 'NONE',  ( 1.000000000000000000, 0.0000000000000000000, 0.0000000000000000000 ) ) ;
#161 = CALENDAR_DATE ( 2018, 18, 7 ) ;
#162 = AXIS2_PLACEMENT_3D ( 'NONE', #85, #87, #104 ) ;
#163 = DIRECTION ( 'NONE',  ( 1.000000000000000000, 0.0000000000000000000, 0.0000000000000000000 ) ) ;
#164 = SECURITY_CLASSIFICATION_LEVEL ( 'unclassified' ) ;
#165 = APPROVAL_PERSON_ORGANIZATION ( #217, #28, #225 ) ;
#166 = ADVANCED_FACE ( 'NONE', ( #38 ), #103, .T. ) ;
#167 = CARTESIAN_POINT ( 'NONE',  ( 2.755455298081546300E-016, 182.9000000000000100, 0.0000000000000000000 ) ) ;
#168 = ORIENTED_EDGE ( 'NONE', *, *, #275, .F. ) ;
#169 = ORIENTED_EDGE ( 'NONE', *, *, #191, .F. ) ;
#170 = EDGE_CURVE ( 'NONE', #155, #233, #173, .T. ) ;
#171 = DIRECTION ( 'NONE',  ( 0.0000000000000000000, 0.0000000000000000000, 1.000000000000000000 ) ) ;
#172 = CARTESIAN_POINT ( 'NONE',  ( 0.0000000000000000000, 0.0000000000000000000, 0.0000000000000000000 ) ) ;
#173 = CIRCLE ( 'NONE', #122, 2.250000000000001800 ) ;
#174 = ORIENTED_EDGE ( 'NONE', *, *, #40, .F. ) ;
#175 = EDGE_CURVE ( 'NONE', #155, #215, #258, .T. ) ;
#176 = VERTEX_POINT ( 'NONE', #230 ) ;
#177 = EDGE_LOOP ( 'NONE', ( #100, #37, #109, #46 ) ) ;
#178 = FACE_OUTER_BOUND ( 'NONE', #194, .T. ) ;
#179 = EDGE_LOOP ( 'NONE', ( #36, #190, #43, #99 ) ) ;
#180 = DIRECTION ( 'NONE',  ( 0.0000000000000000000, 0.0000000000000000000, 1.000000000000000000 ) ) ;
#181 = DIRECTION ( 'NONE',  ( 0.0000000000000000000, 0.0000000000000000000, 1.000000000000000000 ) ) ;
#182 = FACE_OUTER_BOUND ( 'NONE', #177, .T. ) ;
#183 = PERSON_AND_ORGANIZATION_ROLE ( 'design_owner' ) ;
#184 = DATE_TIME_ROLE ( 'classification_date' ) ;
#185 = DIRECTION ( 'NONE',  ( -1.000000000000000000, -0.0000000000000000000, -0.0000000000000000000 ) ) ;
#186 = DIRECTION ( 'NONE',  ( 1.000000000000000000, 0.0000000000000000000, 0.0000000000000000000 ) ) ;
#187 = ORIENTED_EDGE ( 'NONE', *, *, #266, .T. ) ;
#188 = COORDINATED_UNIVERSAL_TIME_OFFSET ( 8, 0, .AHEAD. ) ;
#189 = ADVANCED_FACE ( 'NONE', ( #112 ), #246, .F. ) ;
#190 = ORIENTED_EDGE ( 'NONE', *, *, #281, .T. ) ;
#191 = EDGE_CURVE ( 'NONE', #233, #105, #96, .T. ) ;
#192 = ADVANCED_FACE ( 'NONE', ( #211 ), #157, .T. ) ;
#193 = LOCAL_TIME ( 10, 4, 12.00000000000000000, #243 ) ;
#194 = EDGE_LOOP ( 'NONE', ( #75, #240 ) ) ;
#195 = CARTESIAN_POINT ( 'NONE',  ( 0.0000000000000000000, 185.0372116225856900, -6.461641814465397500 ) ) ;
#196 = CARTESIAN_POINT ( 'NONE',  ( 0.0000000000000000000, 0.0000000000000000000, 182.9000000000000100 ) ) ;
#197 = EDGE_CURVE ( 'NONE', #105, #215, #249, .T. ) ;
#198 = DIRECTION ( 'NONE',  ( -1.000000000000000000, -0.0000000000000000000, -0.0000000000000000000 ) ) ;
#199 = EDGE_CURVE ( 'NONE', #233, #155, #207, .T. ) ;
#200 = APPLICATION_PROTOCOL_DEFINITION ( 'international standard', 'config_control_design', 1994, #42 ) ;
#201 = APPROVAL_DATE_TIME ( #245, #16 ) ;
#202 = APPROVAL_ROLE ( '' ) ;
#203 = DIRECTION ( 'NONE',  ( 0.0000000000000000000, 0.03489949670248662000, 0.9993908270190962100 ) ) ;
#204 = CALENDAR_DATE ( 2018, 18, 7 ) ;
#205 = TOROIDAL_SURFACE ( 'NONE', #136, 185.1500000000000100, 2.250000000000001800 ) ;
#206 = CARTESIAN_POINT ( 'NONE',  ( 0.0000000000000000000, 185.0372116225856900, -6.461641814465397500 ) ) ;
#207 = CIRCLE ( 'NONE', #76, 2.250000000000001800 ) ;
#208 = APPROVAL_PERSON_ORGANIZATION ( #253, #16, #254 ) ;
#209 = DATE_AND_TIME ( #256, #35 ) ;
#210 = ORIENTED_EDGE ( 'NONE', *, *, #40, .T. ) ;
#211 = FACE_OUTER_BOUND ( 'NONE', #95, .T. ) ;
#212 = LOCAL_TIME ( 10, 4, 12.00000000000000000, #188 ) ;
#213 = DIRECTION ( 'NONE',  ( 1.000000000000000000, 0.0000000000000000000, 0.0000000000000000000 ) ) ;
#214 = EDGE_CURVE ( 'NONE', #219, #261, #88, .T. ) ;
#215 = VERTEX_POINT ( 'NONE', #48 ) ;
#216 = CARTESIAN_POINT ( 'NONE',  ( 0.0000000000000000000, 185.1500000000000100, 0.0000000000000000000 ) ) ;
#217 = PERSON_AND_ORGANIZATION ( #102, #45 ) ;
#218 = ORIENTED_EDGE ( 'NONE', *, *, #175, .T. ) ;
#219 = VERTEX_POINT ( 'NONE', #238 ) ;
#220 = FACE_OUTER_BOUND ( 'NONE', #25, .T. ) ;
#221 = ORIENTED_EDGE ( 'NONE', *, *, #197, .F. ) ;
#222 = DIRECTION ( 'NONE',  ( -1.000000000000000000, -0.0000000000000000000, -0.0000000000000000000 ) ) ;
#223 = DIRECTION ( 'NONE',  ( -1.000000000000000000, -0.0000000000000000000, -0.0000000000000000000 ) ) ;
#224 =( LENGTH_UNIT ( ) NAMED_UNIT ( * ) SI_UNIT ( .MILLI., .METRE. ) );
#225 = APPROVAL_ROLE ( '' ) ;
#226 = CIRCLE ( 'NONE', #162, 187.4000000000000100 ) ;
#227 = ORIENTED_EDGE ( 'NONE', *, *, #281, .F. ) ;
#228 = CIRCLE ( 'NONE', #58, 2.250000000000001800 ) ;
#229 = PRODUCT ( '20011941', '20011941', '', ( #14 ) ) ;
#230 = CARTESIAN_POINT ( 'NONE',  ( 0.0000000000000000000, 187.4000000000000100, 0.0000000000000000000 ) ) ;
#231 = TOROIDAL_SURFACE ( 'NONE', #60, 185.1500000000000100, 2.250000000000001800 ) ;
#232 = CARTESIAN_POINT ( 'NONE',  ( 0.0000000000000000000, 187.2858409833786500, -6.540165682045991200 ) ) ;
#233 = VERTEX_POINT ( 'NONE', #142 ) ;
#234 = DIRECTION ( 'NONE',  ( 0.0000000000000000000, 0.0000000000000000000, 1.000000000000000000 ) ) ;
#235 =( NAMED_UNIT ( * ) SI_UNIT ( $, .STERADIAN. ) SOLID_ANGLE_UNIT ( ) );
#236 = DATE_TIME_ROLE ( 'creation_date' ) ;
#237 = APPROVAL_PERSON_ORGANIZATION ( #8, #1, #202 ) ;
#238 = CARTESIAN_POINT ( 'NONE',  ( 0.0000000000000000000, 0.0000000000000000000, 187.4000000000000100 ) ) ;
#239 = CARTESIAN_POINT ( 'NONE',  ( 2.755455298081546700E-016, 0.0000000000000000000, 0.0000000000000000000 ) ) ;
#240 = ORIENTED_EDGE ( 'NONE', *, *, #170, .T. ) ;
#241 = DIRECTION ( 'NONE',  ( 0.0000000000000000000, 0.0000000000000000000, 1.000000000000000000 ) ) ;
#242 = EDGE_CURVE ( 'NONE', #261, #219, #147, .T. ) ;
#243 = COORDINATED_UNIVERSAL_TIME_OFFSET ( 8, 0, .AHEAD. ) ;
#244 = EDGE_CURVE ( 'NONE', #248, #176, #68, .T. ) ;
#245 = DATE_AND_TIME ( #22, #92 ) ;
#246 = PLANE ( 'NONE',  #82 ) ;
#247 = LOCAL_TIME ( 10, 4, 12.00000000000000000, #23 ) ;
#248 = VERTEX_POINT ( 'NONE', #167 ) ;
#249 = CIRCLE ( 'NONE', #80, 2.250000000000001800 ) ;
#250 = DIRECTION ( 'NONE',  ( -1.000000000000000000, -0.0000000000000000000, -0.0000000000000000000 ) ) ;
#251 = ADVANCED_FACE ( 'NONE', ( #146 ), #280, .T. ) ;
#252 = APPLICATION_PROTOCOL_DEFINITION ( 'international standard', 'config_control_design', 1994, #274 ) ;
#253 = PERSON_AND_ORGANIZATION ( #102, #45 ) ;
#254 = APPROVAL_ROLE ( '' ) ;
#255 = DIRECTION ( 'NONE',  ( 0.0000000000000000000, -1.224646799147349800E-016, 1.000000000000000000 ) ) ;
#256 = CALENDAR_DATE ( 2018, 18, 7 ) ;
#257 = ORIENTED_EDGE ( 'NONE', *, *, #214, .T. ) ;
#258 = CIRCLE ( 'NONE', #101, 187.4000000000000100 ) ;
#259 = EDGE_LOOP ( 'NONE', ( #86, #144 ) ) ;
#260 = PERSON_AND_ORGANIZATION ( #102, #45 ) ;
#261 = VERTEX_POINT ( 'NONE', #196 ) ;
#262 = ORIENTED_EDGE ( 'NONE', *, *, #170, .F. ) ;
#263 = CIRCLE ( 'NONE', #125, 2.250000000000001800 ) ;
#264 = ORIENTED_EDGE ( 'NONE', *, *, #275, .T. ) ;
#265 = CARTESIAN_POINT ( 'NONE',  ( 0.0000000000000000000, 0.0000000000000000000, 0.0000000000000000000 ) ) ;
#266 = EDGE_CURVE ( 'NONE', #261, #248, #120, .T. ) ;
#267 = UNCERTAINTY_MEASURE_WITH_UNIT (LENGTH_MEASURE( 1.000000000000000100E-005 ), #224, 'distance_accuracy_value', 'NONE');
#268 = DIRECTION ( 'NONE',  ( 0.0000000000000000000, 0.0000000000000000000, 1.000000000000000000 ) ) ;
#269 = ADVANCED_FACE ( 'NONE', ( #182 ), #231, .T. ) ;
#270 = DIRECTION ( 'NONE',  ( 1.000000000000000000, 0.0000000000000000000, 0.0000000000000000000 ) ) ;
#271 = DIRECTION ( 'NONE',  ( 0.0000000000000000000, 0.0000000000000000000, 1.000000000000000000 ) ) ;
#272 = CIRCLE ( 'NONE', #62, 182.9000000000000100 ) ;
#273 = DIRECTION ( 'NONE',  ( 0.0000000000000000000, 0.0000000000000000000, 1.000000000000000000 ) ) ;
#274 = APPLICATION_CONTEXT ( 'configuration controlled 3d designs of mechanical parts and assemblies' ) ;
#275 = EDGE_CURVE ( 'NONE', #105, #261, #272, .T. ) ;
#276 = PERSON_AND_ORGANIZATION_ROLE ( 'design_supplier' ) ;
#277 = EDGE_CURVE ( 'NONE', #176, #248, #228, .T. ) ;
#278 = DIRECTION ( 'NONE',  ( -0.0000000000000000000, 1.000000000000000000, 1.224646799147353200E-016 ) ) ;
#279 = CARTESIAN_POINT ( 'NONE',  ( 0.0000000000000000000, 2.267433548621324400E-014, -185.1500000000000100 ) ) ;
#280 = TOROIDAL_SURFACE ( 'NONE', #65, 185.1500000000000100, 2.250000000000001800 ) ;
#281 = EDGE_CURVE ( 'NONE', #219, #176, #61, .T. ) ;
ENDSEC;
END-ISO-10303-21;
