ISO-10303-21;
HEADER;
FILE_DESCRIPTION (( 'STEP AP203' ),
    '1' );
FILE_NAME ('20011741.STEP',
    '2018-07-18T02:03:58',
    ( '' ),
    ( '' ),
    'SwSTEP 2.0',
    'SolidWorks 2014',
    '' );
FILE_SCHEMA (( 'CONFIG_CONTROL_DESIGN' ));
ENDSEC;

DATA;
#1 = CC_DESIGN_SECURITY_CLASSIFICATION ( #9, ( #26 ) ) ;
#2 = CC_DESIGN_APPROVAL ( #4, ( #9 ) ) ;
#3 = EDGE_LOOP ( 'NONE', ( #35, #89, #217, #163 ) ) ;
#4 = APPROVAL ( #46, 'Î´Ö¸¶¨' ) ;
#5 = ADVANCED_FACE ( 'NONE', ( #210 ), #85, .T. ) ;
#6 = APPROVAL_PERSON_ORGANIZATION ( #79, #23, #254 ) ;
#7 = CC_DESIGN_DATE_AND_TIME_ASSIGNMENT ( #119, #184, ( #9 ) ) ;
#8 = CC_DESIGN_PERSON_AND_ORGANIZATION_ASSIGNMENT ( #58, #17, ( #9 ) ) ;
#9 = SECURITY_CLASSIFICATION ( '', '', #162 ) ;
#10 = ORIENTED_EDGE ( 'NONE', *, *, #54, .F. ) ;
#11 = CARTESIAN_POINT ( 'NONE',  ( 2.755455298081545300E-016, 0.0000000000000000000, 0.0000000000000000000 ) ) ;
#12 = CARTESIAN_POINT ( 'NONE',  ( 0.0000000000000000000, 0.0000000000000000000, 0.0000000000000000000 ) ) ;
#13 = MECHANICAL_CONTEXT ( 'NONE', #273, 'mechanical' ) ;
#14 = CC_DESIGN_PERSON_AND_ORGANIZATION_ASSIGNMENT ( #125, #276, ( #26 ) ) ;
#15 = CIRCLE ( 'NONE', #69, 2.250000000000001800 ) ;
#16 = CC_DESIGN_PERSON_AND_ORGANIZATION_ASSIGNMENT ( #181, #139, ( #26 ) ) ;
#17 = PERSON_AND_ORGANIZATION_ROLE ( 'classification_officer' ) ;
#18 = COORDINATED_UNIVERSAL_TIME_OFFSET ( 8, 0, .AHEAD. ) ;
#19 = CC_DESIGN_APPROVAL ( #23, ( #26 ) ) ;
#20 = DIRECTION ( 'NONE',  ( 0.0000000000000000000, 0.0000000000000000000, -1.000000000000000000 ) ) ;
#21 = EDGE_LOOP ( 'NONE', ( #174, #47, #110, #171 ) ) ;
#22 = TOROIDAL_SURFACE ( 'NONE', #99, 145.0999999999999700, 2.250000000000000900 ) ;
#23 = APPROVAL ( #121, 'Î´Ö¸¶¨' ) ;
#24 = LOCAL_TIME ( 10, 3, 58.00000000000000000, #94 ) ;
#25 = TOROIDAL_SURFACE ( 'NONE', #126, 145.0999999999999700, 2.250000000000000900 ) ;
#26 = PRODUCT_DEFINITION_FORMATION_WITH_SPECIFIED_SOURCE ( 'ÈÎºÎ', '', #112, .NOT_KNOWN. ) ;
#27 = CC_DESIGN_DATE_AND_TIME_ASSIGNMENT ( #142, #235, ( #33 ) ) ;
#28 = ORIENTED_EDGE ( 'NONE', *, *, #212, .T. ) ;
#29 = CC_DESIGN_PERSON_AND_ORGANIZATION_ASSIGNMENT ( #84, #93, ( #33 ) ) ;
#30 = CC_DESIGN_APPROVAL ( #32, ( #33 ) ) ;
#31 = FACE_OUTER_BOUND ( 'NONE', #104, .T. ) ;
#32 = APPROVAL ( #72, 'Î´Ö¸¶¨' ) ;
#33 = PRODUCT_DEFINITION ( 'Î´Öª', '', #26, #130 ) ;
#34 = CARTESIAN_POINT ( 'NONE',  ( 0.0000000000000000000, 145.0999999999999700, 0.0000000000000000000 ) ) ;
#35 = ORIENTED_EDGE ( 'NONE', *, *, #278, .F. ) ;
#36 = CC_DESIGN_PERSON_AND_ORGANIZATION_ASSIGNMENT ( #253, #183, ( #112 ) ) ;
#37 = ORIENTED_EDGE ( 'NONE', *, *, #166, .T. ) ;
#38 = CARTESIAN_POINT ( 'NONE',  ( 0.0000000000000000000, 1.776962505562809300E-014, -145.0999999999999700 ) ) ;
#39 = DIRECTION ( 'NONE',  ( 0.0000000000000000000, 0.0000000000000000000, 1.000000000000000000 ) ) ;
#40 = AXIS2_PLACEMENT_3D ( 'NONE', #117, #249, #160 ) ;
#41 = CARTESIAN_POINT ( 'NONE',  ( 0.0000000000000000000, 0.0000000000000000000, 0.0000000000000000000 ) ) ;
#42 = DATE_AND_TIME ( #109, #170 ) ;
#43 = APPLICATION_CONTEXT ( 'configuration controlled 3d designs of mechanical parts and assemblies' ) ;
#44 = CARTESIAN_POINT ( 'NONE',  ( 0.0000000000000000000, 0.0000000000000000000, 0.0000000000000000000 ) ) ;
#45 = EDGE_CURVE ( 'NONE', #178, #264, #154, .T. ) ;
#46 = APPROVAL_STATUS ( 'not_yet_approved' ) ;
#47 = ORIENTED_EDGE ( 'NONE', *, *, #45, .T. ) ;
#48 = ORIENTED_EDGE ( 'NONE', *, *, #275, .F. ) ;
#49 = ADVANCED_FACE ( 'NONE', ( #245 ), #96, .T. ) ;
#50 = CIRCLE ( 'NONE', #64, 142.8499999999999700 ) ;
#51 = VERTEX_POINT ( 'NONE', #274 ) ;
#52 = PERSON_AND_ORGANIZATION ( #140, #83 ) ;
#53 = MANIFOLD_SOLID_BREP ( 'Ðý×ª1', #111 ) ;
#54 = EDGE_CURVE ( 'NONE', #76, #178, #150, .T. ) ;
#55 = PRODUCT_RELATED_PRODUCT_CATEGORY ( 'detail', '', ( #112 ) ) ;
#56 =( GEOMETRIC_REPRESENTATION_CONTEXT ( 3 ) GLOBAL_UNCERTAINTY_ASSIGNED_CONTEXT ( ( #149 ) ) GLOBAL_UNIT_ASSIGNED_CONTEXT ( ( #222, #90, #234 ) ) REPRESENTATION_CONTEXT ( 'NONE', 'WORKASPACE' ) );
#57 = AXIS2_PLACEMENT_3D ( 'NONE', #41, #198, #70 ) ;
#58 = PERSON_AND_ORGANIZATION ( #140, #83 ) ;
#59 = AXIS2_PLACEMENT_3D ( 'NONE', #136, #271, #157 ) ;
#60 = PRODUCT_DEFINITION_SHAPE ( 'NONE', 'NONE',  #33 ) ;
#61 = AXIS2_PLACEMENT_3D ( 'NONE', #219, #87, #233 ) ;
#62 = AXIS2_PLACEMENT_3D ( 'NONE', #145, #267, #218 ) ;
#63 = DIRECTION ( 'NONE',  ( -1.000000000000000000, -0.0000000000000000000, -0.0000000000000000000 ) ) ;
#64 = AXIS2_PLACEMENT_3D ( 'NONE', #11, #180, #39 ) ;
#65 = DIRECTION ( 'NONE',  ( 0.0000000000000000000, -1.224646799147349800E-016, 1.000000000000000000 ) ) ;
#66 = DIRECTION ( 'NONE',  ( -1.000000000000000000, -0.0000000000000000000, -0.0000000000000000000 ) ) ;
#67 = CALENDAR_DATE ( 2018, 18, 7 ) ;
#68 = DIRECTION ( 'NONE',  ( 0.0000000000000000000, 0.0000000000000000000, 1.000000000000000000 ) ) ;
#69 = AXIS2_PLACEMENT_3D ( 'NONE', #38, #195, #65 ) ;
#70 = DIRECTION ( 'NONE',  ( 0.0000000000000000000, 0.0000000000000000000, 1.000000000000000000 ) ) ;
#71 = DIRECTION ( 'NONE',  ( 0.0000000000000000000, 0.0000000000000000000, 1.000000000000000000 ) ) ;
#72 = APPROVAL_STATUS ( 'not_yet_approved' ) ;
#73 = DIRECTION ( 'NONE',  ( 1.000000000000000000, 0.0000000000000000000, -0.0000000000000000000 ) ) ;
#74 = EDGE_CURVE ( 'NONE', #262, #186, #205, .T. ) ;
#75 = DIRECTION ( 'NONE',  ( 0.0000000000000000000, 0.0000000000000000000, 1.000000000000000000 ) ) ;
#76 = VERTEX_POINT ( 'NONE', #86 ) ;
#77 = AXIS2_PLACEMENT_3D ( 'NONE', #34, #124, #133 ) ;
#78 = AXIS2_PLACEMENT_3D ( 'NONE', #100, #95, #20 ) ;
#79 = PERSON_AND_ORGANIZATION ( #140, #83 ) ;
#80 = AXIS2_PLACEMENT_3D ( 'NONE', #164, #143, #123 ) ;
#81 = ADVANCED_BREP_SHAPE_REPRESENTATION ( '20011741', ( #53, #40 ), #56 ) ;
#82 = AXIS2_PLACEMENT_3D ( 'NONE', #237, #226, #206 ) ;
#83 = ORGANIZATION ( 'Î´Ö¸¶¨', 'Î´Ö¸¶¨', '' ) ;
#84 = PERSON_AND_ORGANIZATION ( #140, #83 ) ;
#85 = PLANE ( 'NONE',  #159 ) ;
#86 = CARTESIAN_POINT ( 'NONE',  ( 0.0000000000000000000, 147.2602383612637900, -5.142440839111401400 ) ) ;
#87 = DIRECTION ( 'NONE',  ( 0.0000000000000000000, 0.0000000000000000000, 1.000000000000000000 ) ) ;
#88 = CARTESIAN_POINT ( 'NONE',  ( 2.755455298081545300E-016, 142.7629796396778700, -4.985393103950212200 ) ) ;
#89 = ORIENTED_EDGE ( 'NONE', *, *, #281, .T. ) ;
#90 =( NAMED_UNIT ( * ) PLANE_ANGLE_UNIT ( ) SI_UNIT ( $, .RADIAN. ) );
#91 = FACE_OUTER_BOUND ( 'NONE', #3, .T. ) ;
#92 = DIRECTION ( 'NONE',  ( -1.000000000000000000, -0.0000000000000000000, -0.0000000000000000000 ) ) ;
#93 = PERSON_AND_ORGANIZATION_ROLE ( 'creator' ) ;
#94 = COORDINATED_UNIVERSAL_TIME_OFFSET ( 8, 0, .AHEAD. ) ;
#95 = DIRECTION ( 'NONE',  ( 0.0000000000000000000, -1.000000000000000000, 0.0000000000000000000 ) ) ;
#96 = TOROIDAL_SURFACE ( 'NONE', #131, 145.0999999999999700, 2.250000000000000900 ) ;
#97 = CARTESIAN_POINT ( 'NONE',  ( 0.0000000000000000000, 0.0000000000000000000, 0.0000000000000000000 ) ) ;
#98 = ORIENTED_EDGE ( 'NONE', *, *, #265, .T. ) ;
#99 = AXIS2_PLACEMENT_3D ( 'NONE', #97, #279, #75 ) ;
#100 = CARTESIAN_POINT ( 'NONE',  ( 0.0000000000000000000, 0.0000000000000000000, 145.0999999999999700 ) ) ;
#101 = ORIENTED_EDGE ( 'NONE', *, *, #281, .F. ) ;
#102 = CIRCLE ( 'NONE', #127, 2.250000000000000900 ) ;
#103 = AXIS2_PLACEMENT_3D ( 'NONE', #146, #185, #73 ) ;
#104 = EDGE_LOOP ( 'NONE', ( #101, #156, #98, #268 ) ) ;
#105 = ORIENTED_EDGE ( 'NONE', *, *, #238, .F. ) ;
#106 = AXIS2_PLACEMENT_3D ( 'NONE', #258, #257, #255 ) ;
#107 = ORIENTED_EDGE ( 'NONE', *, *, #197, .F. ) ;
#108 = AXIS2_PLACEMENT_3D ( 'NONE', #12, #113, #137 ) ;
#109 = CALENDAR_DATE ( 2018, 18, 7 ) ;
#110 = ORIENTED_EDGE ( 'NONE', *, *, #278, .T. ) ;
#111 = CLOSED_SHELL ( 'NONE', ( #190, #49, #176, #259, #144, #172, #5, #189 ) ) ;
#112 = PRODUCT ( '20011741', '20011741', '', ( #13 ) ) ;
#113 = DIRECTION ( 'NONE',  ( -1.000000000000000000, -0.0000000000000000000, -0.0000000000000000000 ) ) ;
#114 = CARTESIAN_POINT ( 'NONE',  ( 0.0000000000000000000, 0.0000000000000000000, 0.0000000000000000000 ) ) ;
#115 = DIRECTION ( 'NONE',  ( -1.000000000000000000, -0.0000000000000000000, -0.0000000000000000000 ) ) ;
#116 = EDGE_LOOP ( 'NONE', ( #151, #207, #248, #28 ) ) ;
#117 = CARTESIAN_POINT ( 'NONE',  ( 0.0000000000000000000, 0.0000000000000000000, 0.0000000000000000000 ) ) ;
#118 = AXIS2_PLACEMENT_3D ( 'NONE', #161, #92, #247 ) ;
#119 = DATE_AND_TIME ( #175, #229 ) ;
#120 = DIRECTION ( 'NONE',  ( 0.0000000000000000000, 0.0000000000000000000, 1.000000000000000000 ) ) ;
#121 = APPROVAL_STATUS ( 'not_yet_approved' ) ;
#122 = CARTESIAN_POINT ( 'NONE',  ( 0.0000000000000000000, 147.3499999999999900, 0.0000000000000000000 ) ) ;
#123 = DIRECTION ( 'NONE',  ( 1.000000000000000000, 0.0000000000000000000, 0.0000000000000000000 ) ) ;
#124 = DIRECTION ( 'NONE',  ( 0.0000000000000000000, 0.0000000000000000000, 1.000000000000000000 ) ) ;
#125 = PERSON_AND_ORGANIZATION ( #140, #83 ) ;
#126 = AXIS2_PLACEMENT_3D ( 'NONE', #155, #63, #120 ) ;
#127 = AXIS2_PLACEMENT_3D ( 'NONE', #220, #272, #223 ) ;
#128 = ORIENTED_EDGE ( 'NONE', *, *, #199, .T. ) ;
#129 = AXIS2_PLACEMENT_3D ( 'NONE', #177, #215, #196 ) ;
#130 = DESIGN_CONTEXT ( 'detailed design', #43, 'design' ) ;
#131 = AXIS2_PLACEMENT_3D ( 'NONE', #182, #216, #71 ) ;
#132 = DIRECTION ( 'NONE',  ( 0.0000000000000000000, 0.0000000000000000000, 1.000000000000000000 ) ) ;
#133 = DIRECTION ( 'NONE',  ( 1.000000000000000000, 0.0000000000000000000, 0.0000000000000000000 ) ) ;
#134 = ORIENTED_EDGE ( 'NONE', *, *, #242, .T. ) ;
#135 = CARTESIAN_POINT ( 'NONE',  ( 0.0000000000000000000, 0.0000000000000000000, 142.8499999999999700 ) ) ;
#136 = CARTESIAN_POINT ( 'NONE',  ( 0.0000000000000000000, 0.0000000000000000000, 145.0999999999999700 ) ) ;
#137 = DIRECTION ( 'NONE',  ( 0.0000000000000000000, 0.0000000000000000000, 1.000000000000000000 ) ) ;
#138 = TOROIDAL_SURFACE ( 'NONE', #62, 145.0999999999999700, 2.250000000000000900 ) ;
#139 = PERSON_AND_ORGANIZATION_ROLE ( 'creator' ) ;
#140 = PERSON ( 'Î´Ö¸¶¨', 'Î´Ö¸¶¨', 'Î´Ö¸¶¨', ('Î´Ö¸¶¨'), ('Î´Ö¸¶¨'), ('Î´Ö¸¶¨') ) ;
#141 = AXIS2_PLACEMENT_3D ( 'NONE', #114, #115, #132 ) ;
#142 = DATE_AND_TIME ( #194, #241 ) ;
#143 = DIRECTION ( 'NONE',  ( 0.0000000000000000000, 0.03489949670248662000, 0.9993908270190962100 ) ) ;
#144 = ADVANCED_FACE ( 'NONE', ( #165 ), #25, .T. ) ;
#145 = CARTESIAN_POINT ( 'NONE',  ( 0.0000000000000000000, 0.0000000000000000000, 0.0000000000000000000 ) ) ;
#146 = CARTESIAN_POINT ( 'NONE',  ( 0.0000000000000000000, 145.0999999999999700, 0.0000000000000000000 ) ) ;
#147 = CIRCLE ( 'NONE', #78, 2.250000000000001800 ) ;
#148 = APPROVAL_DATE_TIME ( #202, #32 ) ;
#149 = UNCERTAINTY_MEASURE_WITH_UNIT (LENGTH_MEASURE( 1.000000000000000100E-005 ), #222, 'distance_accuracy_value', 'NONE');
#150 = CIRCLE ( 'NONE', #141, 147.3499999999999900 ) ;
#151 = ORIENTED_EDGE ( 'NONE', *, *, #45, .F. ) ;
#152 = CIRCLE ( 'NONE', #82, 142.8499999999999700 ) ;
#153 = APPROVAL_PERSON_ORGANIZATION ( #209, #32, #224 ) ;
#154 = CIRCLE ( 'NONE', #169, 147.3499999999999900 ) ;
#155 = CARTESIAN_POINT ( 'NONE',  ( 0.0000000000000000000, 0.0000000000000000000, 0.0000000000000000000 ) ) ;
#156 = ORIENTED_EDGE ( 'NONE', *, *, #212, .F. ) ;
#157 = DIRECTION ( 'NONE',  ( 0.0000000000000000000, 0.0000000000000000000, -1.000000000000000000 ) ) ;
#158 = TOROIDAL_SURFACE ( 'NONE', #118, 145.0999999999999700, 2.250000000000000900 ) ;
#159 = AXIS2_PLACEMENT_3D ( 'NONE', #277, #269, #250 ) ;
#160 = DIRECTION ( 'NONE',  ( 1.000000000000000000, 0.0000000000000000000, 0.0000000000000000000 ) ) ;
#161 = CARTESIAN_POINT ( 'NONE',  ( 0.0000000000000000000, 0.0000000000000000000, 0.0000000000000000000 ) ) ;
#162 = SECURITY_CLASSIFICATION_LEVEL ( 'unclassified' ) ;
#163 = ORIENTED_EDGE ( 'NONE', *, *, #265, .F. ) ;
#164 = CARTESIAN_POINT ( 'NONE',  ( 0.0000000000000000000, 145.0116090004708300, -5.063916971530807700 ) ) ;
#165 = FACE_OUTER_BOUND ( 'NONE', #116, .T. ) ;
#166 = EDGE_CURVE ( 'NONE', #76, #168, #102, .T. ) ;
#167 = SHAPE_DEFINITION_REPRESENTATION ( #60, #81 ) ;
#168 = VERTEX_POINT ( 'NONE', #88 ) ;
#169 = AXIS2_PLACEMENT_3D ( 'NONE', #44, #66, #68 ) ;
#170 = LOCAL_TIME ( 10, 3, 58.00000000000000000, #221 ) ;
#171 = ORIENTED_EDGE ( 'NONE', *, *, #74, .F. ) ;
#172 = ADVANCED_FACE ( 'NONE', ( #31 ), #158, .T. ) ;
#173 = CIRCLE ( 'NONE', #59, 2.250000000000001800 ) ;
#174 = ORIENTED_EDGE ( 'NONE', *, *, #191, .F. ) ;
#175 = CALENDAR_DATE ( 2018, 18, 7 ) ;
#176 = ADVANCED_FACE ( 'NONE', ( #211 ), #208, .T. ) ;
#177 = CARTESIAN_POINT ( 'NONE',  ( 2.755455298081545300E-016, 0.0000000000000000000, 0.0000000000000000000 ) ) ;
#178 = VERTEX_POINT ( 'NONE', #246 ) ;
#179 = CARTESIAN_POINT ( 'NONE',  ( 0.0000000000000000000, 1.749407952581993900E-014, -142.8499999999999700 ) ) ;
#180 = DIRECTION ( 'NONE',  ( -1.000000000000000000, -0.0000000000000000000, -0.0000000000000000000 ) ) ;
#181 = PERSON_AND_ORGANIZATION ( #140, #83 ) ;
#182 = CARTESIAN_POINT ( 'NONE',  ( 0.0000000000000000000, 0.0000000000000000000, 0.0000000000000000000 ) ) ;
#183 = PERSON_AND_ORGANIZATION_ROLE ( 'design_owner' ) ;
#184 = DATE_TIME_ROLE ( 'classification_date' ) ;
#185 = DIRECTION ( 'NONE',  ( 0.0000000000000000000, 0.0000000000000000000, 1.000000000000000000 ) ) ;
#186 = VERTEX_POINT ( 'NONE', #135 ) ;
#187 = EDGE_LOOP ( 'NONE', ( #214, #225, #228, #107 ) ) ;
#188 = LOCAL_TIME ( 10, 3, 58.00000000000000000, #236 ) ;
#189 = ADVANCED_FACE ( 'NONE', ( #251 ), #204, .F. ) ;
#190 = ADVANCED_FACE ( 'NONE', ( #91 ), #22, .T. ) ;
#191 = EDGE_CURVE ( 'NONE', #178, #262, #243, .T. ) ;
#192 = ORIENTED_EDGE ( 'NONE', *, *, #197, .T. ) ;
#193 = FACE_OUTER_BOUND ( 'NONE', #261, .T. ) ;
#194 = CALENDAR_DATE ( 2018, 18, 7 ) ;
#195 = DIRECTION ( 'NONE',  ( -0.0000000000000000000, 1.000000000000000000, 1.224646799147353200E-016 ) ) ;
#196 = DIRECTION ( 'NONE',  ( 0.0000000000000000000, 0.0000000000000000000, 1.000000000000000000 ) ) ;
#197 = EDGE_CURVE ( 'NONE', #168, #262, #152, .T. ) ;
#198 = DIRECTION ( 'NONE',  ( -1.000000000000000000, -0.0000000000000000000, -0.0000000000000000000 ) ) ;
#199 = EDGE_CURVE ( 'NONE', #168, #76, #200, .T. ) ;
#200 = CIRCLE ( 'NONE', #80, 2.250000000000000900 ) ;
#201 = APPLICATION_PROTOCOL_DEFINITION ( 'international standard', 'config_control_design', 1994, #43 ) ;
#202 = DATE_AND_TIME ( #244, #24 ) ;
#203 = APPROVAL_ROLE ( '' ) ;
#204 = PLANE ( 'NONE',  #103 ) ;
#205 = CIRCLE ( 'NONE', #129, 142.8499999999999700 ) ;
#206 = DIRECTION ( 'NONE',  ( 0.0000000000000000000, 0.0000000000000000000, 1.000000000000000000 ) ) ;
#207 = ORIENTED_EDGE ( 'NONE', *, *, #242, .F. ) ;
#208 = TOROIDAL_SURFACE ( 'NONE', #108, 145.0999999999999700, 2.250000000000000900 ) ;
#209 = PERSON_AND_ORGANIZATION ( #140, #83 ) ;
#210 = FACE_OUTER_BOUND ( 'NONE', #256, .T. ) ;
#211 = FACE_OUTER_BOUND ( 'NONE', #187, .T. ) ;
#212 = EDGE_CURVE ( 'NONE', #186, #264, #147, .T. ) ;
#213 = EDGE_LOOP ( 'NONE', ( #105, #48 ) ) ;
#214 = ORIENTED_EDGE ( 'NONE', *, *, #166, .F. ) ;
#215 = DIRECTION ( 'NONE',  ( -1.000000000000000000, -0.0000000000000000000, -0.0000000000000000000 ) ) ;
#216 = DIRECTION ( 'NONE',  ( -1.000000000000000000, -0.0000000000000000000, -0.0000000000000000000 ) ) ;
#217 = ORIENTED_EDGE ( 'NONE', *, *, #275, .T. ) ;
#218 = DIRECTION ( 'NONE',  ( 0.0000000000000000000, 0.0000000000000000000, 1.000000000000000000 ) ) ;
#219 = CARTESIAN_POINT ( 'NONE',  ( 0.0000000000000000000, 145.0999999999999700, 0.0000000000000000000 ) ) ;
#220 = CARTESIAN_POINT ( 'NONE',  ( 0.0000000000000000000, 145.0116090004708300, -5.063916971530807700 ) ) ;
#221 = COORDINATED_UNIVERSAL_TIME_OFFSET ( 8, 0, .AHEAD. ) ;
#222 =( LENGTH_UNIT ( ) NAMED_UNIT ( * ) SI_UNIT ( .MILLI., .METRE. ) );
#223 = DIRECTION ( 'NONE',  ( 1.000000000000000000, 0.0000000000000000000, 0.0000000000000000000 ) ) ;
#224 = APPROVAL_ROLE ( '' ) ;
#225 = ORIENTED_EDGE ( 'NONE', *, *, #54, .T. ) ;
#226 = DIRECTION ( 'NONE',  ( -1.000000000000000000, -0.0000000000000000000, -0.0000000000000000000 ) ) ;
#227 = CIRCLE ( 'NONE', #61, 2.250000000000000900 ) ;
#228 = ORIENTED_EDGE ( 'NONE', *, *, #191, .T. ) ;
#229 = LOCAL_TIME ( 10, 3, 58.00000000000000000, #270 ) ;
#230 = APPROVAL_DATE_TIME ( #280, #23 ) ;
#231 = CARTESIAN_POINT ( 'NONE',  ( 0.0000000000000000000, 0.0000000000000000000, 147.3499999999999900 ) ) ;
#232 = VERTEX_POINT ( 'NONE', #122 ) ;
#233 = DIRECTION ( 'NONE',  ( 1.000000000000000000, 0.0000000000000000000, 0.0000000000000000000 ) ) ;
#234 =( NAMED_UNIT ( * ) SI_UNIT ( $, .STERADIAN. ) SOLID_ANGLE_UNIT ( ) );
#235 = DATE_TIME_ROLE ( 'creation_date' ) ;
#236 = COORDINATED_UNIVERSAL_TIME_OFFSET ( 8, 0, .AHEAD. ) ;
#237 = CARTESIAN_POINT ( 'NONE',  ( 2.755455298081545300E-016, 0.0000000000000000000, 0.0000000000000000000 ) ) ;
#238 = EDGE_CURVE ( 'NONE', #51, #232, #240, .T. ) ;
#239 = ORIENTED_EDGE ( 'NONE', *, *, #199, .F. ) ;
#240 = CIRCLE ( 'NONE', #77, 2.250000000000000900 ) ;
#241 = LOCAL_TIME ( 10, 3, 58.00000000000000000, #18 ) ;
#242 = EDGE_CURVE ( 'NONE', #262, #178, #15, .T. ) ;
#243 = CIRCLE ( 'NONE', #106, 2.250000000000001800 ) ;
#244 = CALENDAR_DATE ( 2018, 18, 7 ) ;
#245 = FACE_OUTER_BOUND ( 'NONE', #21, .T. ) ;
#246 = CARTESIAN_POINT ( 'NONE',  ( 0.0000000000000000000, 1.804517058543624700E-014, -147.3499999999999900 ) ) ;
#247 = DIRECTION ( 'NONE',  ( 0.0000000000000000000, 0.0000000000000000000, 1.000000000000000000 ) ) ;
#248 = ORIENTED_EDGE ( 'NONE', *, *, #74, .T. ) ;
#249 = DIRECTION ( 'NONE',  ( 0.0000000000000000000, 0.0000000000000000000, 1.000000000000000000 ) ) ;
#250 = DIRECTION ( 'NONE',  ( 1.000000000000000000, 0.0000000000000000000, 0.0000000000000000000 ) ) ;
#251 = FACE_OUTER_BOUND ( 'NONE', #213, .T. ) ;
#252 = APPLICATION_PROTOCOL_DEFINITION ( 'international standard', 'config_control_design', 1994, #273 ) ;
#253 = PERSON_AND_ORGANIZATION ( #140, #83 ) ;
#254 = APPROVAL_ROLE ( '' ) ;
#255 = DIRECTION ( 'NONE',  ( 0.0000000000000000000, -1.224646799147349800E-016, 1.000000000000000000 ) ) ;
#256 = EDGE_LOOP ( 'NONE', ( #128, #37 ) ) ;
#257 = DIRECTION ( 'NONE',  ( -0.0000000000000000000, 1.000000000000000000, 1.224646799147353200E-016 ) ) ;
#258 = CARTESIAN_POINT ( 'NONE',  ( 0.0000000000000000000, 1.776962505562809300E-014, -145.0999999999999700 ) ) ;
#259 = ADVANCED_FACE ( 'NONE', ( #193 ), #138, .T. ) ;
#260 = APPROVAL_DATE_TIME ( #42, #4 ) ;
#261 = EDGE_LOOP ( 'NONE', ( #10, #239, #192, #134 ) ) ;
#262 = VERTEX_POINT ( 'NONE', #179 ) ;
#263 = CIRCLE ( 'NONE', #57, 147.3499999999999900 ) ;
#264 = VERTEX_POINT ( 'NONE', #231 ) ;
#265 = EDGE_CURVE ( 'NONE', #186, #51, #50, .T. ) ;
#266 = APPROVAL_PERSON_ORGANIZATION ( #52, #4, #203 ) ;
#267 = DIRECTION ( 'NONE',  ( -1.000000000000000000, -0.0000000000000000000, -0.0000000000000000000 ) ) ;
#268 = ORIENTED_EDGE ( 'NONE', *, *, #238, .T. ) ;
#269 = DIRECTION ( 'NONE',  ( -0.0000000000000000000, 0.03489949670248662600, 0.9993908270190963200 ) ) ;
#270 = COORDINATED_UNIVERSAL_TIME_OFFSET ( 8, 0, .AHEAD. ) ;
#271 = DIRECTION ( 'NONE',  ( 0.0000000000000000000, -1.000000000000000000, 0.0000000000000000000 ) ) ;
#272 = DIRECTION ( 'NONE',  ( 0.0000000000000000000, 0.03489949670248662000, 0.9993908270190962100 ) ) ;
#273 = APPLICATION_CONTEXT ( 'configuration controlled 3d designs of mechanical parts and assemblies' ) ;
#274 = CARTESIAN_POINT ( 'NONE',  ( 2.755455298081543800E-016, 142.8499999999999700, 0.0000000000000000000 ) ) ;
#275 = EDGE_CURVE ( 'NONE', #232, #51, #227, .T. ) ;
#276 = PERSON_AND_ORGANIZATION_ROLE ( 'design_supplier' ) ;
#277 = CARTESIAN_POINT ( 'NONE',  ( 0.0000000000000000000, 145.0116090004708300, -5.063916971530807700 ) ) ;
#278 = EDGE_CURVE ( 'NONE', #264, #186, #173, .T. ) ;
#279 = DIRECTION ( 'NONE',  ( -1.000000000000000000, -0.0000000000000000000, -0.0000000000000000000 ) ) ;
#280 = DATE_AND_TIME ( #67, #188 ) ;
#281 = EDGE_CURVE ( 'NONE', #264, #232, #263, .T. ) ;
ENDSEC;
END-ISO-10303-21;
