ISO-10303-21;
HEADER;
FILE_DESCRIPTION (( 'STEP AP203' ),
    '1' );
FILE_NAME ('20011641.STEP',
    '2018-07-18T02:03:43',
    ( '' ),
    ( '' ),
    'SwSTEP 2.0',
    'SolidWorks 2014',
    '' );
FILE_SCHEMA (( 'CONFIG_CONTROL_DESIGN' ));
ENDSEC;

DATA;
#1 = CC_DESIGN_SECURITY_CLASSIFICATION ( #9, ( #26 ) ) ;
#2 = CC_DESIGN_APPROVAL ( #4, ( #9 ) ) ;
#3 = VERTEX_POINT ( 'NONE', #58 ) ;
#4 = APPROVAL ( #188, 'Î´Ö¸¶¨' ) ;
#5 = ORIENTED_EDGE ( 'NONE', *, *, #116, .T. ) ;
#6 = ADVANCED_FACE ( 'NONE', ( #234 ), #62, .T. ) ;
#7 = CC_DESIGN_DATE_AND_TIME_ASSIGNMENT ( #225, #17, ( #9 ) ) ;
#8 = CC_DESIGN_PERSON_AND_ORGANIZATION_ASSIGNMENT ( #183, #167, ( #9 ) ) ;
#9 = SECURITY_CLASSIFICATION ( '', '', #274 ) ;
#10 = DIRECTION ( 'NONE',  ( -0.0000000000000000000, 0.03489949670248662600, 0.9993908270190963200 ) ) ;
#11 = CARTESIAN_POINT ( 'NONE',  ( 0.0000000000000000000, 0.0000000000000000000, 0.0000000000000000000 ) ) ;
#12 = PERSON_AND_ORGANIZATION_ROLE ( 'design_owner' ) ;
#13 = CC_DESIGN_PERSON_AND_ORGANIZATION_ASSIGNMENT ( #228, #144, ( #26 ) ) ;
#14 = COORDINATED_UNIVERSAL_TIME_OFFSET ( 8, 0, .AHEAD. ) ;
#15 = DIRECTION ( 'NONE',  ( 1.000000000000000000, 0.0000000000000000000, 0.0000000000000000000 ) ) ;
#16 = CC_DESIGN_PERSON_AND_ORGANIZATION_ASSIGNMENT ( #278, #255, ( #26 ) ) ;
#17 = DATE_TIME_ROLE ( 'classification_date' ) ;
#18 = ORIENTED_EDGE ( 'NONE', *, *, #116, .F. ) ;
#19 = ORIENTED_EDGE ( 'NONE', *, *, #215, .F. ) ;
#20 = DIRECTION ( 'NONE',  ( 0.0000000000000000000, 0.0000000000000000000, 1.000000000000000000 ) ) ;
#21 = CC_DESIGN_APPROVAL ( #24, ( #26 ) ) ;
#22 = CARTESIAN_POINT ( 'NONE',  ( 0.0000000000000000000, 120.0999999999999900, 0.0000000000000000000 ) ) ;
#23 = LOCAL_TIME ( 10, 3, 43.00000000000000000, #93 ) ;
#24 = APPROVAL ( #236, 'Î´Ö¸¶¨' ) ;
#25 = ORIENTED_EDGE ( 'NONE', *, *, #245, .F. ) ;
#26 = PRODUCT_DEFINITION_FORMATION_WITH_SPECIFIED_SOURCE ( 'ÈÎºÎ', '', #82, .NOT_KNOWN. ) ;
#27 = CC_DESIGN_DATE_AND_TIME_ASSIGNMENT ( #206, #94, ( #34 ) ) ;
#28 = DIRECTION ( 'NONE',  ( 0.0000000000000000000, 0.0000000000000000000, 1.000000000000000000 ) ) ;
#29 = CC_DESIGN_PERSON_AND_ORGANIZATION_ASSIGNMENT ( #155, #222, ( #34 ) ) ;
#30 = CARTESIAN_POINT ( 'NONE',  ( 0.0000000000000000000, 0.0000000000000000000, 0.0000000000000000000 ) ) ;
#31 = CC_DESIGN_APPROVAL ( #33, ( #34 ) ) ;
#32 = CALENDAR_DATE ( 2018, 18, 7 ) ;
#33 = APPROVAL ( #207, 'Î´Ö¸¶¨' ) ;
#34 = PRODUCT_DEFINITION ( 'Î´Öª', '', #26, #60 ) ;
#35 = FACE_OUTER_BOUND ( 'NONE', #187, .T. ) ;
#36 = CC_DESIGN_PERSON_AND_ORGANIZATION_ASSIGNMENT ( #84, #12, ( #82 ) ) ;
#37 = CIRCLE ( 'NONE', #56, 122.3499999999999900 ) ;
#38 = CARTESIAN_POINT ( 'NONE',  ( 2.755455298081545300E-016, 117.7782089642004900, -4.112905686388049100 ) ) ;
#39 = AXIS2_PLACEMENT_3D ( 'NONE', #163, #141, #272 ) ;
#40 = DIRECTION ( 'NONE',  ( 0.0000000000000000000, 0.0000000000000000000, 1.000000000000000000 ) ) ;
#41 = APPLICATION_PROTOCOL_DEFINITION ( 'international standard', 'config_control_design', 1994, #186 ) ;
#42 = APPROVAL_ROLE ( '' ) ;
#43 = CIRCLE ( 'NONE', #83, 2.250000000000001800 ) ;
#44 = ADVANCED_FACE ( 'NONE', ( #126 ), #54, .T. ) ;
#45 = EDGE_CURVE ( 'NONE', #198, #208, #226, .T. ) ;
#46 = VERTEX_POINT ( 'NONE', #130 ) ;
#47 = COORDINATED_UNIVERSAL_TIME_OFFSET ( 8, 0, .AHEAD. ) ;
#48 = FACE_OUTER_BOUND ( 'NONE', #195, .T. ) ;
#49 = PRODUCT_RELATED_PRODUCT_CATEGORY ( 'detail', '', ( #82 ) ) ;
#50 = UNCERTAINTY_MEASURE_WITH_UNIT (LENGTH_MEASURE( 1.000000000000000100E-005 ), #92, 'distance_accuracy_value', 'NONE');
#51 = EDGE_CURVE ( 'NONE', #89, #198, #270, .T. ) ;
#52 =( GEOMETRIC_REPRESENTATION_CONTEXT ( 3 ) GLOBAL_UNCERTAINTY_ASSIGNED_CONTEXT ( ( #50 ) ) GLOBAL_UNIT_ASSIGNED_CONTEXT ( ( #92, #71, #221 ) ) REPRESENTATION_CONTEXT ( 'NONE', 'WORKASPACE' ) );
#53 = LOCAL_TIME ( 10, 3, 43.00000000000000000, #123 ) ;
#54 = TOROIDAL_SURFACE ( 'NONE', #165, 120.0999999999999900, 2.250000000000000900 ) ;
#55 = DIRECTION ( 'NONE',  ( -1.000000000000000000, -0.0000000000000000000, -0.0000000000000000000 ) ) ;
#56 = AXIS2_PLACEMENT_3D ( 'NONE', #11, #184, #40 ) ;
#57 = AXIS2_PLACEMENT_3D ( 'NONE', #114, #252, #140 ) ;
#58 = CARTESIAN_POINT ( 'NONE',  ( 0.0000000000000000000, 122.2754676857864200, -4.269953421549238300 ) ) ;
#59 = ORIENTED_EDGE ( 'NONE', *, *, #241, .T. ) ;
#60 = DESIGN_CONTEXT ( 'detailed design', #186, 'design' ) ;
#61 = DIRECTION ( 'NONE',  ( 0.0000000000000000000, 0.0000000000000000000, 1.000000000000000000 ) ) ;
#62 = TOROIDAL_SURFACE ( 'NONE', #173, 120.0999999999999900, 2.250000000000000900 ) ;
#63 = AXIS2_PLACEMENT_3D ( 'NONE', #217, #201, #138 ) ;
#64 = PERSON ( 'Î´Ö¸¶¨', 'Î´Ö¸¶¨', 'Î´Ö¸¶¨', ('Î´Ö¸¶¨'), ('Î´Ö¸¶¨'), ('Î´Ö¸¶¨') ) ;
#65 = DIRECTION ( 'NONE',  ( -1.000000000000000000, -0.0000000000000000000, -0.0000000000000000000 ) ) ;
#66 = AXIS2_PLACEMENT_3D ( 'NONE', #204, #69, #220 ) ;
#67 = AXIS2_PLACEMENT_3D ( 'NONE', #162, #10, #182 ) ;
#68 = APPROVAL_DATE_TIME ( #142, #24 ) ;
#69 = DIRECTION ( 'NONE',  ( 0.0000000000000000000, 0.0000000000000000000, 1.000000000000000000 ) ) ;
#70 = AXIS2_PLACEMENT_3D ( 'NONE', #233, #111, #251 ) ;
#71 =( NAMED_UNIT ( * ) PLANE_ANGLE_UNIT ( ) SI_UNIT ( $, .RADIAN. ) );
#72 = ORIENTED_EDGE ( 'NONE', *, *, #45, .T. ) ;
#73 = APPROVAL_ROLE ( '' ) ;
#74 = ORIENTED_EDGE ( 'NONE', *, *, #51, .F. ) ;
#75 = AXIS2_PLACEMENT_3D ( 'NONE', #122, #137, #268 ) ;
#76 = MANIFOLD_SOLID_BREP ( 'Ðý×ª1', #190 ) ;
#77 = ORIENTED_EDGE ( 'NONE', *, *, #205, .T. ) ;
#78 = AXIS2_PLACEMENT_3D ( 'NONE', #22, #20, #15 ) ;
#79 = ORIENTED_EDGE ( 'NONE', *, *, #276, .T. ) ;
#80 = AXIS2_PLACEMENT_3D ( 'NONE', #120, #119, #98 ) ;
#81 = ADVANCED_BREP_SHAPE_REPRESENTATION ( '20011641', ( #76, #39 ), #52 ) ;
#82 = PRODUCT ( '20011641', '20011641', '', ( #166 ) ) ;
#83 = AXIS2_PLACEMENT_3D ( 'NONE', #224, #211, #171 ) ;
#84 = PERSON_AND_ORGANIZATION ( #64, #149 ) ;
#85 = ADVANCED_FACE ( 'NONE', ( #48 ), #177, .T. ) ;
#86 = DIRECTION ( 'NONE',  ( -1.000000000000000000, -0.0000000000000000000, -0.0000000000000000000 ) ) ;
#87 = APPROVAL_PERSON_ORGANIZATION ( #150, #24, #118 ) ;
#88 = CARTESIAN_POINT ( 'NONE',  ( 0.0000000000000000000, 0.0000000000000000000, 0.0000000000000000000 ) ) ;
#89 = VERTEX_POINT ( 'NONE', #91 ) ;
#90 = VERTEX_POINT ( 'NONE', #156 ) ;
#91 = CARTESIAN_POINT ( 'NONE',  ( 0.0000000000000000000, 1.498355358756786800E-014, -122.3499999999999900 ) ) ;
#92 =( LENGTH_UNIT ( ) NAMED_UNIT ( * ) SI_UNIT ( .MILLI., .METRE. ) );
#93 = COORDINATED_UNIVERSAL_TIME_OFFSET ( 8, 0, .AHEAD. ) ;
#94 = DATE_TIME_ROLE ( 'creation_date' ) ;
#95 = CARTESIAN_POINT ( 'NONE',  ( 0.0000000000000000000, 122.3499999999999900, 0.0000000000000000000 ) ) ;
#96 = FACE_OUTER_BOUND ( 'NONE', #227, .T. ) ;
#97 = AXIS2_PLACEMENT_3D ( 'NONE', #275, #259, #258 ) ;
#98 = DIRECTION ( 'NONE',  ( 1.000000000000000000, 0.0000000000000000000, 0.0000000000000000000 ) ) ;
#99 = LOCAL_TIME ( 10, 3, 43.00000000000000000, #164 ) ;
#100 = AXIS2_PLACEMENT_3D ( 'NONE', #240, #239, #238 ) ;
#101 = CIRCLE ( 'NONE', #97, 2.250000000000001800 ) ;
#102 = AXIS2_PLACEMENT_3D ( 'NONE', #247, #197, #266 ) ;
#103 = CARTESIAN_POINT ( 'NONE',  ( 0.0000000000000000000, 0.0000000000000000000, 0.0000000000000000000 ) ) ;
#104 = APPROVAL_DATE_TIME ( #172, #4 ) ;
#105 = AXIS2_PLACEMENT_3D ( 'NONE', #147, #189, #277 ) ;
#106 = DIRECTION ( 'NONE',  ( 0.0000000000000000000, 0.0000000000000000000, 1.000000000000000000 ) ) ;
#107 = CIRCLE ( 'NONE', #105, 117.8499999999999900 ) ;
#108 = ADVANCED_FACE ( 'NONE', ( #113 ), #219, .T. ) ;
#109 = CARTESIAN_POINT ( 'NONE',  ( 0.0000000000000000000, 0.0000000000000000000, 0.0000000000000000000 ) ) ;
#110 = ORIENTED_EDGE ( 'NONE', *, *, #241, .F. ) ;
#111 = DIRECTION ( 'NONE',  ( -1.000000000000000000, -0.0000000000000000000, -0.0000000000000000000 ) ) ;
#112 = APPROVAL_PERSON_ORGANIZATION ( #176, #4, #42 ) ;
#113 = FACE_OUTER_BOUND ( 'NONE', #244, .T. ) ;
#114 = CARTESIAN_POINT ( 'NONE',  ( 0.0000000000000000000, 0.0000000000000000000, 120.0999999999999900 ) ) ;
#115 = AXIS2_PLACEMENT_3D ( 'NONE', #265, #232, #200 ) ;
#116 = EDGE_CURVE ( 'NONE', #90, #230, #174, .T. ) ;
#117 = ORIENTED_EDGE ( 'NONE', *, *, #45, .F. ) ;
#118 = APPROVAL_ROLE ( '' ) ;
#119 = DIRECTION ( 'NONE',  ( 0.0000000000000000000, 0.03489949670248662000, 0.9993908270190962100 ) ) ;
#120 = CARTESIAN_POINT ( 'NONE',  ( 0.0000000000000000000, 120.0268383249934600, -4.191429553968642800 ) ) ;
#121 = PLANE ( 'NONE',  #67 ) ;
#122 = CARTESIAN_POINT ( 'NONE',  ( 0.0000000000000000000, 1.470800805775971400E-014, -120.0999999999999900 ) ) ;
#123 = COORDINATED_UNIVERSAL_TIME_OFFSET ( 8, 0, .AHEAD. ) ;
#124 = AXIS2_PLACEMENT_3D ( 'NONE', #30, #86, #158 ) ;
#125 = ORIENTED_EDGE ( 'NONE', *, *, #215, .T. ) ;
#126 = FACE_OUTER_BOUND ( 'NONE', #143, .T. ) ;
#127 = AXIS2_PLACEMENT_3D ( 'NONE', #109, #157, #181 ) ;
#128 = AXIS2_PLACEMENT_3D ( 'NONE', #160, #65, #61 ) ;
#129 = PRODUCT_DEFINITION_SHAPE ( 'NONE', 'NONE',  #34 ) ;
#130 = CARTESIAN_POINT ( 'NONE',  ( 2.755455298081543800E-016, 117.8499999999999900, 0.0000000000000000000 ) ) ;
#131 = EDGE_CURVE ( 'NONE', #3, #280, #223, .T. ) ;
#132 = EDGE_LOOP ( 'NONE', ( #117, #179, #271, #59 ) ) ;
#133 = CARTESIAN_POINT ( 'NONE',  ( 0.0000000000000000000, 0.0000000000000000000, 0.0000000000000000000 ) ) ;
#134 = ORIENTED_EDGE ( 'NONE', *, *, #203, .F. ) ;
#135 = DIRECTION ( 'NONE',  ( -1.000000000000000000, -0.0000000000000000000, -0.0000000000000000000 ) ) ;
#136 = DIRECTION ( 'NONE',  ( 0.0000000000000000000, 0.0000000000000000000, 1.000000000000000000 ) ) ;
#137 = DIRECTION ( 'NONE',  ( -0.0000000000000000000, 1.000000000000000000, 1.224646799147353200E-016 ) ) ;
#138 = DIRECTION ( 'NONE',  ( 0.0000000000000000000, 0.0000000000000000000, 1.000000000000000000 ) ) ;
#139 = EDGE_LOOP ( 'NONE', ( #146, #243, #281, #209 ) ) ;
#140 = DIRECTION ( 'NONE',  ( 0.0000000000000000000, 0.0000000000000000000, -1.000000000000000000 ) ) ;
#141 = DIRECTION ( 'NONE',  ( 0.0000000000000000000, 0.0000000000000000000, 1.000000000000000000 ) ) ;
#142 = DATE_AND_TIME ( #196, #242 ) ;
#143 = EDGE_LOOP ( 'NONE', ( #192, #72, #248, #185 ) ) ;
#144 = PERSON_AND_ORGANIZATION_ROLE ( 'design_supplier' ) ;
#145 = AXIS2_PLACEMENT_3D ( 'NONE', #161, #178, #180 ) ;
#146 = ORIENTED_EDGE ( 'NONE', *, *, #131, .F. ) ;
#147 = CARTESIAN_POINT ( 'NONE',  ( 2.755455298081545300E-016, 0.0000000000000000000, 0.0000000000000000000 ) ) ;
#148 = ADVANCED_FACE ( 'NONE', ( #260 ), #154, .F. ) ;
#149 = ORGANIZATION ( 'Î´Ö¸¶¨', 'Î´Ö¸¶¨', '' ) ;
#150 = PERSON_AND_ORGANIZATION ( #64, #149 ) ;
#151 = ORIENTED_EDGE ( 'NONE', *, *, #203, .T. ) ;
#152 = ORIENTED_EDGE ( 'NONE', *, *, #279, .F. ) ;
#153 = CIRCLE ( 'NONE', #66, 2.250000000000000900 ) ;
#154 = PLANE ( 'NONE',  #102 ) ;
#155 = PERSON_AND_ORGANIZATION ( #64, #149 ) ;
#156 = CARTESIAN_POINT ( 'NONE',  ( 0.0000000000000000000, 1.443246252795156000E-014, -117.8499999999999900 ) ) ;
#157 = DIRECTION ( 'NONE',  ( -1.000000000000000000, -0.0000000000000000000, -0.0000000000000000000 ) ) ;
#158 = DIRECTION ( 'NONE',  ( 0.0000000000000000000, 0.0000000000000000000, 1.000000000000000000 ) ) ;
#159 = CIRCLE ( 'NONE', #75, 2.250000000000001800 ) ;
#160 = CARTESIAN_POINT ( 'NONE',  ( 2.755455298081545300E-016, 0.0000000000000000000, 0.0000000000000000000 ) ) ;
#161 = CARTESIAN_POINT ( 'NONE',  ( 0.0000000000000000000, 0.0000000000000000000, 0.0000000000000000000 ) ) ;
#162 = CARTESIAN_POINT ( 'NONE',  ( 0.0000000000000000000, 120.0268383249934600, -4.191429553968642800 ) ) ;
#163 = CARTESIAN_POINT ( 'NONE',  ( 0.0000000000000000000, 0.0000000000000000000, 0.0000000000000000000 ) ) ;
#164 = COORDINATED_UNIVERSAL_TIME_OFFSET ( 8, 0, .AHEAD. ) ;
#165 = AXIS2_PLACEMENT_3D ( 'NONE', #88, #55, #106 ) ;
#166 = MECHANICAL_CONTEXT ( 'NONE', #254, 'mechanical' ) ;
#167 = PERSON_AND_ORGANIZATION_ROLE ( 'classification_officer' ) ;
#168 = FACE_OUTER_BOUND ( 'NONE', #139, .T. ) ;
#169 = CARTESIAN_POINT ( 'NONE',  ( 0.0000000000000000000, 0.0000000000000000000, 122.3499999999999900 ) ) ;
#170 = CIRCLE ( 'NONE', #57, 2.250000000000001800 ) ;
#171 = DIRECTION ( 'NONE',  ( 0.0000000000000000000, 0.0000000000000000000, -1.000000000000000000 ) ) ;
#172 = DATE_AND_TIME ( #218, #262 ) ;
#173 = AXIS2_PLACEMENT_3D ( 'NONE', #103, #231, #28 ) ;
#174 = CIRCLE ( 'NONE', #128, 117.8499999999999900 ) ;
#175 = AXIS2_PLACEMENT_3D ( 'NONE', #133, #135, #136 ) ;
#176 = PERSON_AND_ORGANIZATION ( #64, #149 ) ;
#177 = TOROIDAL_SURFACE ( 'NONE', #127, 120.0999999999999900, 2.250000000000000900 ) ;
#178 = DIRECTION ( 'NONE',  ( -1.000000000000000000, -0.0000000000000000000, -0.0000000000000000000 ) ) ;
#179 = ORIENTED_EDGE ( 'NONE', *, *, #205, .F. ) ;
#180 = DIRECTION ( 'NONE',  ( 0.0000000000000000000, 0.0000000000000000000, 1.000000000000000000 ) ) ;
#181 = DIRECTION ( 'NONE',  ( 0.0000000000000000000, 0.0000000000000000000, 1.000000000000000000 ) ) ;
#182 = DIRECTION ( 'NONE',  ( 1.000000000000000000, 0.0000000000000000000, 0.0000000000000000000 ) ) ;
#183 = PERSON_AND_ORGANIZATION ( #64, #149 ) ;
#184 = DIRECTION ( 'NONE',  ( -1.000000000000000000, -0.0000000000000000000, -0.0000000000000000000 ) ) ;
#185 = ORIENTED_EDGE ( 'NONE', *, *, #264, .F. ) ;
#186 = APPLICATION_CONTEXT ( 'configuration controlled 3d designs of mechanical parts and assemblies' ) ;
#187 = EDGE_LOOP ( 'NONE', ( #125, #229 ) ) ;
#188 = APPROVAL_STATUS ( 'not_yet_approved' ) ;
#189 = DIRECTION ( 'NONE',  ( -1.000000000000000000, -0.0000000000000000000, -0.0000000000000000000 ) ) ;
#190 = CLOSED_SHELL ( 'NONE', ( #44, #85, #193, #108, #267, #6, #250, #148 ) ) ;
#191 = ORIENTED_EDGE ( 'NONE', *, *, #51, .T. ) ;
#192 = ORIENTED_EDGE ( 'NONE', *, *, #276, .F. ) ;
#193 = ADVANCED_FACE ( 'NONE', ( #168 ), #216, .T. ) ;
#194 = EDGE_CURVE ( 'NONE', #280, #90, #107, .T. ) ;
#195 = EDGE_LOOP ( 'NONE', ( #25, #191, #79, #18 ) ) ;
#196 = CALENDAR_DATE ( 2018, 18, 7 ) ;
#197 = DIRECTION ( 'NONE',  ( 0.0000000000000000000, 0.0000000000000000000, 1.000000000000000000 ) ) ;
#198 = VERTEX_POINT ( 'NONE', #169 ) ;
#199 = ORIENTED_EDGE ( 'NONE', *, *, #194, .T. ) ;
#200 = DIRECTION ( 'NONE',  ( 1.000000000000000000, 0.0000000000000000000, 0.0000000000000000000 ) ) ;
#201 = DIRECTION ( 'NONE',  ( -1.000000000000000000, -0.0000000000000000000, -0.0000000000000000000 ) ) ;
#202 = SHAPE_DEFINITION_REPRESENTATION ( #129, #81 ) ;
#203 = EDGE_CURVE ( 'NONE', #90, #89, #101, .T. ) ;
#204 = CARTESIAN_POINT ( 'NONE',  ( 0.0000000000000000000, 120.0999999999999900, 0.0000000000000000000 ) ) ;
#205 = EDGE_CURVE ( 'NONE', #230, #198, #43, .T. ) ;
#206 = DATE_AND_TIME ( #246, #23 ) ;
#207 = APPROVAL_STATUS ( 'not_yet_approved' ) ;
#208 = VERTEX_POINT ( 'NONE', #95 ) ;
#209 = ORIENTED_EDGE ( 'NONE', *, *, #194, .F. ) ;
#210 = TOROIDAL_SURFACE ( 'NONE', #63, 120.0999999999999900, 2.250000000000000900 ) ;
#211 = DIRECTION ( 'NONE',  ( 0.0000000000000000000, -1.000000000000000000, 0.0000000000000000000 ) ) ;
#212 = APPROVAL_DATE_TIME ( #253, #33 ) ;
#213 = CIRCLE ( 'NONE', #78, 2.250000000000000900 ) ;
#214 = APPROVAL_PERSON_ORGANIZATION ( #263, #33, #73 ) ;
#215 = EDGE_CURVE ( 'NONE', #280, #3, #257, .T. ) ;
#216 = TOROIDAL_SURFACE ( 'NONE', #100, 120.0999999999999900, 2.250000000000000900 ) ;
#217 = CARTESIAN_POINT ( 'NONE',  ( 0.0000000000000000000, 0.0000000000000000000, 0.0000000000000000000 ) ) ;
#218 = CALENDAR_DATE ( 2018, 18, 7 ) ;
#219 = TOROIDAL_SURFACE ( 'NONE', #124, 120.0999999999999900, 2.250000000000000900 ) ;
#220 = DIRECTION ( 'NONE',  ( 1.000000000000000000, 0.0000000000000000000, 0.0000000000000000000 ) ) ;
#221 =( NAMED_UNIT ( * ) SI_UNIT ( $, .STERADIAN. ) SOLID_ANGLE_UNIT ( ) );
#222 = PERSON_AND_ORGANIZATION_ROLE ( 'creator' ) ;
#223 = CIRCLE ( 'NONE', #115, 2.250000000000000900 ) ;
#224 = CARTESIAN_POINT ( 'NONE',  ( 0.0000000000000000000, 0.0000000000000000000, 120.0999999999999900 ) ) ;
#225 = DATE_AND_TIME ( #269, #53 ) ;
#226 = CIRCLE ( 'NONE', #175, 122.3499999999999900 ) ;
#227 = EDGE_LOOP ( 'NONE', ( #74, #134, #5, #77 ) ) ;
#228 = PERSON_AND_ORGANIZATION ( #64, #149 ) ;
#229 = ORIENTED_EDGE ( 'NONE', *, *, #131, .T. ) ;
#230 = VERTEX_POINT ( 'NONE', #256 ) ;
#231 = DIRECTION ( 'NONE',  ( -1.000000000000000000, -0.0000000000000000000, -0.0000000000000000000 ) ) ;
#232 = DIRECTION ( 'NONE',  ( 0.0000000000000000000, 0.03489949670248662000, 0.9993908270190962100 ) ) ;
#233 = CARTESIAN_POINT ( 'NONE',  ( 2.755455298081545300E-016, 0.0000000000000000000, 0.0000000000000000000 ) ) ;
#234 = FACE_OUTER_BOUND ( 'NONE', #132, .T. ) ;
#235 = APPLICATION_PROTOCOL_DEFINITION ( 'international standard', 'config_control_design', 1994, #254 ) ;
#236 = APPROVAL_STATUS ( 'not_yet_approved' ) ;
#237 = EDGE_LOOP ( 'NONE', ( #110, #261 ) ) ;
#238 = DIRECTION ( 'NONE',  ( 0.0000000000000000000, 0.0000000000000000000, 1.000000000000000000 ) ) ;
#239 = DIRECTION ( 'NONE',  ( -1.000000000000000000, -0.0000000000000000000, -0.0000000000000000000 ) ) ;
#240 = CARTESIAN_POINT ( 'NONE',  ( 0.0000000000000000000, 0.0000000000000000000, 0.0000000000000000000 ) ) ;
#241 = EDGE_CURVE ( 'NONE', #46, #208, #213, .T. ) ;
#242 = LOCAL_TIME ( 10, 3, 43.00000000000000000, #14 ) ;
#243 = ORIENTED_EDGE ( 'NONE', *, *, #279, .T. ) ;
#244 = EDGE_LOOP ( 'NONE', ( #152, #19, #199, #151 ) ) ;
#245 = EDGE_CURVE ( 'NONE', #89, #90, #159, .T. ) ;
#246 = CALENDAR_DATE ( 2018, 18, 7 ) ;
#247 = CARTESIAN_POINT ( 'NONE',  ( 0.0000000000000000000, 120.0999999999999900, 0.0000000000000000000 ) ) ;
#248 = ORIENTED_EDGE ( 'NONE', *, *, #273, .T. ) ;
#249 = CIRCLE ( 'NONE', #70, 117.8499999999999900 ) ;
#250 = ADVANCED_FACE ( 'NONE', ( #35 ), #121, .T. ) ;
#251 = DIRECTION ( 'NONE',  ( 0.0000000000000000000, 0.0000000000000000000, 1.000000000000000000 ) ) ;
#252 = DIRECTION ( 'NONE',  ( 0.0000000000000000000, -1.000000000000000000, 0.0000000000000000000 ) ) ;
#253 = DATE_AND_TIME ( #32, #99 ) ;
#254 = APPLICATION_CONTEXT ( 'configuration controlled 3d designs of mechanical parts and assemblies' ) ;
#255 = PERSON_AND_ORGANIZATION_ROLE ( 'creator' ) ;
#256 = CARTESIAN_POINT ( 'NONE',  ( 0.0000000000000000000, 0.0000000000000000000, 117.8499999999999900 ) ) ;
#257 = CIRCLE ( 'NONE', #80, 2.250000000000000900 ) ;
#258 = DIRECTION ( 'NONE',  ( 0.0000000000000000000, -1.224646799147349800E-016, 1.000000000000000000 ) ) ;
#259 = DIRECTION ( 'NONE',  ( -0.0000000000000000000, 1.000000000000000000, 1.224646799147353200E-016 ) ) ;
#260 = FACE_OUTER_BOUND ( 'NONE', #237, .T. ) ;
#261 = ORIENTED_EDGE ( 'NONE', *, *, #273, .F. ) ;
#262 = LOCAL_TIME ( 10, 3, 43.00000000000000000, #47 ) ;
#263 = PERSON_AND_ORGANIZATION ( #64, #149 ) ;
#264 = EDGE_CURVE ( 'NONE', #230, #46, #249, .T. ) ;
#265 = CARTESIAN_POINT ( 'NONE',  ( 0.0000000000000000000, 120.0268383249934600, -4.191429553968642800 ) ) ;
#266 = DIRECTION ( 'NONE',  ( 1.000000000000000000, 0.0000000000000000000, -0.0000000000000000000 ) ) ;
#267 = ADVANCED_FACE ( 'NONE', ( #96 ), #210, .T. ) ;
#268 = DIRECTION ( 'NONE',  ( 0.0000000000000000000, -1.224646799147349800E-016, 1.000000000000000000 ) ) ;
#269 = CALENDAR_DATE ( 2018, 18, 7 ) ;
#270 = CIRCLE ( 'NONE', #145, 122.3499999999999900 ) ;
#271 = ORIENTED_EDGE ( 'NONE', *, *, #264, .T. ) ;
#272 = DIRECTION ( 'NONE',  ( 1.000000000000000000, 0.0000000000000000000, 0.0000000000000000000 ) ) ;
#273 = EDGE_CURVE ( 'NONE', #208, #46, #153, .T. ) ;
#274 = SECURITY_CLASSIFICATION_LEVEL ( 'unclassified' ) ;
#275 = CARTESIAN_POINT ( 'NONE',  ( 0.0000000000000000000, 1.470800805775971400E-014, -120.0999999999999900 ) ) ;
#276 = EDGE_CURVE ( 'NONE', #198, #230, #170, .T. ) ;
#277 = DIRECTION ( 'NONE',  ( 0.0000000000000000000, 0.0000000000000000000, 1.000000000000000000 ) ) ;
#278 = PERSON_AND_ORGANIZATION ( #64, #149 ) ;
#279 = EDGE_CURVE ( 'NONE', #3, #89, #37, .T. ) ;
#280 = VERTEX_POINT ( 'NONE', #38 ) ;
#281 = ORIENTED_EDGE ( 'NONE', *, *, #245, .T. ) ;
ENDSEC;
END-ISO-10303-21;
