ISO-10303-21;
HEADER;
FILE_DESCRIPTION (( 'STEP AP203' ),
    '1' );
FILE_NAME ('20011541.STEP',
    '2018-07-18T02:03:29',
    ( '' ),
    ( '' ),
    'SwSTEP 2.0',
    'SolidWorks 2014',
    '' );
FILE_SCHEMA (( 'CONFIG_CONTROL_DESIGN' ));
ENDSEC;

DATA;
#1 = CC_DESIGN_SECURITY_CLASSIFICATION ( #10, ( #42 ) ) ;
#2 = CC_DESIGN_APPROVAL ( #4, ( #10 ) ) ;
#3 = APPROVAL_DATE_TIME ( #6, #4 ) ;
#4 = APPROVAL ( #70, 'Î´Ö¸¶¨' ) ;
#5 = ADVANCED_FACE ( 'NONE', ( #170 ), #118, .F. ) ;
#6 = DATE_AND_TIME ( #12, #13 ) ;
#7 = CC_DESIGN_DATE_AND_TIME_ASSIGNMENT ( #18, #198, ( #10 ) ) ;
#8 = DIRECTION ( 'NONE',  ( -1.000000000000000000, -0.0000000000000000000, -0.0000000000000000000 ) ) ;
#9 = CC_DESIGN_PERSON_AND_ORGANIZATION_ASSIGNMENT ( #25, #26, ( #10 ) ) ;
#10 = SECURITY_CLASSIFICATION ( '', '', #186 ) ;
#11 = VERTEX_POINT ( 'NONE', #92 ) ;
#12 = CALENDAR_DATE ( 2018, 18, 7 ) ;
#13 = LOCAL_TIME ( 10, 3, 29.00000000000000000, #14 ) ;
#14 = COORDINATED_UNIVERSAL_TIME_OFFSET ( 8, 0, .AHEAD. ) ;
#15 = APPROVAL_PERSON_ORGANIZATION ( #16, #4, #213 ) ;
#16 = PERSON_AND_ORGANIZATION ( #214, #72 ) ;
#17 = DIRECTION ( 'NONE',  ( -1.000000000000000000, -0.0000000000000000000, -0.0000000000000000000 ) ) ;
#18 = DATE_AND_TIME ( #21, #22 ) ;
#19 = MECHANICAL_CONTEXT ( 'NONE', #270, 'mechanical' ) ;
#20 = CC_DESIGN_PERSON_AND_ORGANIZATION_ASSIGNMENT ( #27, #273, ( #42 ) ) ;
#21 = CALENDAR_DATE ( 2018, 18, 7 ) ;
#22 = LOCAL_TIME ( 10, 3, 29.00000000000000000, #24 ) ;
#23 = CC_DESIGN_PERSON_AND_ORGANIZATION_ASSIGNMENT ( #28, #164, ( #42 ) ) ;
#24 = COORDINATED_UNIVERSAL_TIME_OFFSET ( 8, 0, .AHEAD. ) ;
#25 = PERSON_AND_ORGANIZATION ( #214, #72 ) ;
#26 = PERSON_AND_ORGANIZATION_ROLE ( 'classification_officer' ) ;
#27 = PERSON_AND_ORGANIZATION ( #214, #72 ) ;
#28 = PERSON_AND_ORGANIZATION ( #214, #72 ) ;
#29 = APPROVAL_DATE_TIME ( #33, #40 ) ;
#30 = DIRECTION ( 'NONE',  ( 0.0000000000000000000, 0.0000000000000000000, -1.000000000000000000 ) ) ;
#31 = CC_DESIGN_APPROVAL ( #40, ( #42 ) ) ;
#32 = DIRECTION ( 'NONE',  ( 0.0000000000000000000, -1.000000000000000000, 0.0000000000000000000 ) ) ;
#33 = DATE_AND_TIME ( #34, #37 ) ;
#34 = CALENDAR_DATE ( 2018, 18, 7 ) ;
#35 = VERTEX_POINT ( 'NONE', #120 ) ;
#36 = ORIENTED_EDGE ( 'NONE', *, *, #259, .T. ) ;
#37 = LOCAL_TIME ( 10, 3, 29.00000000000000000, #38 ) ;
#38 = COORDINATED_UNIVERSAL_TIME_OFFSET ( 8, 0, .AHEAD. ) ;
#39 = APPROVAL_PERSON_ORGANIZATION ( #41, #40, #251 ) ;
#40 = APPROVAL ( #146, 'Î´Ö¸¶¨' ) ;
#41 = PERSON_AND_ORGANIZATION ( #214, #72 ) ;
#42 = PRODUCT_DEFINITION_FORMATION_WITH_SPECIFIED_SOURCE ( 'ÈÎºÎ', '', #132, .NOT_KNOWN. ) ;
#43 = DATE_AND_TIME ( #44, #48 ) ;
#44 = CALENDAR_DATE ( 2018, 18, 7 ) ;
#45 = CC_DESIGN_DATE_AND_TIME_ASSIGNMENT ( #43, #237, ( #53 ) ) ;
#46 = CC_DESIGN_PERSON_AND_ORGANIZATION_ASSIGNMENT ( #50, #124, ( #53 ) ) ;
#47 = CC_DESIGN_APPROVAL ( #51, ( #53 ) ) ;
#48 = LOCAL_TIME ( 10, 3, 29.00000000000000000, #49 ) ;
#49 = COORDINATED_UNIVERSAL_TIME_OFFSET ( 8, 0, .AHEAD. ) ;
#50 = PERSON_AND_ORGANIZATION ( #214, #72 ) ;
#51 = APPROVAL ( #96, 'Î´Ö¸¶¨' ) ;
#52 = APPROVAL_DATE_TIME ( #54, #51 ) ;
#53 = PRODUCT_DEFINITION ( 'Î´Öª', '', #42, #76 ) ;
#54 = DATE_AND_TIME ( #56, #58 ) ;
#55 = CC_DESIGN_PERSON_AND_ORGANIZATION_ASSIGNMENT ( #69, #197, ( #132 ) ) ;
#56 = CALENDAR_DATE ( 2018, 18, 7 ) ;
#57 = CIRCLE ( 'NONE', #156, 2.250000000000000900 ) ;
#58 = LOCAL_TIME ( 10, 3, 29.00000000000000000, #63 ) ;
#59 = CARTESIAN_POINT ( 'NONE',  ( 0.0000000000000000000, 0.0000000000000000000, 0.0000000000000000000 ) ) ;
#60 = CARTESIAN_POINT ( 'NONE',  ( 0.0000000000000000000, 1.103406766031765000E-014, -90.09999999999998000 ) ) ;
#61 = AXIS2_PLACEMENT_3D ( 'NONE', #208, #180, #184 ) ;
#62 = EDGE_CURVE ( 'NONE', #35, #154, #266, .T. ) ;
#63 = COORDINATED_UNIVERSAL_TIME_OFFSET ( 8, 0, .AHEAD. ) ;
#64 = CARTESIAN_POINT ( 'NONE',  ( 0.0000000000000000000, 0.0000000000000000000, 0.0000000000000000000 ) ) ;
#65 = APPROVAL_PERSON_ORGANIZATION ( #66, #51, #227 ) ;
#66 = PERSON_AND_ORGANIZATION ( #214, #72 ) ;
#67 = APPLICATION_CONTEXT ( 'configuration controlled 3d designs of mechanical parts and assemblies' ) ;
#68 = DIRECTION ( 'NONE',  ( -0.0000000000000000000, 1.000000000000000000, 1.224646799147353200E-016 ) ) ;
#69 = PERSON_AND_ORGANIZATION ( #214, #72 ) ;
#70 = APPROVAL_STATUS ( 'not_yet_approved' ) ;
#71 = CARTESIAN_POINT ( 'NONE',  ( 2.755455298081545300E-016, 0.0000000000000000000, 0.0000000000000000000 ) ) ;
#72 = ORGANIZATION ( 'Î´Ö¸¶¨', 'Î´Ö¸¶¨', '' ) ;
#73 = CARTESIAN_POINT ( 'NONE',  ( 0.0000000000000000000, 0.0000000000000000000, 90.09999999999998000 ) ) ;
#74 = ADVANCED_FACE ( 'NONE', ( #78 ), #267, .T. ) ;
#75 = ORIENTED_EDGE ( 'NONE', *, *, #105, .F. ) ;
#76 = DESIGN_CONTEXT ( 'detailed design', #67, 'design' ) ;
#77 = EDGE_LOOP ( 'NONE', ( #175, #183, #232, #75 ) ) ;
#78 = FACE_OUTER_BOUND ( 'NONE', #217, .T. ) ;
#79 =( GEOMETRIC_REPRESENTATION_CONTEXT ( 3 ) GLOBAL_UNCERTAINTY_ASSIGNED_CONTEXT ( ( #140 ) ) GLOBAL_UNIT_ASSIGNED_CONTEXT ( ( #226, #121, #236 ) ) REPRESENTATION_CONTEXT ( 'NONE', 'WORKASPACE' ) );
#80 = EDGE_CURVE ( 'NONE', #278, #191, #200, .T. ) ;
#81 = PRODUCT_RELATED_PRODUCT_CATEGORY ( 'detail', '', ( #132 ) ) ;
#82 = AXIS2_PLACEMENT_3D ( 'NONE', #64, #209, #94 ) ;
#83 = AXIS2_PLACEMENT_3D ( 'NONE', #246, #162, #269 ) ;
#84 = PRODUCT_DEFINITION_SHAPE ( 'NONE', 'NONE',  #53 ) ;
#85 = AXIS2_PLACEMENT_3D ( 'NONE', #91, #225, #119 ) ;
#86 = FACE_OUTER_BOUND ( 'NONE', #216, .T. ) ;
#87 = EDGE_CURVE ( 'NONE', #148, #221, #57, .T. ) ;
#88 = AXIS2_PLACEMENT_3D ( 'NONE', #195, #224, #116 ) ;
#89 = DIRECTION ( 'NONE',  ( 0.0000000000000000000, 0.0000000000000000000, 1.000000000000000000 ) ) ;
#90 = DIRECTION ( 'NONE',  ( 0.0000000000000000000, 0.0000000000000000000, 1.000000000000000000 ) ) ;
#91 = CARTESIAN_POINT ( 'NONE',  ( 0.0000000000000000000, 90.09999999999998000, 0.0000000000000000000 ) ) ;
#92 = CARTESIAN_POINT ( 'NONE',  ( 0.0000000000000000000, 0.0000000000000000000, 87.84999999999998000 ) ) ;
#93 = AXIS2_PLACEMENT_3D ( 'NONE', #178, #17, #196 ) ;
#94 = DIRECTION ( 'NONE',  ( 0.0000000000000000000, 0.0000000000000000000, 1.000000000000000000 ) ) ;
#95 = CARTESIAN_POINT ( 'NONE',  ( 0.0000000000000000000, 90.09999999999998000, 0.0000000000000000000 ) ) ;
#96 = APPROVAL_STATUS ( 'not_yet_approved' ) ;
#97 = DIRECTION ( 'NONE',  ( 0.0000000000000000000, 0.0000000000000000000, 1.000000000000000000 ) ) ;
#98 = CIRCLE ( 'NONE', #82, 92.34999999999999400 ) ;
#99 = CIRCLE ( 'NONE', #83, 2.250000000000001800 ) ;
#100 = AXIS2_PLACEMENT_3D ( 'NONE', #59, #205, #89 ) ;
#101 = CIRCLE ( 'NONE', #93, 87.84999999999998000 ) ;
#102 = ADVANCED_FACE ( 'NONE', ( #231 ), #243, .T. ) ;
#103 = AXIS2_PLACEMENT_3D ( 'NONE', #152, #160, #263 ) ;
#104 = MANIFOLD_SOLID_BREP ( 'Ðý×ª1', #244 ) ;
#105 = EDGE_CURVE ( 'NONE', #154, #11, #258, .T. ) ;
#106 = FACE_OUTER_BOUND ( 'NONE', #233, .T. ) ;
#107 = CIRCLE ( 'NONE', #111, 2.250000000000001800 ) ;
#108 = CIRCLE ( 'NONE', #100, 92.34999999999999400 ) ;
#109 = AXIS2_PLACEMENT_3D ( 'NONE', #73, #32, #30 ) ;
#110 = ADVANCED_BREP_SHAPE_REPRESENTATION ( '20011541', ( #104, #61 ), #79 ) ;
#111 = AXIS2_PLACEMENT_3D ( 'NONE', #150, #147, #129 ) ;
#112 = TOROIDAL_SURFACE ( 'NONE', #88, 90.09999999999998000, 2.250000000000000900 ) ;
#113 = DIRECTION ( 'NONE',  ( 1.000000000000000000, 0.0000000000000000000, 0.0000000000000000000 ) ) ;
#114 = DIRECTION ( 'NONE',  ( 0.0000000000000000000, -1.224646799147349800E-016, 1.000000000000000000 ) ) ;
#115 = CIRCLE ( 'NONE', #85, 2.250000000000000900 ) ;
#116 = DIRECTION ( 'NONE',  ( 0.0000000000000000000, 0.0000000000000000000, 1.000000000000000000 ) ) ;
#117 = CIRCLE ( 'NONE', #103, 2.250000000000000900 ) ;
#118 = PLANE ( 'NONE',  #190 ) ;
#119 = DIRECTION ( 'NONE',  ( 1.000000000000000000, 0.0000000000000000000, 0.0000000000000000000 ) ) ;
#120 = CARTESIAN_POINT ( 'NONE',  ( 0.0000000000000000000, 1.130961319012580600E-014, -92.34999999999999400 ) ) ;
#121 =( NAMED_UNIT ( * ) PLANE_ANGLE_UNIT ( ) SI_UNIT ( $, .RADIAN. ) );
#122 = CIRCLE ( 'NONE', #134, 2.250000000000000900 ) ;
#123 = ORIENTED_EDGE ( 'NONE', *, *, #207, .T. ) ;
#124 = PERSON_AND_ORGANIZATION_ROLE ( 'creator' ) ;
#125 = CARTESIAN_POINT ( 'NONE',  ( 0.0000000000000000000, 92.29374287521352500, -3.222968520474638800 ) ) ;
#126 = DIRECTION ( 'NONE',  ( -1.000000000000000000, -0.0000000000000000000, -0.0000000000000000000 ) ) ;
#127 = AXIS2_PLACEMENT_3D ( 'NONE', #254, #275, #253 ) ;
#128 = TOROIDAL_SURFACE ( 'NONE', #127, 90.09999999999998000, 2.250000000000000900 ) ;
#129 = DIRECTION ( 'NONE',  ( 0.0000000000000000000, -1.224646799147349800E-016, 1.000000000000000000 ) ) ;
#130 = EDGE_LOOP ( 'NONE', ( #199, #250, #241, #256 ) ) ;
#131 = CIRCLE ( 'NONE', #109, 2.250000000000001800 ) ;
#132 = PRODUCT ( '20011541', '20011541', '', ( #19 ) ) ;
#133 = SHAPE_DEFINITION_REPRESENTATION ( #84, #110 ) ;
#134 = AXIS2_PLACEMENT_3D ( 'NONE', #188, #169, #168 ) ;
#135 = AXIS2_PLACEMENT_3D ( 'NONE', #204, #126, #215 ) ;
#136 = TOROIDAL_SURFACE ( 'NONE', #135, 90.09999999999998000, 2.250000000000000900 ) ;
#137 = FACE_OUTER_BOUND ( 'NONE', #166, .T. ) ;
#138 = FACE_OUTER_BOUND ( 'NONE', #229, .T. ) ;
#139 = AXIS2_PLACEMENT_3D ( 'NONE', #158, #161, #181 ) ;
#140 = UNCERTAINTY_MEASURE_WITH_UNIT (LENGTH_MEASURE( 1.000000000000000100E-005 ), #226, 'distance_accuracy_value', 'NONE');
#141 = DIRECTION ( 'NONE',  ( 0.0000000000000000000, 0.0000000000000000000, 1.000000000000000000 ) ) ;
#142 = AXIS2_PLACEMENT_3D ( 'NONE', #71, #277, #255 ) ;
#143 = DIRECTION ( 'NONE',  ( 0.0000000000000000000, 0.0000000000000000000, 1.000000000000000000 ) ) ;
#144 = AXIS2_PLACEMENT_3D ( 'NONE', #264, #210, #97 ) ;
#145 = ORIENTED_EDGE ( 'NONE', *, *, #87, .T. ) ;
#146 = APPROVAL_STATUS ( 'not_yet_approved' ) ;
#147 = DIRECTION ( 'NONE',  ( -0.0000000000000000000, 1.000000000000000000, 1.224646799147353200E-016 ) ) ;
#148 = VERTEX_POINT ( 'NONE', #125 ) ;
#149 = TOROIDAL_SURFACE ( 'NONE', #144, 90.09999999999998000, 2.250000000000000900 ) ;
#150 = CARTESIAN_POINT ( 'NONE',  ( 0.0000000000000000000, 1.103406766031765000E-014, -90.09999999999998000 ) ) ;
#151 = CARTESIAN_POINT ( 'NONE',  ( 2.755455298081545300E-016, 87.79648415362758800, -3.065920785313449600 ) ) ;
#152 = CARTESIAN_POINT ( 'NONE',  ( 0.0000000000000000000, 90.09999999999998000, 0.0000000000000000000 ) ) ;
#153 = AXIS2_PLACEMENT_3D ( 'NONE', #159, #235, #176 ) ;
#154 = VERTEX_POINT ( 'NONE', #265 ) ;
#155 = AXIS2_PLACEMENT_3D ( 'NONE', #271, #245, #143 ) ;
#156 = AXIS2_PLACEMENT_3D ( 'NONE', #247, #234, #113 ) ;
#157 = ORIENTED_EDGE ( 'NONE', *, *, #239, .T. ) ;
#158 = CARTESIAN_POINT ( 'NONE',  ( 0.0000000000000000000, 90.04511351442056400, -3.144444652894044200 ) ) ;
#159 = CARTESIAN_POINT ( 'NONE',  ( 0.0000000000000000000, 0.0000000000000000000, 0.0000000000000000000 ) ) ;
#160 = DIRECTION ( 'NONE',  ( 0.0000000000000000000, 0.0000000000000000000, 1.000000000000000000 ) ) ;
#161 = DIRECTION ( 'NONE',  ( -0.0000000000000000000, 0.03489949670248662600, 0.9993908270190963200 ) ) ;
#162 = DIRECTION ( 'NONE',  ( 0.0000000000000000000, -1.000000000000000000, 0.0000000000000000000 ) ) ;
#163 = CARTESIAN_POINT ( 'NONE',  ( 0.0000000000000000000, 0.0000000000000000000, 0.0000000000000000000 ) ) ;
#164 = PERSON_AND_ORGANIZATION_ROLE ( 'creator' ) ;
#165 = AXIS2_PLACEMENT_3D ( 'NONE', #223, #8, #141 ) ;
#166 = EDGE_LOOP ( 'NONE', ( #222, #192, #268, #252 ) ) ;
#167 = ADVANCED_FACE ( 'NONE', ( #86 ), #149, .T. ) ;
#168 = DIRECTION ( 'NONE',  ( 1.000000000000000000, 0.0000000000000000000, 0.0000000000000000000 ) ) ;
#169 = DIRECTION ( 'NONE',  ( 0.0000000000000000000, 0.03489949670248662000, 0.9993908270190962100 ) ) ;
#170 = FACE_OUTER_BOUND ( 'NONE', #230, .T. ) ;
#171 = ORIENTED_EDGE ( 'NONE', *, *, #211, .F. ) ;
#172 = ORIENTED_EDGE ( 'NONE', *, *, #202, .F. ) ;
#173 = DIRECTION ( 'NONE',  ( -1.000000000000000000, -0.0000000000000000000, -0.0000000000000000000 ) ) ;
#174 = ORIENTED_EDGE ( 'NONE', *, *, #62, .T. ) ;
#175 = ORIENTED_EDGE ( 'NONE', *, *, #62, .F. ) ;
#176 = DIRECTION ( 'NONE',  ( 0.0000000000000000000, 0.0000000000000000000, 1.000000000000000000 ) ) ;
#177 = PLANE ( 'NONE',  #139 ) ;
#178 = CARTESIAN_POINT ( 'NONE',  ( 2.755455298081545300E-016, 0.0000000000000000000, 0.0000000000000000000 ) ) ;
#179 = DIRECTION ( 'NONE',  ( 0.0000000000000000000, 0.0000000000000000000, 1.000000000000000000 ) ) ;
#180 = DIRECTION ( 'NONE',  ( 0.0000000000000000000, 0.0000000000000000000, 1.000000000000000000 ) ) ;
#181 = DIRECTION ( 'NONE',  ( 1.000000000000000000, 0.0000000000000000000, 0.0000000000000000000 ) ) ;
#182 = AXIS2_PLACEMENT_3D ( 'NONE', #163, #173, #179 ) ;
#183 = ORIENTED_EDGE ( 'NONE', *, *, #242, .T. ) ;
#184 = DIRECTION ( 'NONE',  ( 1.000000000000000000, 0.0000000000000000000, 0.0000000000000000000 ) ) ;
#185 = ORIENTED_EDGE ( 'NONE', *, *, #87, .F. ) ;
#186 = SECURITY_CLASSIFICATION_LEVEL ( 'unclassified' ) ;
#187 = ADVANCED_FACE ( 'NONE', ( #138 ), #177, .T. ) ;
#188 = CARTESIAN_POINT ( 'NONE',  ( 0.0000000000000000000, 90.04511351442056400, -3.144444652894044200 ) ) ;
#189 = CARTESIAN_POINT ( 'NONE',  ( 2.755455298081543800E-016, 87.84999999999998000, 0.0000000000000000000 ) ) ;
#190 = AXIS2_PLACEMENT_3D ( 'NONE', #95, #90, #274 ) ;
#191 = VERTEX_POINT ( 'NONE', #206 ) ;
#192 = ORIENTED_EDGE ( 'NONE', *, *, #80, .T. ) ;
#193 = AXIS2_PLACEMENT_3D ( 'NONE', #60, #68, #114 ) ;
#194 = FACE_OUTER_BOUND ( 'NONE', #130, .T. ) ;
#195 = CARTESIAN_POINT ( 'NONE',  ( 0.0000000000000000000, 0.0000000000000000000, 0.0000000000000000000 ) ) ;
#196 = DIRECTION ( 'NONE',  ( 0.0000000000000000000, 0.0000000000000000000, 1.000000000000000000 ) ) ;
#197 = PERSON_AND_ORGANIZATION_ROLE ( 'design_owner' ) ;
#198 = DATE_TIME_ROLE ( 'classification_date' ) ;
#199 = ORIENTED_EDGE ( 'NONE', *, *, #281, .F. ) ;
#200 = CIRCLE ( 'NONE', #182, 92.34999999999999400 ) ;
#201 = ADVANCED_FACE ( 'NONE', ( #137 ), #136, .T. ) ;
#202 = EDGE_CURVE ( 'NONE', #221, #154, #249, .T. ) ;
#203 = ADVANCED_FACE ( 'NONE', ( #194 ), #128, .T. ) ;
#204 = CARTESIAN_POINT ( 'NONE',  ( 0.0000000000000000000, 0.0000000000000000000, 0.0000000000000000000 ) ) ;
#205 = DIRECTION ( 'NONE',  ( -1.000000000000000000, -0.0000000000000000000, -0.0000000000000000000 ) ) ;
#206 = CARTESIAN_POINT ( 'NONE',  ( 0.0000000000000000000, 92.34999999999999400, 0.0000000000000000000 ) ) ;
#207 = EDGE_CURVE ( 'NONE', #221, #148, #122, .T. ) ;
#208 = CARTESIAN_POINT ( 'NONE',  ( 0.0000000000000000000, 0.0000000000000000000, 0.0000000000000000000 ) ) ;
#209 = DIRECTION ( 'NONE',  ( -1.000000000000000000, -0.0000000000000000000, -0.0000000000000000000 ) ) ;
#210 = DIRECTION ( 'NONE',  ( -1.000000000000000000, -0.0000000000000000000, -0.0000000000000000000 ) ) ;
#211 = EDGE_CURVE ( 'NONE', #154, #35, #107, .T. ) ;
#212 = APPLICATION_PROTOCOL_DEFINITION ( 'international standard', 'config_control_design', 1994, #67 ) ;
#213 = APPROVAL_ROLE ( '' ) ;
#214 = PERSON ( 'Î´Ö¸¶¨', 'Î´Ö¸¶¨', 'Î´Ö¸¶¨', ('Î´Ö¸¶¨'), ('Î´Ö¸¶¨'), ('Î´Ö¸¶¨') ) ;
#215 = DIRECTION ( 'NONE',  ( 0.0000000000000000000, 0.0000000000000000000, 1.000000000000000000 ) ) ;
#216 = EDGE_LOOP ( 'NONE', ( #185, #280, #174, #172 ) ) ;
#217 = EDGE_LOOP ( 'NONE', ( #240, #171, #219, #279 ) ) ;
#218 = ORIENTED_EDGE ( 'NONE', *, *, #220, .F. ) ;
#219 = ORIENTED_EDGE ( 'NONE', *, *, #105, .T. ) ;
#220 = EDGE_CURVE ( 'NONE', #11, #278, #131, .T. ) ;
#221 = VERTEX_POINT ( 'NONE', #151 ) ;
#222 = ORIENTED_EDGE ( 'NONE', *, *, #276, .F. ) ;
#223 = CARTESIAN_POINT ( 'NONE',  ( 0.0000000000000000000, 0.0000000000000000000, 0.0000000000000000000 ) ) ;
#224 = DIRECTION ( 'NONE',  ( -1.000000000000000000, -0.0000000000000000000, -0.0000000000000000000 ) ) ;
#225 = DIRECTION ( 'NONE',  ( 0.0000000000000000000, 0.0000000000000000000, 1.000000000000000000 ) ) ;
#226 =( LENGTH_UNIT ( ) NAMED_UNIT ( * ) SI_UNIT ( .MILLI., .METRE. ) );
#227 = APPROVAL_ROLE ( '' ) ;
#228 = CARTESIAN_POINT ( 'NONE',  ( 0.0000000000000000000, 0.0000000000000000000, 92.34999999999999400 ) ) ;
#229 = EDGE_LOOP ( 'NONE', ( #123, #145 ) ) ;
#230 = EDGE_LOOP ( 'NONE', ( #261, #260 ) ) ;
#231 = FACE_OUTER_BOUND ( 'NONE', #77, .T. ) ;
#232 = ORIENTED_EDGE ( 'NONE', *, *, #276, .T. ) ;
#233 = EDGE_LOOP ( 'NONE', ( #262, #218, #36, #157 ) ) ;
#234 = DIRECTION ( 'NONE',  ( 0.0000000000000000000, 0.03489949670248662000, 0.9993908270190962100 ) ) ;
#235 = DIRECTION ( 'NONE',  ( -1.000000000000000000, -0.0000000000000000000, -0.0000000000000000000 ) ) ;
#236 =( NAMED_UNIT ( * ) SI_UNIT ( $, .STERADIAN. ) SOLID_ANGLE_UNIT ( ) );
#237 = DATE_TIME_ROLE ( 'creation_date' ) ;
#238 = VERTEX_POINT ( 'NONE', #189 ) ;
#239 = EDGE_CURVE ( 'NONE', #238, #191, #117, .T. ) ;
#240 = ORIENTED_EDGE ( 'NONE', *, *, #242, .F. ) ;
#241 = ORIENTED_EDGE ( 'NONE', *, *, #202, .T. ) ;
#242 = EDGE_CURVE ( 'NONE', #35, #278, #108, .T. ) ;
#243 = TOROIDAL_SURFACE ( 'NONE', #153, 90.09999999999998000, 2.250000000000000900 ) ;
#244 = CLOSED_SHELL ( 'NONE', ( #201, #102, #167, #203, #74, #257, #187, #5 ) ) ;
#245 = DIRECTION ( 'NONE',  ( -1.000000000000000000, -0.0000000000000000000, -0.0000000000000000000 ) ) ;
#246 = CARTESIAN_POINT ( 'NONE',  ( 0.0000000000000000000, 0.0000000000000000000, 90.09999999999998000 ) ) ;
#247 = CARTESIAN_POINT ( 'NONE',  ( 0.0000000000000000000, 90.04511351442056400, -3.144444652894044200 ) ) ;
#248 = APPLICATION_PROTOCOL_DEFINITION ( 'international standard', 'config_control_design', 1994, #270 ) ;
#249 = CIRCLE ( 'NONE', #142, 87.84999999999998000 ) ;
#250 = ORIENTED_EDGE ( 'NONE', *, *, #207, .F. ) ;
#251 = APPROVAL_ROLE ( '' ) ;
#252 = ORIENTED_EDGE ( 'NONE', *, *, #259, .F. ) ;
#253 = DIRECTION ( 'NONE',  ( 0.0000000000000000000, 0.0000000000000000000, 1.000000000000000000 ) ) ;
#254 = CARTESIAN_POINT ( 'NONE',  ( 0.0000000000000000000, 0.0000000000000000000, 0.0000000000000000000 ) ) ;
#255 = DIRECTION ( 'NONE',  ( 0.0000000000000000000, 0.0000000000000000000, 1.000000000000000000 ) ) ;
#256 = ORIENTED_EDGE ( 'NONE', *, *, #211, .T. ) ;
#257 = ADVANCED_FACE ( 'NONE', ( #106 ), #112, .T. ) ;
#258 = CIRCLE ( 'NONE', #155, 87.84999999999998000 ) ;
#259 = EDGE_CURVE ( 'NONE', #11, #238, #101, .T. ) ;
#260 = ORIENTED_EDGE ( 'NONE', *, *, #272, .F. ) ;
#261 = ORIENTED_EDGE ( 'NONE', *, *, #239, .F. ) ;
#262 = ORIENTED_EDGE ( 'NONE', *, *, #80, .F. ) ;
#263 = DIRECTION ( 'NONE',  ( 1.000000000000000000, 0.0000000000000000000, 0.0000000000000000000 ) ) ;
#264 = CARTESIAN_POINT ( 'NONE',  ( 0.0000000000000000000, 0.0000000000000000000, 0.0000000000000000000 ) ) ;
#265 = CARTESIAN_POINT ( 'NONE',  ( 0.0000000000000000000, 1.075852213050949600E-014, -87.84999999999998000 ) ) ;
#266 = CIRCLE ( 'NONE', #193, 2.250000000000001800 ) ;
#267 = TOROIDAL_SURFACE ( 'NONE', #165, 90.09999999999998000, 2.250000000000000900 ) ;
#268 = ORIENTED_EDGE ( 'NONE', *, *, #272, .T. ) ;
#269 = DIRECTION ( 'NONE',  ( 0.0000000000000000000, 0.0000000000000000000, -1.000000000000000000 ) ) ;
#270 = APPLICATION_CONTEXT ( 'configuration controlled 3d designs of mechanical parts and assemblies' ) ;
#271 = CARTESIAN_POINT ( 'NONE',  ( 2.755455298081545300E-016, 0.0000000000000000000, 0.0000000000000000000 ) ) ;
#272 = EDGE_CURVE ( 'NONE', #191, #238, #115, .T. ) ;
#273 = PERSON_AND_ORGANIZATION_ROLE ( 'design_supplier' ) ;
#274 = DIRECTION ( 'NONE',  ( 1.000000000000000000, 0.0000000000000000000, -0.0000000000000000000 ) ) ;
#275 = DIRECTION ( 'NONE',  ( -1.000000000000000000, -0.0000000000000000000, -0.0000000000000000000 ) ) ;
#276 = EDGE_CURVE ( 'NONE', #278, #11, #99, .T. ) ;
#277 = DIRECTION ( 'NONE',  ( -1.000000000000000000, -0.0000000000000000000, -0.0000000000000000000 ) ) ;
#278 = VERTEX_POINT ( 'NONE', #228 ) ;
#279 = ORIENTED_EDGE ( 'NONE', *, *, #220, .T. ) ;
#280 = ORIENTED_EDGE ( 'NONE', *, *, #281, .T. ) ;
#281 = EDGE_CURVE ( 'NONE', #148, #35, #98, .T. ) ;
ENDSEC;
END-ISO-10303-21;
