ISO-10303-21;
HEADER;
FILE_DESCRIPTION (( 'STEP AP203' ),
    '1' );
FILE_NAME ('20011241.STEP',
    '2018-07-18T02:03:16',
    ( '' ),
    ( '' ),
    'SwSTEP 2.0',
    'SolidWorks 2014',
    '' );
FILE_SCHEMA (( 'CONFIG_CONTROL_DESIGN' ));
ENDSEC;

DATA;
#1 = CC_DESIGN_SECURITY_CLASSIFICATION ( #21, ( #46 ) ) ;
#2 = ORIENTED_EDGE ( 'NONE', *, *, #265, .F. ) ;
#3 = EDGE_CURVE ( 'NONE', #263, #152, #189, .T. ) ;
#4 = ORIENTED_EDGE ( 'NONE', *, *, #277, .F. ) ;
#5 = CC_DESIGN_APPROVAL ( #9, ( #21 ) ) ;
#6 = CARTESIAN_POINT ( 'NONE',  ( 0.0000000000000000000, 0.0000000000000000000, 0.0000000000000000000 ) ) ;
#7 = ADVANCED_FACE ( 'NONE', ( #154 ), #114, .T. ) ;
#8 = APPROVAL_DATE_TIME ( #13, #9 ) ;
#9 = APPROVAL ( #210, 'Î´Ö¸¶¨' ) ;
#10 = CC_DESIGN_DATE_AND_TIME_ASSIGNMENT ( #28, #27, ( #21 ) ) ;
#11 = CC_DESIGN_PERSON_AND_ORGANIZATION_ASSIGNMENT ( #36, #192, ( #21 ) ) ;
#12 = VERTEX_POINT ( 'NONE', #130 ) ;
#13 = DATE_AND_TIME ( #14, #15 ) ;
#14 = CALENDAR_DATE ( 2018, 18, 7 ) ;
#15 = LOCAL_TIME ( 10, 3, 16.00000000000000000, #18 ) ;
#16 = ORIENTED_EDGE ( 'NONE', *, *, #219, .T. ) ;
#17 = CARTESIAN_POINT ( 'NONE',  ( 0.0000000000000000000, 7.807123344564376700E-015, -63.74999999999998600 ) ) ;
#18 = COORDINATED_UNIVERSAL_TIME_OFFSET ( 8, 0, .AHEAD. ) ;
#19 = CARTESIAN_POINT ( 'NONE',  ( 0.0000000000000000000, 66.70933770352466800, -2.329541404890981900 ) ) ;
#20 = PERSON_AND_ORGANIZATION_ROLE ( 'design_owner' ) ;
#21 = SECURITY_CLASSIFICATION ( '', '', #275 ) ;
#22 = APPROVAL_PERSON_ORGANIZATION ( #23, #9, #68 ) ;
#23 = PERSON_AND_ORGANIZATION ( #104, #100 ) ;
#24 = CC_DESIGN_PERSON_AND_ORGANIZATION_ASSIGNMENT ( #37, #174, ( #46 ) ) ;
#25 = ORIENTED_EDGE ( 'NONE', *, *, #229, .T. ) ;
#26 = ORIENTED_EDGE ( 'NONE', *, *, #66, .F. ) ;
#27 = DATE_TIME_ROLE ( 'classification_date' ) ;
#28 = DATE_AND_TIME ( #29, #30 ) ;
#29 = CALENDAR_DATE ( 2018, 18, 7 ) ;
#30 = LOCAL_TIME ( 10, 3, 16.00000000000000000, #35 ) ;
#31 = DIRECTION ( 'NONE',  ( 1.000000000000000000, 0.0000000000000000000, 0.0000000000000000000 ) ) ;
#32 = CC_DESIGN_PERSON_AND_ORGANIZATION_ASSIGNMENT ( #38, #257, ( #46 ) ) ;
#33 = DIRECTION ( 'NONE',  ( 0.0000000000000000000, 0.0000000000000000000, 1.000000000000000000 ) ) ;
#34 = EDGE_LOOP ( 'NONE', ( #261, #103, #25, #175 ) ) ;
#35 = COORDINATED_UNIVERSAL_TIME_OFFSET ( 8, 0, .AHEAD. ) ;
#36 = PERSON_AND_ORGANIZATION ( #104, #100 ) ;
#37 = PERSON_AND_ORGANIZATION ( #104, #100 ) ;
#38 = PERSON_AND_ORGANIZATION ( #104, #100 ) ;
#39 = CC_DESIGN_APPROVAL ( #44, ( #46 ) ) ;
#40 = ORIENTED_EDGE ( 'NONE', *, *, #3, .F. ) ;
#41 = EDGE_CURVE ( 'NONE', #276, #181, #199, .T. ) ;
#42 = ORIENTED_EDGE ( 'NONE', *, *, #219, .F. ) ;
#43 = APPROVAL_DATE_TIME ( #48, #44 ) ;
#44 = APPROVAL ( #245, 'Î´Ö¸¶¨' ) ;
#45 = CARTESIAN_POINT ( 'NONE',  ( 0.0000000000000000000, 0.0000000000000000000, 0.0000000000000000000 ) ) ;
#46 = PRODUCT_DEFINITION_FORMATION_WITH_SPECIFIED_SOURCE ( 'ÈÎºÎ', '', #214, .NOT_KNOWN. ) ;
#47 = CC_DESIGN_DATE_AND_TIME_ASSIGNMENT ( #64, #115, ( #60 ) ) ;
#48 = DATE_AND_TIME ( #49, #50 ) ;
#49 = CALENDAR_DATE ( 2018, 18, 7 ) ;
#50 = LOCAL_TIME ( 10, 3, 16.00000000000000000, #52 ) ;
#51 = CC_DESIGN_PERSON_AND_ORGANIZATION_ASSIGNMENT ( #256, #236, ( #60 ) ) ;
#52 = COORDINATED_UNIVERSAL_TIME_OFFSET ( 8, 0, .AHEAD. ) ;
#53 = CC_DESIGN_APPROVAL ( #56, ( #60 ) ) ;
#54 = EDGE_LOOP ( 'NONE', ( #145, #42, #148, #241 ) ) ;
#55 = CARTESIAN_POINT ( 'NONE',  ( 0.0000000000000000000, 8.174517384308582200E-015, -66.74999999999998600 ) ) ;
#56 = APPROVAL ( #223, 'Î´Ö¸¶¨' ) ;
#57 = EDGE_LOOP ( 'NONE', ( #26, #218, #206, #198 ) ) ;
#58 = APPROVAL_PERSON_ORGANIZATION ( #61, #44, #141 ) ;
#59 = CARTESIAN_POINT ( 'NONE',  ( 0.0000000000000000000, 65.25000000000000000, 0.0000000000000000000 ) ) ;
#60 = PRODUCT_DEFINITION ( 'Î´Öª', '', #46, #226 ) ;
#61 = PERSON_AND_ORGANIZATION ( #104, #100 ) ;
#62 = DIRECTION ( 'NONE',  ( -1.000000000000000000, -0.0000000000000000000, -0.0000000000000000000 ) ) ;
#63 = ORIENTED_EDGE ( 'NONE', *, *, #213, .F. ) ;
#64 = DATE_AND_TIME ( #67, #69 ) ;
#65 = APPLICATION_PROTOCOL_DEFINITION ( 'international standard', 'config_control_design', 1994, #209 ) ;
#66 = EDGE_CURVE ( 'NONE', #152, #276, #269, .T. ) ;
#67 = CALENDAR_DATE ( 2018, 18, 7 ) ;
#68 = APPROVAL_ROLE ( '' ) ;
#69 = LOCAL_TIME ( 10, 3, 16.00000000000000000, #112 ) ;
#70 = DIRECTION ( 'NONE',  ( 0.0000000000000000000, 0.0000000000000000000, 1.000000000000000000 ) ) ;
#71 = ADVANCED_FACE ( 'NONE', ( #271 ), #262, .T. ) ;
#72 = PRODUCT_RELATED_PRODUCT_CATEGORY ( 'detail', '', ( #214 ) ) ;
#73 = PRODUCT_DEFINITION_SHAPE ( 'NONE', 'NONE',  #60 ) ;
#74 = CC_DESIGN_PERSON_AND_ORGANIZATION_ASSIGNMENT ( #97, #20, ( #214 ) ) ;
#75 = APPROVAL_DATE_TIME ( #78, #56 ) ;
#76 = ORIENTED_EDGE ( 'NONE', *, *, #274, .T. ) ;
#77 = AXIS2_PLACEMENT_3D ( 'NONE', #171, #244, #273 ) ;
#78 = DATE_AND_TIME ( #88, #90 ) ;
#79 = DIRECTION ( 'NONE',  ( -1.000000000000000000, -0.0000000000000000000, -0.0000000000000000000 ) ) ;
#80 =( GEOMETRIC_REPRESENTATION_CONTEXT ( 3 ) GLOBAL_UNCERTAINTY_ASSIGNED_CONTEXT ( ( #127 ) ) GLOBAL_UNIT_ASSIGNED_CONTEXT ( ( #93, #234, #113 ) ) REPRESENTATION_CONTEXT ( 'NONE', 'WORKASPACE' ) );
#81 = AXIS2_PLACEMENT_3D ( 'NONE', #207, #62, #221 ) ;
#82 = DIRECTION ( 'NONE',  ( 0.0000000000000000000, 0.0000000000000000000, 1.000000000000000000 ) ) ;
#83 = CLOSED_SHELL ( 'NONE', ( #7, #268, #178, #225, #133, #71, #164, #253 ) ) ;
#84 = AXIS2_PLACEMENT_3D ( 'NONE', #136, #255, #172 ) ;
#85 = DIRECTION ( 'NONE',  ( 0.0000000000000000000, 0.0000000000000000000, 1.000000000000000000 ) ) ;
#86 = DIRECTION ( 'NONE',  ( -1.000000000000000000, -0.0000000000000000000, -0.0000000000000000000 ) ) ;
#87 = AXIS2_PLACEMENT_3D ( 'NONE', #187, #204, #254 ) ;
#88 = CALENDAR_DATE ( 2018, 18, 7 ) ;
#89 = DIRECTION ( 'NONE',  ( 1.000000000000000000, 0.0000000000000000000, 0.0000000000000000000 ) ) ;
#90 = LOCAL_TIME ( 10, 3, 16.00000000000000000, #92 ) ;
#91 = AXIS2_PLACEMENT_3D ( 'NONE', #59, #220, #89 ) ;
#92 = COORDINATED_UNIVERSAL_TIME_OFFSET ( 8, 0, .AHEAD. ) ;
#93 =( LENGTH_UNIT ( ) NAMED_UNIT ( * ) SI_UNIT ( .MILLI., .METRE. ) );
#94 = APPROVAL_ROLE ( '' ) ;
#95 = APPROVAL_PERSON_ORGANIZATION ( #96, #56, #94 ) ;
#96 = PERSON_AND_ORGANIZATION ( #104, #100 ) ;
#97 = PERSON_AND_ORGANIZATION ( #104, #100 ) ;
#98 = CARTESIAN_POINT ( 'NONE',  ( 0.0000000000000000000, 65.25000000000000000, 0.0000000000000000000 ) ) ;
#99 = AXIS2_PLACEMENT_3D ( 'NONE', #116, #170, #270 ) ;
#100 = ORGANIZATION ( 'Î´Ö¸¶¨', 'Î´Ö¸¶¨', '' ) ;
#101 = AXIS2_PLACEMENT_3D ( 'NONE', #111, #243, #135 ) ;
#102 = MANIFOLD_SOLID_BREP ( 'Ðý×ª1', #83 ) ;
#103 = ORIENTED_EDGE ( 'NONE', *, *, #222, .F. ) ;
#104 = PERSON ( 'Î´Ö¸¶¨', 'Î´Ö¸¶¨', 'Î´Ö¸¶¨', ('Î´Ö¸¶¨'), ('Î´Ö¸¶¨'), ('Î´Ö¸¶¨') ) ;
#105 = AXIS2_PLACEMENT_3D ( 'NONE', #191, #202, #147 ) ;
#106 = ADVANCED_BREP_SHAPE_REPRESENTATION ( '20011241', ( #102, #77 ), #80 ) ;
#107 = AXIS2_PLACEMENT_3D ( 'NONE', #98, #33, #31 ) ;
#108 = DIRECTION ( 'NONE',  ( -0.0000000000000000000, 0.03489949670248662600, 0.9993908270190963200 ) ) ;
#109 = DIRECTION ( 'NONE',  ( 0.0000000000000000000, 0.0000000000000000000, 1.000000000000000000 ) ) ;
#110 = SHAPE_DEFINITION_REPRESENTATION ( #73, #106 ) ;
#111 = CARTESIAN_POINT ( 'NONE',  ( 0.0000000000000000000, 65.21025146299602700, -2.277192159837251800 ) ) ;
#112 = COORDINATED_UNIVERSAL_TIME_OFFSET ( 8, 0, .AHEAD. ) ;
#113 =( NAMED_UNIT ( * ) SI_UNIT ( $, .STERADIAN. ) SOLID_ANGLE_UNIT ( ) );
#114 = TOROIDAL_SURFACE ( 'NONE', #196, 65.24999999999998600, 1.500000000000000400 ) ;
#115 = DATE_TIME_ROLE ( 'creation_date' ) ;
#116 = CARTESIAN_POINT ( 'NONE',  ( 0.0000000000000000000, 65.25000000000000000, 0.0000000000000000000 ) ) ;
#117 = AXIS2_PLACEMENT_3D ( 'NONE', #280, #144, #246 ) ;
#118 = EDGE_LOOP ( 'NONE', ( #40, #2, #193, #16 ) ) ;
#119 = DIRECTION ( 'NONE',  ( 0.0000000000000000000, 0.0000000000000000000, 1.000000000000000000 ) ) ;
#120 = CIRCLE ( 'NONE', #81, 66.74999999999998600 ) ;
#121 = AXIS2_PLACEMENT_3D ( 'NONE', #146, #142, #119 ) ;
#122 = AXIS2_PLACEMENT_3D ( 'NONE', #259, #258, #247 ) ;
#123 = CIRCLE ( 'NONE', #91, 1.500000000000000400 ) ;
#124 = CIRCLE ( 'NONE', #84, 1.500000000000001300 ) ;
#125 = FACE_OUTER_BOUND ( 'NONE', #57, .T. ) ;
#126 = AXIS2_PLACEMENT_3D ( 'NONE', #177, #179, #194 ) ;
#127 = UNCERTAINTY_MEASURE_WITH_UNIT (LENGTH_MEASURE( 1.000000000000000100E-005 ), #93, 'distance_accuracy_value', 'NONE');
#128 = CIRCLE ( 'NONE', #101, 1.500000000000000400 ) ;
#129 = DIRECTION ( 'NONE',  ( -1.000000000000000000, -0.0000000000000000000, -0.0000000000000000000 ) ) ;
#130 = CARTESIAN_POINT ( 'NONE',  ( 1.836970198721029400E-016, 63.75000000000000000, 0.0000000000000000000 ) ) ;
#131 = TOROIDAL_SURFACE ( 'NONE', #87, 65.24999999999998600, 1.500000000000000400 ) ;
#132 = FACE_OUTER_BOUND ( 'NONE', #216, .T. ) ;
#133 = ADVANCED_FACE ( 'NONE', ( #260 ), #140, .T. ) ;
#134 = AXIS2_PLACEMENT_3D ( 'NONE', #266, #228, #240 ) ;
#135 = DIRECTION ( 'NONE',  ( 1.000000000000000000, 0.0000000000000000000, 0.0000000000000000000 ) ) ;
#136 = CARTESIAN_POINT ( 'NONE',  ( 0.0000000000000000000, 0.0000000000000000000, 65.24999999999998600 ) ) ;
#137 = AXIS2_PLACEMENT_3D ( 'NONE', #211, #180, #70 ) ;
#138 = AXIS2_PLACEMENT_3D ( 'NONE', #200, #108, #251 ) ;
#139 = APPLICATION_PROTOCOL_DEFINITION ( 'international standard', 'config_control_design', 1994, #173 ) ;
#140 = TOROIDAL_SURFACE ( 'NONE', #157, 65.24999999999998600, 1.500000000000000400 ) ;
#141 = APPROVAL_ROLE ( '' ) ;
#142 = DIRECTION ( 'NONE',  ( -1.000000000000000000, -0.0000000000000000000, -0.0000000000000000000 ) ) ;
#143 = CIRCLE ( 'NONE', #105, 66.74999999999998600 ) ;
#144 = DIRECTION ( 'NONE',  ( -1.000000000000000000, -0.0000000000000000000, -0.0000000000000000000 ) ) ;
#145 = ORIENTED_EDGE ( 'NONE', *, *, #250, .F. ) ;
#146 = CARTESIAN_POINT ( 'NONE',  ( 1.836970198721030400E-016, 0.0000000000000000000, 0.0000000000000000000 ) ) ;
#147 = DIRECTION ( 'NONE',  ( 0.0000000000000000000, 0.0000000000000000000, 1.000000000000000000 ) ) ;
#148 = ORIENTED_EDGE ( 'NONE', *, *, #41, .T. ) ;
#149 = CIRCLE ( 'NONE', #121, 63.74999999999998600 ) ;
#150 = CIRCLE ( 'NONE', #107, 1.500000000000000400 ) ;
#151 = AXIS2_PLACEMENT_3D ( 'NONE', #201, #230, #169 ) ;
#152 = VERTEX_POINT ( 'NONE', #55 ) ;
#153 = CIRCLE ( 'NONE', #126, 1.500000000000001300 ) ;
#154 = FACE_OUTER_BOUND ( 'NONE', #224, .T. ) ;
#155 = CIRCLE ( 'NONE', #122, 1.500000000000001300 ) ;
#156 = CIRCLE ( 'NONE', #137, 63.74999999999998600 ) ;
#157 = AXIS2_PLACEMENT_3D ( 'NONE', #252, #86, #109 ) ;
#158 = AXIS2_PLACEMENT_3D ( 'NONE', #168, #79, #215 ) ;
#159 = FACE_OUTER_BOUND ( 'NONE', #118, .T. ) ;
#160 = FACE_OUTER_BOUND ( 'NONE', #238, .T. ) ;
#161 = CARTESIAN_POINT ( 'NONE',  ( 1.836970198721030400E-016, 0.0000000000000000000, 0.0000000000000000000 ) ) ;
#162 = CARTESIAN_POINT ( 'NONE',  ( 0.0000000000000000000, 0.0000000000000000000, 63.74999999999998600 ) ) ;
#163 = DIRECTION ( 'NONE',  ( -1.000000000000000000, -0.0000000000000000000, -0.0000000000000000000 ) ) ;
#164 = ADVANCED_FACE ( 'NONE', ( #233 ), #217, .T. ) ;
#165 = CIRCLE ( 'NONE', #151, 1.500000000000000400 ) ;
#166 = DIRECTION ( 'NONE',  ( 0.0000000000000000000, 0.0000000000000000000, 1.000000000000000000 ) ) ;
#167 = ORIENTED_EDGE ( 'NONE', *, *, #176, .F. ) ;
#168 = CARTESIAN_POINT ( 'NONE',  ( 0.0000000000000000000, 0.0000000000000000000, 0.0000000000000000000 ) ) ;
#169 = DIRECTION ( 'NONE',  ( 1.000000000000000000, 0.0000000000000000000, 0.0000000000000000000 ) ) ;
#170 = DIRECTION ( 'NONE',  ( 0.0000000000000000000, 0.0000000000000000000, 1.000000000000000000 ) ) ;
#171 = CARTESIAN_POINT ( 'NONE',  ( 0.0000000000000000000, 0.0000000000000000000, 0.0000000000000000000 ) ) ;
#172 = DIRECTION ( 'NONE',  ( 0.0000000000000000000, 0.0000000000000000000, -1.000000000000000000 ) ) ;
#173 = APPLICATION_CONTEXT ( 'configuration controlled 3d designs of mechanical parts and assemblies' ) ;
#174 = PERSON_AND_ORGANIZATION_ROLE ( 'design_supplier' ) ;
#175 = ORIENTED_EDGE ( 'NONE', *, *, #248, .T. ) ;
#176 = EDGE_CURVE ( 'NONE', #263, #239, #165, .T. ) ;
#177 = CARTESIAN_POINT ( 'NONE',  ( 0.0000000000000000000, 7.990820364436479500E-015, -65.24999999999998600 ) ) ;
#178 = ADVANCED_FACE ( 'NONE', ( #160 ), #278, .T. ) ;
#179 = DIRECTION ( 'NONE',  ( -0.0000000000000000000, 1.000000000000000000, 1.224646799147353200E-016 ) ) ;
#180 = DIRECTION ( 'NONE',  ( -1.000000000000000000, -0.0000000000000000000, -0.0000000000000000000 ) ) ;
#181 = VERTEX_POINT ( 'NONE', #162 ) ;
#182 = VERTEX_POINT ( 'NONE', #227 ) ;
#183 = CARTESIAN_POINT ( 'NONE',  ( 0.0000000000000000000, 7.990820364436479500E-015, -65.24999999999998600 ) ) ;
#184 = ORIENTED_EDGE ( 'NONE', *, *, #248, .F. ) ;
#185 = DIRECTION ( 'NONE',  ( -0.0000000000000000000, 1.000000000000000000, 1.224646799147353200E-016 ) ) ;
#186 = DIRECTION ( 'NONE',  ( 0.0000000000000000000, -1.224646799147349500E-016, 1.000000000000000000 ) ) ;
#187 = CARTESIAN_POINT ( 'NONE',  ( 0.0000000000000000000, 0.0000000000000000000, 0.0000000000000000000 ) ) ;
#188 = AXIS2_PLACEMENT_3D ( 'NONE', #183, #185, #186 ) ;
#189 = CIRCLE ( 'NONE', #208, 66.74999999999998600 ) ;
#190 = MECHANICAL_CONTEXT ( 'NONE', #173, 'mechanical' ) ;
#191 = CARTESIAN_POINT ( 'NONE',  ( 0.0000000000000000000, 0.0000000000000000000, 0.0000000000000000000 ) ) ;
#192 = PERSON_AND_ORGANIZATION_ROLE ( 'classification_officer' ) ;
#193 = ORIENTED_EDGE ( 'NONE', *, *, #213, .T. ) ;
#194 = DIRECTION ( 'NONE',  ( 0.0000000000000000000, -1.224646799147349500E-016, 1.000000000000000000 ) ) ;
#195 = CARTESIAN_POINT ( 'NONE',  ( 1.836970198721030400E-016, 63.71116522246736500, -2.224842914783522000 ) ) ;
#196 = AXIS2_PLACEMENT_3D ( 'NONE', #45, #264, #85 ) ;
#197 = AXIS2_PLACEMENT_3D ( 'NONE', #161, #163, #166 ) ;
#198 = ORIENTED_EDGE ( 'NONE', *, *, #41, .F. ) ;
#199 = CIRCLE ( 'NONE', #197, 63.74999999999998600 ) ;
#200 = CARTESIAN_POINT ( 'NONE',  ( 0.0000000000000000000, 65.21025146299602700, -2.277192159837251800 ) ) ;
#201 = CARTESIAN_POINT ( 'NONE',  ( 0.0000000000000000000, 65.21025146299602700, -2.277192159837251800 ) ) ;
#202 = DIRECTION ( 'NONE',  ( -1.000000000000000000, -0.0000000000000000000, -0.0000000000000000000 ) ) ;
#203 = ORIENTED_EDGE ( 'NONE', *, *, #66, .T. ) ;
#204 = DIRECTION ( 'NONE',  ( -1.000000000000000000, -0.0000000000000000000, -0.0000000000000000000 ) ) ;
#205 = CARTESIAN_POINT ( 'NONE',  ( 0.0000000000000000000, 66.75000000000000000, 0.0000000000000000000 ) ) ;
#206 = ORIENTED_EDGE ( 'NONE', *, *, #277, .T. ) ;
#207 = CARTESIAN_POINT ( 'NONE',  ( 0.0000000000000000000, 0.0000000000000000000, 0.0000000000000000000 ) ) ;
#208 = AXIS2_PLACEMENT_3D ( 'NONE', #6, #129, #82 ) ;
#209 = APPLICATION_CONTEXT ( 'configuration controlled 3d designs of mechanical parts and assemblies' ) ;
#210 = APPROVAL_STATUS ( 'not_yet_approved' ) ;
#211 = CARTESIAN_POINT ( 'NONE',  ( 1.836970198721030400E-016, 0.0000000000000000000, 0.0000000000000000000 ) ) ;
#212 = PLANE ( 'NONE',  #99 ) ;
#213 = EDGE_CURVE ( 'NONE', #239, #276, #156, .T. ) ;
#214 = PRODUCT ( '20011241', '20011241', '', ( #190 ) ) ;
#215 = DIRECTION ( 'NONE',  ( 0.0000000000000000000, 0.0000000000000000000, 1.000000000000000000 ) ) ;
#216 = EDGE_LOOP ( 'NONE', ( #184, #231 ) ) ;
#217 = PLANE ( 'NONE',  #138 ) ;
#218 = ORIENTED_EDGE ( 'NONE', *, *, #250, .T. ) ;
#219 = EDGE_CURVE ( 'NONE', #276, #152, #153, .T. ) ;
#220 = DIRECTION ( 'NONE',  ( 0.0000000000000000000, 0.0000000000000000000, 1.000000000000000000 ) ) ;
#221 = DIRECTION ( 'NONE',  ( 0.0000000000000000000, 0.0000000000000000000, 1.000000000000000000 ) ) ;
#222 = EDGE_CURVE ( 'NONE', #181, #182, #155, .T. ) ;
#223 = APPROVAL_STATUS ( 'not_yet_approved' ) ;
#224 = EDGE_LOOP ( 'NONE', ( #4, #235, #76, #267 ) ) ;
#225 = ADVANCED_FACE ( 'NONE', ( #159 ), #272, .T. ) ;
#226 = DESIGN_CONTEXT ( 'detailed design', #209, 'design' ) ;
#227 = CARTESIAN_POINT ( 'NONE',  ( 0.0000000000000000000, 0.0000000000000000000, 66.74999999999998600 ) ) ;
#228 = DIRECTION ( 'NONE',  ( -1.000000000000000000, -0.0000000000000000000, -0.0000000000000000000 ) ) ;
#229 = EDGE_CURVE ( 'NONE', #181, #12, #149, .T. ) ;
#230 = DIRECTION ( 'NONE',  ( 0.0000000000000000000, 0.03489949670248662000, 0.9993908270190962100 ) ) ;
#231 = ORIENTED_EDGE ( 'NONE', *, *, #274, .F. ) ;
#232 = EDGE_LOOP ( 'NONE', ( #237, #242 ) ) ;
#233 = FACE_OUTER_BOUND ( 'NONE', #232, .T. ) ;
#234 =( NAMED_UNIT ( * ) PLANE_ANGLE_UNIT ( ) SI_UNIT ( $, .RADIAN. ) );
#235 = ORIENTED_EDGE ( 'NONE', *, *, #281, .T. ) ;
#236 = PERSON_AND_ORGANIZATION_ROLE ( 'creator' ) ;
#237 = ORIENTED_EDGE ( 'NONE', *, *, #265, .T. ) ;
#238 = EDGE_LOOP ( 'NONE', ( #167, #249, #203, #63 ) ) ;
#239 = VERTEX_POINT ( 'NONE', #195 ) ;
#240 = DIRECTION ( 'NONE',  ( 0.0000000000000000000, 0.0000000000000000000, 1.000000000000000000 ) ) ;
#241 = ORIENTED_EDGE ( 'NONE', *, *, #222, .T. ) ;
#242 = ORIENTED_EDGE ( 'NONE', *, *, #176, .T. ) ;
#243 = DIRECTION ( 'NONE',  ( 0.0000000000000000000, 0.03489949670248662000, 0.9993908270190962100 ) ) ;
#244 = DIRECTION ( 'NONE',  ( 0.0000000000000000000, 0.0000000000000000000, 1.000000000000000000 ) ) ;
#245 = APPROVAL_STATUS ( 'not_yet_approved' ) ;
#246 = DIRECTION ( 'NONE',  ( 0.0000000000000000000, 0.0000000000000000000, 1.000000000000000000 ) ) ;
#247 = DIRECTION ( 'NONE',  ( 0.0000000000000000000, 0.0000000000000000000, -1.000000000000000000 ) ) ;
#248 = EDGE_CURVE ( 'NONE', #12, #279, #150, .T. ) ;
#249 = ORIENTED_EDGE ( 'NONE', *, *, #3, .T. ) ;
#250 = EDGE_CURVE ( 'NONE', #152, #182, #143, .T. ) ;
#251 = DIRECTION ( 'NONE',  ( 1.000000000000000000, 0.0000000000000000000, 0.0000000000000000000 ) ) ;
#252 = CARTESIAN_POINT ( 'NONE',  ( 0.0000000000000000000, 0.0000000000000000000, 0.0000000000000000000 ) ) ;
#253 = ADVANCED_FACE ( 'NONE', ( #132 ), #212, .F. ) ;
#254 = DIRECTION ( 'NONE',  ( 0.0000000000000000000, 0.0000000000000000000, 1.000000000000000000 ) ) ;
#255 = DIRECTION ( 'NONE',  ( 0.0000000000000000000, -1.000000000000000000, 0.0000000000000000000 ) ) ;
#256 = PERSON_AND_ORGANIZATION ( #104, #100 ) ;
#257 = PERSON_AND_ORGANIZATION_ROLE ( 'creator' ) ;
#258 = DIRECTION ( 'NONE',  ( 0.0000000000000000000, -1.000000000000000000, 0.0000000000000000000 ) ) ;
#259 = CARTESIAN_POINT ( 'NONE',  ( 0.0000000000000000000, 0.0000000000000000000, 65.24999999999998600 ) ) ;
#260 = FACE_OUTER_BOUND ( 'NONE', #54, .T. ) ;
#261 = ORIENTED_EDGE ( 'NONE', *, *, #281, .F. ) ;
#262 = TOROIDAL_SURFACE ( 'NONE', #158, 65.24999999999998600, 1.500000000000000400 ) ;
#263 = VERTEX_POINT ( 'NONE', #19 ) ;
#264 = DIRECTION ( 'NONE',  ( -1.000000000000000000, -0.0000000000000000000, -0.0000000000000000000 ) ) ;
#265 = EDGE_CURVE ( 'NONE', #239, #263, #128, .T. ) ;
#266 = CARTESIAN_POINT ( 'NONE',  ( 0.0000000000000000000, 0.0000000000000000000, 0.0000000000000000000 ) ) ;
#267 = ORIENTED_EDGE ( 'NONE', *, *, #229, .F. ) ;
#268 = ADVANCED_FACE ( 'NONE', ( #125 ), #131, .T. ) ;
#269 = CIRCLE ( 'NONE', #188, 1.500000000000001300 ) ;
#270 = DIRECTION ( 'NONE',  ( 1.000000000000000000, 0.0000000000000000000, -0.0000000000000000000 ) ) ;
#271 = FACE_OUTER_BOUND ( 'NONE', #34, .T. ) ;
#272 = TOROIDAL_SURFACE ( 'NONE', #117, 65.24999999999998600, 1.500000000000000400 ) ;
#273 = DIRECTION ( 'NONE',  ( 1.000000000000000000, 0.0000000000000000000, 0.0000000000000000000 ) ) ;
#274 = EDGE_CURVE ( 'NONE', #279, #12, #123, .T. ) ;
#275 = SECURITY_CLASSIFICATION_LEVEL ( 'unclassified' ) ;
#276 = VERTEX_POINT ( 'NONE', #17 ) ;
#277 = EDGE_CURVE ( 'NONE', #182, #181, #124, .T. ) ;
#278 = TOROIDAL_SURFACE ( 'NONE', #134, 65.24999999999998600, 1.500000000000000400 ) ;
#279 = VERTEX_POINT ( 'NONE', #205 ) ;
#280 = CARTESIAN_POINT ( 'NONE',  ( 0.0000000000000000000, 0.0000000000000000000, 0.0000000000000000000 ) ) ;
#281 = EDGE_CURVE ( 'NONE', #182, #279, #120, .T. ) ;
ENDSEC;
END-ISO-10303-21;
