ISO-10303-21;
HEADER;
/* Generated by software containing ST-Developer
 * from STEP Tools, Inc. (www.steptools.com) 
 */

FILE_DESCRIPTION(
/* description */ (''),
/* implementation_level */ '2;1');

FILE_NAME(
/* name */ 'G:\\Flanges + FITTINGS\\NW40KF\\Step files\\FL-CRSV40-32KF.
stp',
/* time_stamp */ '2018-03-12T13:59:52+00:00',
/* author */ ('paul'),
/* organization */ (''),
/* preprocessor_version */ 'ST-DEVELOPER v17',
/* originating_system */ 'Autodesk Inventor 2018',
/* authorisation */ '');

FILE_SCHEMA (('AUTOMOTIVE_DESIGN { 1 0 10303 214 3 1 1 }'));
ENDSEC;

DATA;
#10=MECHANICAL_DESIGN_GEOMETRIC_PRESENTATION_REPRESENTATION('',(#23,#24),
#581);
#11=ITEM_DEFINED_TRANSFORMATION($,$,#331,#380);
#12=ITEM_DEFINED_TRANSFORMATION($,$,#376,#381);
#13=(
REPRESENTATION_RELATIONSHIP($,$,#595,#594)
REPRESENTATION_RELATIONSHIP_WITH_TRANSFORMATION(#11)
SHAPE_REPRESENTATION_RELATIONSHIP()
);
#14=(
REPRESENTATION_RELATIONSHIP($,$,#596,#594)
REPRESENTATION_RELATIONSHIP_WITH_TRANSFORMATION(#12)
SHAPE_REPRESENTATION_RELATIONSHIP()
);
#15=CONTEXT_DEPENDENT_SHAPE_REPRESENTATION(#13,#592);
#16=CONTEXT_DEPENDENT_SHAPE_REPRESENTATION(#14,#593);
#17=NEXT_ASSEMBLY_USAGE_OCCURRENCE('o ring carrier 40-32:1',
'o ring carrier 40-32:1','o ring carrier 40-32:1',#598,#599,
'o ring carrier 40-32:1');
#18=NEXT_ASSEMBLY_USAGE_OCCURRENCE('Oring BS326:1','Oring BS326:1',
'Oring BS326:1',#598,#600,'Oring BS326:1');
#19=SHAPE_REPRESENTATION_RELATIONSHIP('SRR','None',#595,#21);
#20=SHAPE_REPRESENTATION_RELATIONSHIP('SRR','None',#596,#22);
#21=ADVANCED_BREP_SHAPE_REPRESENTATION('',(#25),#579);
#22=ADVANCED_BREP_SHAPE_REPRESENTATION('',(#26),#580);
#23=STYLED_ITEM('',(#298),#25);
#24=STYLED_ITEM('',(#299),#26);
#25=MANIFOLD_SOLID_BREP('Solid1',#273);
#26=MANIFOLD_SOLID_BREP('Solid1',#274);
#27=LINE('',#536,#31);
#28=LINE('',#552,#32);
#29=LINE('',#562,#33);
#30=LINE('',#566,#34);
#31=VECTOR('',#438,20.);
#32=VECTOR('',#457,16.);
#33=VECTOR('',#470,17.);
#34=VECTOR('',#477,20.5);
#35=CYLINDRICAL_SURFACE('',#357,20.);
#36=CYLINDRICAL_SURFACE('',#366,16.);
#37=CYLINDRICAL_SURFACE('',#372,17.);
#38=CYLINDRICAL_SURFACE('',#375,20.5);
#39=FACE_BOUND('',#65,.T.);
#40=FACE_BOUND('',#68,.T.);
#41=FACE_BOUND('',#72,.T.);
#42=FACE_BOUND('',#74,.T.);
#43=FACE_BOUND('',#77,.T.);
#44=PLANE('',#338);
#45=PLANE('',#347);
#46=PLANE('',#360);
#47=PLANE('',#363);
#48=PLANE('',#369);
#49=FACE_OUTER_BOUND('',#63,.T.);
#50=FACE_OUTER_BOUND('',#64,.T.);
#51=FACE_OUTER_BOUND('',#66,.T.);
#52=FACE_OUTER_BOUND('',#67,.T.);
#53=FACE_OUTER_BOUND('',#69,.T.);
#54=FACE_OUTER_BOUND('',#70,.T.);
#55=FACE_OUTER_BOUND('',#71,.T.);
#56=FACE_OUTER_BOUND('',#73,.T.);
#57=FACE_OUTER_BOUND('',#75,.T.);
#58=FACE_OUTER_BOUND('',#76,.T.);
#59=FACE_OUTER_BOUND('',#78,.T.);
#60=FACE_OUTER_BOUND('',#79,.T.);
#61=FACE_OUTER_BOUND('',#80,.T.);
#62=FACE_OUTER_BOUND('',#81,.T.);
#63=EDGE_LOOP('',(#180,#181,#182,#183,#184,#185));
#64=EDGE_LOOP('',(#186,#187));
#65=EDGE_LOOP('',(#188,#189));
#66=EDGE_LOOP('',(#190,#191,#192,#193,#194,#195));
#67=EDGE_LOOP('',(#196,#197));
#68=EDGE_LOOP('',(#198,#199));
#69=EDGE_LOOP('',(#200,#201,#202,#203,#204,#205,#206));
#70=EDGE_LOOP('',(#207,#208,#209,#210,#211,#212,#213));
#71=EDGE_LOOP('',(#214,#215));
#72=EDGE_LOOP('',(#216,#217));
#73=EDGE_LOOP('',(#218,#219));
#74=EDGE_LOOP('',(#220,#221));
#75=EDGE_LOOP('',(#222,#223,#224,#225,#226,#227));
#76=EDGE_LOOP('',(#228,#229));
#77=EDGE_LOOP('',(#230,#231));
#78=EDGE_LOOP('',(#232,#233,#234,#235,#236,#237));
#79=EDGE_LOOP('',(#238,#239,#240,#241,#242,#243));
#80=EDGE_LOOP('',(#244,#245,#246,#247,#248,#249));
#81=EDGE_LOOP('',(#250,#251,#252,#253));
#82=CIRCLE('',#333,21.6990729939971);
#83=CIRCLE('',#334,0.1);
#84=CIRCLE('',#335,21.7733922347205);
#85=CIRCLE('',#336,21.7733922347205);
#86=CIRCLE('',#337,21.6990729939971);
#87=CIRCLE('',#339,20.5);
#88=CIRCLE('',#340,20.5);
#89=CIRCLE('',#342,21.7733922347205);
#90=CIRCLE('',#343,0.1);
#91=CIRCLE('',#344,21.6990729939971);
#92=CIRCLE('',#345,21.6990729939971);
#93=CIRCLE('',#346,21.7733922347205);
#94=CIRCLE('',#348,17.);
#95=CIRCLE('',#349,17.);
#96=CIRCLE('',#351,20.);
#97=CIRCLE('',#352,0.1);
#98=CIRCLE('',#353,20.1);
#99=CIRCLE('',#354,20.1);
#100=CIRCLE('',#355,20.);
#101=CIRCLE('',#356,20.);
#102=CIRCLE('',#358,20.);
#103=CIRCLE('',#359,20.);
#104=CIRCLE('',#361,20.5);
#105=CIRCLE('',#362,20.5);
#106=CIRCLE('',#364,16.);
#107=CIRCLE('',#365,16.);
#108=CIRCLE('',#367,16.);
#109=CIRCLE('',#368,16.);
#110=CIRCLE('',#370,17.);
#111=CIRCLE('',#371,17.);
#112=CIRCLE('',#374,2.665);
#113=CIRCLE('',#378,2.665);
#114=CIRCLE('',#379,20.32);
#115=VERTEX_POINT('',#493);
#116=VERTEX_POINT('',#494);
#117=VERTEX_POINT('',#496);
#118=VERTEX_POINT('',#498);
#119=VERTEX_POINT('',#503);
#120=VERTEX_POINT('',#504);
#121=VERTEX_POINT('',#508);
#122=VERTEX_POINT('',#509);
#123=VERTEX_POINT('',#511);
#124=VERTEX_POINT('',#513);
#125=VERTEX_POINT('',#518);
#126=VERTEX_POINT('',#519);
#127=VERTEX_POINT('',#523);
#128=VERTEX_POINT('',#524);
#129=VERTEX_POINT('',#526);
#130=VERTEX_POINT('',#528);
#131=VERTEX_POINT('',#531);
#132=VERTEX_POINT('',#535);
#133=VERTEX_POINT('',#537);
#134=VERTEX_POINT('',#541);
#135=VERTEX_POINT('',#542);
#136=VERTEX_POINT('',#546);
#137=VERTEX_POINT('',#547);
#138=VERTEX_POINT('',#551);
#139=VERTEX_POINT('',#553);
#140=VERTEX_POINT('',#557);
#141=VERTEX_POINT('',#558);
#142=VERTEX_POINT('',#569);
#143=EDGE_CURVE('',#115,#116,#82,.T.);
#144=EDGE_CURVE('',#116,#117,#83,.T.);
#145=EDGE_CURVE('',#117,#118,#84,.T.);
#146=EDGE_CURVE('',#118,#117,#85,.T.);
#147=EDGE_CURVE('',#116,#115,#86,.T.);
#148=EDGE_CURVE('',#119,#120,#87,.T.);
#149=EDGE_CURVE('',#120,#119,#88,.T.);
#150=EDGE_CURVE('',#121,#122,#89,.T.);
#151=EDGE_CURVE('',#122,#123,#90,.T.);
#152=EDGE_CURVE('',#123,#124,#91,.T.);
#153=EDGE_CURVE('',#124,#123,#92,.T.);
#154=EDGE_CURVE('',#122,#121,#93,.T.);
#155=EDGE_CURVE('',#125,#126,#94,.T.);
#156=EDGE_CURVE('',#126,#125,#95,.T.);
#157=EDGE_CURVE('',#127,#128,#96,.T.);
#158=EDGE_CURVE('',#128,#129,#97,.T.);
#159=EDGE_CURVE('',#129,#130,#98,.T.);
#160=EDGE_CURVE('',#130,#129,#99,.T.);
#161=EDGE_CURVE('',#128,#131,#100,.T.);
#162=EDGE_CURVE('',#131,#127,#101,.T.);
#163=EDGE_CURVE('',#131,#132,#27,.T.);
#164=EDGE_CURVE('',#133,#132,#102,.T.);
#165=EDGE_CURVE('',#132,#133,#103,.T.);
#166=EDGE_CURVE('',#134,#135,#104,.T.);
#167=EDGE_CURVE('',#135,#134,#105,.T.);
#168=EDGE_CURVE('',#136,#137,#106,.T.);
#169=EDGE_CURVE('',#137,#136,#107,.T.);
#170=EDGE_CURVE('',#137,#138,#28,.T.);
#171=EDGE_CURVE('',#139,#138,#108,.T.);
#172=EDGE_CURVE('',#138,#139,#109,.T.);
#173=EDGE_CURVE('',#140,#141,#110,.T.);
#174=EDGE_CURVE('',#141,#140,#111,.T.);
#175=EDGE_CURVE('',#126,#141,#29,.T.);
#176=EDGE_CURVE('',#122,#117,#112,.T.);
#177=EDGE_CURVE('',#135,#120,#30,.T.);
#178=EDGE_CURVE('',#142,#142,#113,.T.);
#179=EDGE_CURVE('',#142,#142,#114,.T.);
#180=ORIENTED_EDGE('',*,*,#143,.T.);
#181=ORIENTED_EDGE('',*,*,#144,.T.);
#182=ORIENTED_EDGE('',*,*,#145,.T.);
#183=ORIENTED_EDGE('',*,*,#146,.T.);
#184=ORIENTED_EDGE('',*,*,#144,.F.);
#185=ORIENTED_EDGE('',*,*,#147,.T.);
#186=ORIENTED_EDGE('',*,*,#143,.F.);
#187=ORIENTED_EDGE('',*,*,#147,.F.);
#188=ORIENTED_EDGE('',*,*,#148,.F.);
#189=ORIENTED_EDGE('',*,*,#149,.F.);
#190=ORIENTED_EDGE('',*,*,#150,.T.);
#191=ORIENTED_EDGE('',*,*,#151,.T.);
#192=ORIENTED_EDGE('',*,*,#152,.T.);
#193=ORIENTED_EDGE('',*,*,#153,.T.);
#194=ORIENTED_EDGE('',*,*,#151,.F.);
#195=ORIENTED_EDGE('',*,*,#154,.T.);
#196=ORIENTED_EDGE('',*,*,#153,.F.);
#197=ORIENTED_EDGE('',*,*,#152,.F.);
#198=ORIENTED_EDGE('',*,*,#155,.T.);
#199=ORIENTED_EDGE('',*,*,#156,.T.);
#200=ORIENTED_EDGE('',*,*,#157,.T.);
#201=ORIENTED_EDGE('',*,*,#158,.T.);
#202=ORIENTED_EDGE('',*,*,#159,.T.);
#203=ORIENTED_EDGE('',*,*,#160,.T.);
#204=ORIENTED_EDGE('',*,*,#158,.F.);
#205=ORIENTED_EDGE('',*,*,#161,.T.);
#206=ORIENTED_EDGE('',*,*,#162,.T.);
#207=ORIENTED_EDGE('',*,*,#157,.F.);
#208=ORIENTED_EDGE('',*,*,#162,.F.);
#209=ORIENTED_EDGE('',*,*,#163,.T.);
#210=ORIENTED_EDGE('',*,*,#164,.F.);
#211=ORIENTED_EDGE('',*,*,#165,.F.);
#212=ORIENTED_EDGE('',*,*,#163,.F.);
#213=ORIENTED_EDGE('',*,*,#161,.F.);
#214=ORIENTED_EDGE('',*,*,#166,.T.);
#215=ORIENTED_EDGE('',*,*,#167,.T.);
#216=ORIENTED_EDGE('',*,*,#160,.F.);
#217=ORIENTED_EDGE('',*,*,#159,.F.);
#218=ORIENTED_EDGE('',*,*,#164,.T.);
#219=ORIENTED_EDGE('',*,*,#165,.T.);
#220=ORIENTED_EDGE('',*,*,#168,.F.);
#221=ORIENTED_EDGE('',*,*,#169,.F.);
#222=ORIENTED_EDGE('',*,*,#168,.T.);
#223=ORIENTED_EDGE('',*,*,#170,.T.);
#224=ORIENTED_EDGE('',*,*,#171,.F.);
#225=ORIENTED_EDGE('',*,*,#172,.F.);
#226=ORIENTED_EDGE('',*,*,#170,.F.);
#227=ORIENTED_EDGE('',*,*,#169,.T.);
#228=ORIENTED_EDGE('',*,*,#173,.F.);
#229=ORIENTED_EDGE('',*,*,#174,.F.);
#230=ORIENTED_EDGE('',*,*,#171,.T.);
#231=ORIENTED_EDGE('',*,*,#172,.T.);
#232=ORIENTED_EDGE('',*,*,#155,.F.);
#233=ORIENTED_EDGE('',*,*,#156,.F.);
#234=ORIENTED_EDGE('',*,*,#175,.T.);
#235=ORIENTED_EDGE('',*,*,#174,.T.);
#236=ORIENTED_EDGE('',*,*,#173,.T.);
#237=ORIENTED_EDGE('',*,*,#175,.F.);
#238=ORIENTED_EDGE('',*,*,#150,.F.);
#239=ORIENTED_EDGE('',*,*,#154,.F.);
#240=ORIENTED_EDGE('',*,*,#176,.T.);
#241=ORIENTED_EDGE('',*,*,#146,.F.);
#242=ORIENTED_EDGE('',*,*,#145,.F.);
#243=ORIENTED_EDGE('',*,*,#176,.F.);
#244=ORIENTED_EDGE('',*,*,#166,.F.);
#245=ORIENTED_EDGE('',*,*,#167,.F.);
#246=ORIENTED_EDGE('',*,*,#177,.T.);
#247=ORIENTED_EDGE('',*,*,#149,.T.);
#248=ORIENTED_EDGE('',*,*,#148,.T.);
#249=ORIENTED_EDGE('',*,*,#177,.F.);
#250=ORIENTED_EDGE('',*,*,#178,.F.);
#251=ORIENTED_EDGE('',*,*,#179,.T.);
#252=ORIENTED_EDGE('',*,*,#178,.T.);
#253=ORIENTED_EDGE('',*,*,#179,.F.);
#254=TOROIDAL_SURFACE('',#332,21.6990729939971,0.1);
#255=TOROIDAL_SURFACE('',#341,21.6990729939971,0.1);
#256=TOROIDAL_SURFACE('',#350,20.1,0.1);
#257=TOROIDAL_SURFACE('',#373,23.754,2.665);
#258=TOROIDAL_SURFACE('',#377,22.985,2.665);
#259=ADVANCED_FACE('',(#49),#254,.T.);
#260=ADVANCED_FACE('',(#50,#39),#44,.T.);
#261=ADVANCED_FACE('',(#51),#255,.T.);
#262=ADVANCED_FACE('',(#52,#40),#45,.T.);
#263=ADVANCED_FACE('',(#53),#256,.T.);
#264=ADVANCED_FACE('',(#54),#35,.F.);
#265=ADVANCED_FACE('',(#55,#41),#46,.T.);
#266=ADVANCED_FACE('',(#56,#42),#47,.T.);
#267=ADVANCED_FACE('',(#57),#36,.F.);
#268=ADVANCED_FACE('',(#58,#43),#48,.T.);
#269=ADVANCED_FACE('',(#59),#37,.T.);
#270=ADVANCED_FACE('',(#60),#257,.F.);
#271=ADVANCED_FACE('',(#61),#38,.T.);
#272=ADVANCED_FACE('',(#62),#258,.T.);
#273=CLOSED_SHELL('',(#259,#260,#261,#262,#263,#264,#265,#266,#267,#268,
#269,#270,#271));
#274=CLOSED_SHELL('',(#272));
#275=DERIVED_UNIT_ELEMENT(#279,1.);
#276=DERIVED_UNIT_ELEMENT(#583,3.);
#277=DERIVED_UNIT_ELEMENT(#279,1.);
#278=DERIVED_UNIT_ELEMENT(#583,3.);
#279=(
MASS_UNIT()
NAMED_UNIT(*)
SI_UNIT($,.GRAM.)
);
#280=DERIVED_UNIT((#275,#276));
#281=DERIVED_UNIT((#277,#278));
#282=MEASURE_REPRESENTATION_ITEM('density measure',
POSITIVE_RATIO_MEASURE(8.),#280);
#283=MEASURE_REPRESENTATION_ITEM('density measure',
POSITIVE_RATIO_MEASURE(0.93),#281);
#284=PROPERTY_DEFINITION_REPRESENTATION(#294,#288);
#285=PROPERTY_DEFINITION_REPRESENTATION(#295,#289);
#286=PROPERTY_DEFINITION_REPRESENTATION(#296,#290);
#287=PROPERTY_DEFINITION_REPRESENTATION(#297,#291);
#288=REPRESENTATION('material name',(#292),#579);
#289=REPRESENTATION('density',(#282),#579);
#290=REPRESENTATION('material name',(#293),#580);
#291=REPRESENTATION('density',(#283),#580);
#292=DESCRIPTIVE_REPRESENTATION_ITEM('Stainless Steel AISI 304',
'Stainless Steel AISI 304');
#293=DESCRIPTIVE_REPRESENTATION_ITEM('Rubber','Rubber');
#294=PROPERTY_DEFINITION('material property','material name',#599);
#295=PROPERTY_DEFINITION('material property','density of part',#599);
#296=PROPERTY_DEFINITION('material property','material name',#600);
#297=PROPERTY_DEFINITION('material property','density of part',#600);
#298=PRESENTATION_STYLE_ASSIGNMENT((#300));
#299=PRESENTATION_STYLE_ASSIGNMENT((#301));
#300=SURFACE_STYLE_USAGE(.BOTH.,#302);
#301=SURFACE_STYLE_USAGE(.BOTH.,#303);
#302=SURFACE_SIDE_STYLE('',(#304));
#303=SURFACE_SIDE_STYLE('',(#305));
#304=SURFACE_STYLE_FILL_AREA(#306);
#305=SURFACE_STYLE_FILL_AREA(#307);
#306=FILL_AREA_STYLE('',(#308));
#307=FILL_AREA_STYLE('',(#309));
#308=FILL_AREA_STYLE_COLOUR('',#310);
#309=FILL_AREA_STYLE_COLOUR('',#311);
#310=COLOUR_RGB('',0.745098039215686,0.737254901960784,0.729411764705882);
#311=COLOUR_RGB('',0.250980392156863,0.250980392156863,0.250980392156863);
#312=DATE_TIME_ROLE('creation_date');
#313=DATE_TIME_ROLE('creation_date');
#314=DATE_TIME_ROLE('creation_date');
#315=APPLIED_DATE_AND_TIME_ASSIGNMENT(#318,#312,(#598));
#316=APPLIED_DATE_AND_TIME_ASSIGNMENT(#319,#313,(#599));
#317=APPLIED_DATE_AND_TIME_ASSIGNMENT(#320,#314,(#600));
#318=DATE_AND_TIME(#321,#324);
#319=DATE_AND_TIME(#322,#325);
#320=DATE_AND_TIME(#323,#326);
#321=CALENDAR_DATE(2018,12,3);
#322=CALENDAR_DATE(2018,9,3);
#323=CALENDAR_DATE(2018,9,3);
#324=LOCAL_TIME(13,59,6.,#327);
#325=LOCAL_TIME(14,33,56.,#328);
#326=LOCAL_TIME(15,33,19.,#329);
#327=COORDINATED_UNIVERSAL_TIME_OFFSET(0,0,.BEHIND.);
#328=COORDINATED_UNIVERSAL_TIME_OFFSET(0,0,.BEHIND.);
#329=COORDINATED_UNIVERSAL_TIME_OFFSET(0,0,.BEHIND.);
#330=AXIS2_PLACEMENT_3D('placement',#490,#382,#383);
#331=AXIS2_PLACEMENT_3D('placement',#491,#384,#385);
#332=AXIS2_PLACEMENT_3D('',#492,#386,#387);
#333=AXIS2_PLACEMENT_3D('',#495,#388,#389);
#334=AXIS2_PLACEMENT_3D('',#497,#390,#391);
#335=AXIS2_PLACEMENT_3D('',#499,#392,#393);
#336=AXIS2_PLACEMENT_3D('',#500,#394,#395);
#337=AXIS2_PLACEMENT_3D('',#501,#396,#397);
#338=AXIS2_PLACEMENT_3D('',#502,#398,#399);
#339=AXIS2_PLACEMENT_3D('',#505,#400,#401);
#340=AXIS2_PLACEMENT_3D('',#506,#402,#403);
#341=AXIS2_PLACEMENT_3D('',#507,#404,#405);
#342=AXIS2_PLACEMENT_3D('',#510,#406,#407);
#343=AXIS2_PLACEMENT_3D('',#512,#408,#409);
#344=AXIS2_PLACEMENT_3D('',#514,#410,#411);
#345=AXIS2_PLACEMENT_3D('',#515,#412,#413);
#346=AXIS2_PLACEMENT_3D('',#516,#414,#415);
#347=AXIS2_PLACEMENT_3D('',#517,#416,#417);
#348=AXIS2_PLACEMENT_3D('',#520,#418,#419);
#349=AXIS2_PLACEMENT_3D('',#521,#420,#421);
#350=AXIS2_PLACEMENT_3D('',#522,#422,#423);
#351=AXIS2_PLACEMENT_3D('',#525,#424,#425);
#352=AXIS2_PLACEMENT_3D('',#527,#426,#427);
#353=AXIS2_PLACEMENT_3D('',#529,#428,#429);
#354=AXIS2_PLACEMENT_3D('',#530,#430,#431);
#355=AXIS2_PLACEMENT_3D('',#532,#432,#433);
#356=AXIS2_PLACEMENT_3D('',#533,#434,#435);
#357=AXIS2_PLACEMENT_3D('',#534,#436,#437);
#358=AXIS2_PLACEMENT_3D('',#538,#439,#440);
#359=AXIS2_PLACEMENT_3D('',#539,#441,#442);
#360=AXIS2_PLACEMENT_3D('',#540,#443,#444);
#361=AXIS2_PLACEMENT_3D('',#543,#445,#446);
#362=AXIS2_PLACEMENT_3D('',#544,#447,#448);
#363=AXIS2_PLACEMENT_3D('',#545,#449,#450);
#364=AXIS2_PLACEMENT_3D('',#548,#451,#452);
#365=AXIS2_PLACEMENT_3D('',#549,#453,#454);
#366=AXIS2_PLACEMENT_3D('',#550,#455,#456);
#367=AXIS2_PLACEMENT_3D('',#554,#458,#459);
#368=AXIS2_PLACEMENT_3D('',#555,#460,#461);
#369=AXIS2_PLACEMENT_3D('',#556,#462,#463);
#370=AXIS2_PLACEMENT_3D('',#559,#464,#465);
#371=AXIS2_PLACEMENT_3D('',#560,#466,#467);
#372=AXIS2_PLACEMENT_3D('',#561,#468,#469);
#373=AXIS2_PLACEMENT_3D('',#563,#471,#472);
#374=AXIS2_PLACEMENT_3D('',#564,#473,#474);
#375=AXIS2_PLACEMENT_3D('',#565,#475,#476);
#376=AXIS2_PLACEMENT_3D('placement',#567,#478,#479);
#377=AXIS2_PLACEMENT_3D('',#568,#480,#481);
#378=AXIS2_PLACEMENT_3D('',#570,#482,#483);
#379=AXIS2_PLACEMENT_3D('',#571,#484,#485);
#380=AXIS2_PLACEMENT_3D('',#572,#486,#487);
#381=AXIS2_PLACEMENT_3D('',#573,#488,#489);
#382=DIRECTION('axis',(0.,0.,1.));
#383=DIRECTION('refdir',(1.,0.,0.));
#384=DIRECTION('axis',(0.,0.,1.));
#385=DIRECTION('refdir',(1.,0.,0.));
#386=DIRECTION('center_axis',(0.,1.,0.));
#387=DIRECTION('ref_axis',(0.,0.,1.));
#388=DIRECTION('center_axis',(0.,-1.,0.));
#389=DIRECTION('ref_axis',(1.,0.,0.));
#390=DIRECTION('center_axis',(-1.,0.,1.22464679914735E-16));
#391=DIRECTION('ref_axis',(-1.22464679914735E-16,0.,-1.));
#392=DIRECTION('center_axis',(0.,1.,0.));
#393=DIRECTION('ref_axis',(1.,0.,0.));
#394=DIRECTION('center_axis',(0.,1.,0.));
#395=DIRECTION('ref_axis',(1.,0.,0.));
#396=DIRECTION('center_axis',(0.,-1.,0.));
#397=DIRECTION('ref_axis',(1.,0.,0.));
#398=DIRECTION('center_axis',(0.,1.,0.));
#399=DIRECTION('ref_axis',(0.,0.,1.));
#400=DIRECTION('center_axis',(0.,1.,0.));
#401=DIRECTION('ref_axis',(1.,0.,0.));
#402=DIRECTION('center_axis',(0.,1.,0.));
#403=DIRECTION('ref_axis',(1.,0.,0.));
#404=DIRECTION('center_axis',(0.,1.,0.));
#405=DIRECTION('ref_axis',(0.,0.,1.));
#406=DIRECTION('center_axis',(0.,-1.,0.));
#407=DIRECTION('ref_axis',(1.,0.,0.));
#408=DIRECTION('center_axis',(-1.,0.,1.22464679914735E-16));
#409=DIRECTION('ref_axis',(-1.22464679914735E-16,0.,-1.));
#410=DIRECTION('center_axis',(0.,1.,0.));
#411=DIRECTION('ref_axis',(1.,0.,0.));
#412=DIRECTION('center_axis',(0.,1.,0.));
#413=DIRECTION('ref_axis',(1.,0.,0.));
#414=DIRECTION('center_axis',(0.,-1.,0.));
#415=DIRECTION('ref_axis',(1.,0.,0.));
#416=DIRECTION('center_axis',(0.,-1.,0.));
#417=DIRECTION('ref_axis',(0.,0.,-1.));
#418=DIRECTION('center_axis',(0.,1.,0.));
#419=DIRECTION('ref_axis',(1.,0.,0.));
#420=DIRECTION('center_axis',(0.,1.,0.));
#421=DIRECTION('ref_axis',(1.,0.,0.));
#422=DIRECTION('center_axis',(0.,1.,0.));
#423=DIRECTION('ref_axis',(0.,0.,1.));
#424=DIRECTION('center_axis',(0.,-1.,0.));
#425=DIRECTION('ref_axis',(1.,0.,0.));
#426=DIRECTION('center_axis',(-1.,0.,1.22464679914735E-16));
#427=DIRECTION('ref_axis',(-1.22464679914735E-16,0.,-1.));
#428=DIRECTION('center_axis',(0.,1.,0.));
#429=DIRECTION('ref_axis',(1.,0.,0.));
#430=DIRECTION('center_axis',(0.,1.,0.));
#431=DIRECTION('ref_axis',(1.,0.,0.));
#432=DIRECTION('center_axis',(0.,-1.,0.));
#433=DIRECTION('ref_axis',(1.,0.,0.));
#434=DIRECTION('center_axis',(0.,-1.,0.));
#435=DIRECTION('ref_axis',(1.,0.,0.));
#436=DIRECTION('center_axis',(0.,1.,0.));
#437=DIRECTION('ref_axis',(-1.,0.,0.));
#438=DIRECTION('',(0.,-1.,0.));
#439=DIRECTION('center_axis',(0.,1.,0.));
#440=DIRECTION('ref_axis',(1.,0.,0.));
#441=DIRECTION('center_axis',(0.,1.,0.));
#442=DIRECTION('ref_axis',(1.,0.,0.));
#443=DIRECTION('center_axis',(0.,1.,0.));
#444=DIRECTION('ref_axis',(0.,0.,1.));
#445=DIRECTION('center_axis',(0.,1.,0.));
#446=DIRECTION('ref_axis',(1.,0.,0.));
#447=DIRECTION('center_axis',(0.,1.,0.));
#448=DIRECTION('ref_axis',(1.,0.,0.));
#449=DIRECTION('center_axis',(0.,1.,0.));
#450=DIRECTION('ref_axis',(0.,0.,1.));
#451=DIRECTION('center_axis',(0.,1.,0.));
#452=DIRECTION('ref_axis',(1.,0.,0.));
#453=DIRECTION('center_axis',(0.,1.,0.));
#454=DIRECTION('ref_axis',(1.,0.,0.));
#455=DIRECTION('center_axis',(0.,1.,0.));
#456=DIRECTION('ref_axis',(-1.,0.,0.));
#457=DIRECTION('',(0.,-1.,0.));
#458=DIRECTION('center_axis',(0.,1.,0.));
#459=DIRECTION('ref_axis',(1.,0.,0.));
#460=DIRECTION('center_axis',(0.,1.,0.));
#461=DIRECTION('ref_axis',(1.,0.,0.));
#462=DIRECTION('center_axis',(0.,-1.,0.));
#463=DIRECTION('ref_axis',(0.,0.,-1.));
#464=DIRECTION('center_axis',(0.,1.,0.));
#465=DIRECTION('ref_axis',(1.,0.,0.));
#466=DIRECTION('center_axis',(0.,1.,0.));
#467=DIRECTION('ref_axis',(1.,0.,0.));
#468=DIRECTION('center_axis',(0.,1.,0.));
#469=DIRECTION('ref_axis',(-1.,0.,0.));
#470=DIRECTION('',(0.,-1.,0.));
#471=DIRECTION('center_axis',(0.,1.,0.));
#472=DIRECTION('ref_axis',(0.,0.,1.));
#473=DIRECTION('center_axis',(-1.,0.,1.22464679914735E-16));
#474=DIRECTION('ref_axis',(-1.22464679914735E-16,0.,-1.));
#475=DIRECTION('center_axis',(0.,1.,0.));
#476=DIRECTION('ref_axis',(-1.,0.,0.));
#477=DIRECTION('',(0.,-1.,0.));
#478=DIRECTION('axis',(0.,0.,1.));
#479=DIRECTION('refdir',(1.,0.,0.));
#480=DIRECTION('center_axis',(0.,1.,0.));
#481=DIRECTION('ref_axis',(0.,0.,1.));
#482=DIRECTION('center_axis',(-1.,0.,1.22464679914735E-16));
#483=DIRECTION('ref_axis',(-1.22464679914735E-16,0.,-1.));
#484=DIRECTION('center_axis',(0.,-1.,0.));
#485=DIRECTION('ref_axis',(0.,0.,1.));
#486=DIRECTION('',(0.,0.,1.));
#487=DIRECTION('',(1.,0.,0.));
#488=DIRECTION('',(0.,0.,1.));
#489=DIRECTION('',(1.,0.,0.));
#490=CARTESIAN_POINT('',(0.,0.,0.));
#491=CARTESIAN_POINT('',(0.,0.,0.));
#492=CARTESIAN_POINT('Origin',(0.,5.85,0.));
#493=CARTESIAN_POINT('',(-21.6990729939971,5.95,-2.65737002865633E-15));
#494=CARTESIAN_POINT('',(-2.65737002865633E-15,5.95,-21.6990729939971));
#495=CARTESIAN_POINT('Origin',(0.,5.95,0.));
#496=CARTESIAN_POINT('',(-2.66647151068303E-15,5.78309222423146,-21.7733922347205));
#497=CARTESIAN_POINT('Origin',(-2.65737002865633E-15,5.85,-21.6990729939971));
#498=CARTESIAN_POINT('',(-21.7733922347205,5.78309222423146,2.66647151068303E-15));
#499=CARTESIAN_POINT('Origin',(0.,5.78309222423146,0.));
#500=CARTESIAN_POINT('Origin',(0.,5.78309222423146,0.));
#501=CARTESIAN_POINT('Origin',(0.,5.95,0.));
#502=CARTESIAN_POINT('Origin',(-20.5,5.95,0.));
#503=CARTESIAN_POINT('',(-20.5,5.95,0.));
#504=CARTESIAN_POINT('',(20.5,5.95,-2.51052593825207E-15));
#505=CARTESIAN_POINT('Origin',(0.,5.95,0.));
#506=CARTESIAN_POINT('Origin',(0.,5.95,0.));
#507=CARTESIAN_POINT('Origin',(0.,2.15,0.));
#508=CARTESIAN_POINT('',(-21.7733922347205,2.21690777576854,-2.66647151068303E-15));
#509=CARTESIAN_POINT('',(-2.66647151068303E-15,2.21690777576854,-21.7733922347205));
#510=CARTESIAN_POINT('Origin',(0.,2.21690777576854,0.));
#511=CARTESIAN_POINT('',(-2.65737002865633E-15,2.05,-21.6990729939971));
#512=CARTESIAN_POINT('Origin',(-2.65737002865633E-15,2.15,-21.6990729939971));
#513=CARTESIAN_POINT('',(-21.6990729939971,2.05,2.65737002865633E-15));
#514=CARTESIAN_POINT('Origin',(0.,2.05,0.));
#515=CARTESIAN_POINT('Origin',(0.,2.05,0.));
#516=CARTESIAN_POINT('Origin',(0.,2.21690777576854,0.));
#517=CARTESIAN_POINT('Origin',(-21.9374854803773,2.05,0.));
#518=CARTESIAN_POINT('',(-17.,2.05,0.));
#519=CARTESIAN_POINT('',(17.,2.05,-2.0818995585505E-15));
#520=CARTESIAN_POINT('Origin',(0.,2.05,0.));
#521=CARTESIAN_POINT('Origin',(0.,2.05,0.));
#522=CARTESIAN_POINT('Origin',(0.,7.9,0.));
#523=CARTESIAN_POINT('',(-20.,7.9,-2.44929359829471E-15));
#524=CARTESIAN_POINT('',(-2.44929359829471E-15,7.9,-20.));
#525=CARTESIAN_POINT('Origin',(0.,7.9,0.));
#526=CARTESIAN_POINT('',(-2.46154006628618E-15,8.,-20.1));
#527=CARTESIAN_POINT('Origin',(-2.46154006628618E-15,7.9,-20.1));
#528=CARTESIAN_POINT('',(-20.1,8.,2.46154006628618E-15));
#529=CARTESIAN_POINT('Origin',(0.,8.,0.));
#530=CARTESIAN_POINT('Origin',(0.,8.,0.));
#531=CARTESIAN_POINT('',(20.,7.9,-2.44929359829471E-15));
#532=CARTESIAN_POINT('Origin',(0.,7.9,0.));
#533=CARTESIAN_POINT('Origin',(0.,7.9,0.));
#534=CARTESIAN_POINT('Origin',(0.,6.75,0.));
#535=CARTESIAN_POINT('',(20.,5.5,-2.44929359829471E-15));
#536=CARTESIAN_POINT('',(20.,6.75,-2.44929359829471E-15));
#537=CARTESIAN_POINT('',(-20.,5.5,0.));
#538=CARTESIAN_POINT('Origin',(0.,5.5,0.));
#539=CARTESIAN_POINT('Origin',(0.,5.5,0.));
#540=CARTESIAN_POINT('Origin',(-20.,8.,0.));
#541=CARTESIAN_POINT('',(-20.5,8.,0.));
#542=CARTESIAN_POINT('',(20.5,8.,-2.51052593825207E-15));
#543=CARTESIAN_POINT('Origin',(0.,8.,0.));
#544=CARTESIAN_POINT('Origin',(0.,8.,0.));
#545=CARTESIAN_POINT('Origin',(-16.,5.5,0.));
#546=CARTESIAN_POINT('',(-16.,5.5,0.));
#547=CARTESIAN_POINT('',(16.,5.5,-1.95943487863577E-15));
#548=CARTESIAN_POINT('Origin',(0.,5.5,0.));
#549=CARTESIAN_POINT('Origin',(0.,5.5,0.));
#550=CARTESIAN_POINT('Origin',(0.,2.75,0.));
#551=CARTESIAN_POINT('',(16.,0.,-1.95943487863577E-15));
#552=CARTESIAN_POINT('',(16.,2.75,-1.95943487863577E-15));
#553=CARTESIAN_POINT('',(-16.,0.,0.));
#554=CARTESIAN_POINT('Origin',(0.,0.,0.));
#555=CARTESIAN_POINT('Origin',(0.,0.,0.));
#556=CARTESIAN_POINT('Origin',(-17.,0.,0.));
#557=CARTESIAN_POINT('',(-17.,0.,0.));
#558=CARTESIAN_POINT('',(17.,0.,-2.0818995585505E-15));
#559=CARTESIAN_POINT('Origin',(0.,0.,0.));
#560=CARTESIAN_POINT('Origin',(0.,0.,0.));
#561=CARTESIAN_POINT('Origin',(0.,1.025,0.));
#562=CARTESIAN_POINT('',(17.,1.025,-2.0818995585505E-15));
#563=CARTESIAN_POINT('Origin',(0.,4.,0.));
#564=CARTESIAN_POINT('Origin',(-2.90902600669462E-15,4.,-23.754));
#565=CARTESIAN_POINT('Origin',(0.,6.975,0.));
#566=CARTESIAN_POINT('',(20.5,6.975,-2.51052593825207E-15));
#567=CARTESIAN_POINT('',(0.,0.,0.));
#568=CARTESIAN_POINT('Origin',(0.,0.,0.));
#569=CARTESIAN_POINT('',(-2.48848229586742E-15,3.26368371972769E-16,-20.32));
#570=CARTESIAN_POINT('Origin',(-2.81485066784019E-15,0.,-22.985));
#571=CARTESIAN_POINT('Origin',(0.,-3.26368371972769E-16,0.));
#572=CARTESIAN_POINT('',(0.,0.,0.));
#573=CARTESIAN_POINT('',(0.,4.,0.));
#574=UNCERTAINTY_MEASURE_WITH_UNIT(LENGTH_MEASURE(0.01),#582,
'DISTANCE_ACCURACY_VALUE',
'Maximum model space distance between geometric entities at asserted c
onnectivities');
#575=UNCERTAINTY_MEASURE_WITH_UNIT(LENGTH_MEASURE(0.01),#582,
'DISTANCE_ACCURACY_VALUE',
'Maximum model space distance between geometric entities at asserted c
onnectivities');
#576=UNCERTAINTY_MEASURE_WITH_UNIT(LENGTH_MEASURE(0.01),#582,
'DISTANCE_ACCURACY_VALUE',
'Maximum model space distance between geometric entities at asserted c
onnectivities');
#577=UNCERTAINTY_MEASURE_WITH_UNIT(LENGTH_MEASURE(0.01),#582,
'DISTANCE_ACCURACY_VALUE',
'Maximum model space distance between geometric entities at asserted c
onnectivities');
#578=(
GEOMETRIC_REPRESENTATION_CONTEXT(3)
GLOBAL_UNCERTAINTY_ASSIGNED_CONTEXT((#574))
GLOBAL_UNIT_ASSIGNED_CONTEXT((#582,#585,#584))
REPRESENTATION_CONTEXT('','3D')
);
#579=(
GEOMETRIC_REPRESENTATION_CONTEXT(3)
GLOBAL_UNCERTAINTY_ASSIGNED_CONTEXT((#575))
GLOBAL_UNIT_ASSIGNED_CONTEXT((#582,#585,#584))
REPRESENTATION_CONTEXT('','3D')
);
#580=(
GEOMETRIC_REPRESENTATION_CONTEXT(3)
GLOBAL_UNCERTAINTY_ASSIGNED_CONTEXT((#576))
GLOBAL_UNIT_ASSIGNED_CONTEXT((#582,#585,#584))
REPRESENTATION_CONTEXT('','3D')
);
#581=(
GEOMETRIC_REPRESENTATION_CONTEXT(3)
GLOBAL_UNCERTAINTY_ASSIGNED_CONTEXT((#577))
GLOBAL_UNIT_ASSIGNED_CONTEXT((#582,#585,#584))
REPRESENTATION_CONTEXT('','3D')
);
#582=(
LENGTH_UNIT()
NAMED_UNIT(*)
SI_UNIT(.MILLI.,.METRE.)
);
#583=(
LENGTH_UNIT()
NAMED_UNIT(*)
SI_UNIT(.CENTI.,.METRE.)
);
#584=(
NAMED_UNIT(*)
SI_UNIT($,.STERADIAN.)
SOLID_ANGLE_UNIT()
);
#585=(
NAMED_UNIT(*)
PLANE_ANGLE_UNIT()
SI_UNIT($,.RADIAN.)
);
#586=SHAPE_DEFINITION_REPRESENTATION(#589,#594);
#587=SHAPE_DEFINITION_REPRESENTATION(#590,#595);
#588=SHAPE_DEFINITION_REPRESENTATION(#591,#596);
#589=PRODUCT_DEFINITION_SHAPE('',$,#598);
#590=PRODUCT_DEFINITION_SHAPE('',$,#599);
#591=PRODUCT_DEFINITION_SHAPE('',$,#600);
#592=PRODUCT_DEFINITION_SHAPE($,$,#17);
#593=PRODUCT_DEFINITION_SHAPE($,$,#18);
#594=SHAPE_REPRESENTATION('',(#330,#380,#381),#578);
#595=SHAPE_REPRESENTATION('',(#331),#579);
#596=SHAPE_REPRESENTATION('',(#376),#580);
#597=PRODUCT_DEFINITION_CONTEXT('part definition',#608,'design');
#598=PRODUCT_DEFINITION('FL-CRSV40-32KF','FL-CRSV40-32KF',#601,#597);
#599=PRODUCT_DEFINITION('o ring carrier 40-32','o ring carrier 40-32',#602,
#597);
#600=PRODUCT_DEFINITION('Oring BS326','Oring BS326',#603,#597);
#601=PRODUCT_DEFINITION_FORMATION('',$,#610);
#602=PRODUCT_DEFINITION_FORMATION('',$,#611);
#603=PRODUCT_DEFINITION_FORMATION('',$,#612);
#604=PRODUCT_RELATED_PRODUCT_CATEGORY('FL-CRSV40-32KF','FL-CRSV40-32KF',
(#610));
#605=PRODUCT_RELATED_PRODUCT_CATEGORY('o ring carrier 40-32',
'o ring carrier 40-32',(#611));
#606=PRODUCT_RELATED_PRODUCT_CATEGORY('Oring BS326','Oring BS326',(#612));
#607=APPLICATION_PROTOCOL_DEFINITION('international standard',
'automotive_design',2009,#608);
#608=APPLICATION_CONTEXT(
'Core Data for Automotive Mechanical Design Process');
#609=PRODUCT_CONTEXT('part definition',#608,'mechanical');
#610=PRODUCT('FL-CRSV40-32KF','FL-CRSV40-32KF',$,(#609));
#611=PRODUCT('o ring carrier 40-32','o ring carrier 40-32',$,(#609));
#612=PRODUCT('Oring BS326','Oring BS326',$,(#609));
ENDSEC;
END-ISO-10303-21;
