ISO-10303-21;
HEADER;
/* Generated by software containing ST-Developer
 * from STEP Tools, Inc. (www.steptools.com) 
 */

FILE_DESCRIPTION(
/* description */ (''),
/* implementation_level */ '2;1');

FILE_NAME(
/* name */ 'G:\\Flanges + FITTINGS\\NW25KF\\Step files\\FL-CRSV25-20KF.
stp',
/* time_stamp */ '2018-03-12T13:53:51+00:00',
/* author */ ('paul'),
/* organization */ (''),
/* preprocessor_version */ 'ST-DEVELOPER v17',
/* originating_system */ 'Autodesk Inventor 2018',
/* authorisation */ '');

FILE_SCHEMA (('AUTOMOTIVE_DESIGN { 1 0 10303 214 3 1 1 }'));
ENDSEC;

DATA;
#10=MECHANICAL_DESIGN_GEOMETRIC_PRESENTATION_REPRESENTATION('',(#23,#24),
#545);
#11=ITEM_DEFINED_TRANSFORMATION($,$,#313,#358);
#12=ITEM_DEFINED_TRANSFORMATION($,$,#354,#359);
#13=(
REPRESENTATION_RELATIONSHIP($,$,#559,#558)
REPRESENTATION_RELATIONSHIP_WITH_TRANSFORMATION(#11)
SHAPE_REPRESENTATION_RELATIONSHIP()
);
#14=(
REPRESENTATION_RELATIONSHIP($,$,#560,#558)
REPRESENTATION_RELATIONSHIP_WITH_TRANSFORMATION(#12)
SHAPE_REPRESENTATION_RELATIONSHIP()
);
#15=CONTEXT_DEPENDENT_SHAPE_REPRESENTATION(#13,#556);
#16=CONTEXT_DEPENDENT_SHAPE_REPRESENTATION(#14,#557);
#17=NEXT_ASSEMBLY_USAGE_OCCURRENCE('o ring carrier 20-25:1',
'o ring carrier 20-25:1','o ring carrier 20-25:1',#562,#563,
'o ring carrier 20-25:1');
#18=NEXT_ASSEMBLY_USAGE_OCCURRENCE('Oring BS320:1','Oring BS320:1',
'Oring BS320:1',#562,#564,'Oring BS320:1');
#19=SHAPE_REPRESENTATION_RELATIONSHIP('SRR','None',#559,#21);
#20=SHAPE_REPRESENTATION_RELATIONSHIP('SRR','None',#560,#22);
#21=ADVANCED_BREP_SHAPE_REPRESENTATION('',(#25),#543);
#22=ADVANCED_BREP_SHAPE_REPRESENTATION('',(#26),#544);
#23=STYLED_ITEM('',(#280),#25);
#24=STYLED_ITEM('',(#281),#26);
#25=MANIFOLD_SOLID_BREP('Solid1',#255);
#26=MANIFOLD_SOLID_BREP('Solid1',#256);
#27=LINE('',#491,#31);
#28=LINE('',#507,#32);
#29=LINE('',#521,#33);
#30=LINE('',#530,#34);
#31=VECTOR('',#398,12.5);
#32=VECTOR('',#417,10.);
#33=VECTOR('',#434,11.);
#34=VECTOR('',#447,13.);
#35=CYLINDRICAL_SURFACE('',#330,12.5);
#36=CYLINDRICAL_SURFACE('',#339,10.);
#37=CYLINDRICAL_SURFACE('',#345,11.);
#38=CYLINDRICAL_SURFACE('',#353,13.);
#39=FACE_BOUND('',#64,.T.);
#40=FACE_BOUND('',#68,.T.);
#41=FACE_BOUND('',#70,.T.);
#42=FACE_BOUND('',#73,.T.);
#43=FACE_BOUND('',#76,.T.);
#44=PLANE('',#320);
#45=PLANE('',#333);
#46=PLANE('',#336);
#47=PLANE('',#342);
#48=PLANE('',#348);
#49=FACE_OUTER_BOUND('',#62,.T.);
#50=FACE_OUTER_BOUND('',#63,.T.);
#51=FACE_OUTER_BOUND('',#65,.T.);
#52=FACE_OUTER_BOUND('',#66,.T.);
#53=FACE_OUTER_BOUND('',#67,.T.);
#54=FACE_OUTER_BOUND('',#69,.T.);
#55=FACE_OUTER_BOUND('',#71,.T.);
#56=FACE_OUTER_BOUND('',#72,.T.);
#57=FACE_OUTER_BOUND('',#74,.T.);
#58=FACE_OUTER_BOUND('',#75,.T.);
#59=FACE_OUTER_BOUND('',#77,.T.);
#60=FACE_OUTER_BOUND('',#78,.T.);
#61=FACE_OUTER_BOUND('',#79,.T.);
#62=EDGE_LOOP('',(#170,#171,#172,#173,#174,#175));
#63=EDGE_LOOP('',(#176,#177));
#64=EDGE_LOOP('',(#178,#179));
#65=EDGE_LOOP('',(#180,#181,#182,#183,#184,#185,#186));
#66=EDGE_LOOP('',(#187,#188,#189,#190,#191,#192,#193));
#67=EDGE_LOOP('',(#194,#195));
#68=EDGE_LOOP('',(#196,#197));
#69=EDGE_LOOP('',(#198,#199));
#70=EDGE_LOOP('',(#200,#201));
#71=EDGE_LOOP('',(#202,#203,#204,#205,#206,#207));
#72=EDGE_LOOP('',(#208,#209));
#73=EDGE_LOOP('',(#210,#211));
#74=EDGE_LOOP('',(#212,#213,#214,#215,#216,#217));
#75=EDGE_LOOP('',(#218,#219));
#76=EDGE_LOOP('',(#220,#221));
#77=EDGE_LOOP('',(#222,#223,#224,#225,#226,#227));
#78=EDGE_LOOP('',(#228,#229,#230,#231,#232,#233));
#79=EDGE_LOOP('',(#234,#235,#236,#237));
#80=CIRCLE('',#315,14.5800729939971);
#81=CIRCLE('',#316,0.1);
#82=CIRCLE('',#317,14.6543922347205);
#83=CIRCLE('',#318,14.6543922347205);
#84=CIRCLE('',#319,14.5800729939971);
#85=CIRCLE('',#321,13.);
#86=CIRCLE('',#322,13.);
#87=CIRCLE('',#324,12.5);
#88=CIRCLE('',#325,0.1);
#89=CIRCLE('',#326,12.6);
#90=CIRCLE('',#327,12.6);
#91=CIRCLE('',#328,12.5);
#92=CIRCLE('',#329,12.5);
#93=CIRCLE('',#331,12.5);
#94=CIRCLE('',#332,12.5);
#95=CIRCLE('',#334,13.);
#96=CIRCLE('',#335,13.);
#97=CIRCLE('',#337,10.);
#98=CIRCLE('',#338,10.);
#99=CIRCLE('',#340,10.);
#100=CIRCLE('',#341,10.);
#101=CIRCLE('',#343,11.);
#102=CIRCLE('',#344,11.);
#103=CIRCLE('',#346,11.);
#104=CIRCLE('',#347,11.);
#105=CIRCLE('',#349,14.8184854803773);
#106=CIRCLE('',#350,14.8184854803773);
#107=CIRCLE('',#352,2.665);
#108=CIRCLE('',#356,2.665);
#109=CIRCLE('',#357,13.97);
#110=VERTEX_POINT('',#463);
#111=VERTEX_POINT('',#464);
#112=VERTEX_POINT('',#466);
#113=VERTEX_POINT('',#468);
#114=VERTEX_POINT('',#473);
#115=VERTEX_POINT('',#474);
#116=VERTEX_POINT('',#478);
#117=VERTEX_POINT('',#479);
#118=VERTEX_POINT('',#481);
#119=VERTEX_POINT('',#483);
#120=VERTEX_POINT('',#486);
#121=VERTEX_POINT('',#490);
#122=VERTEX_POINT('',#492);
#123=VERTEX_POINT('',#496);
#124=VERTEX_POINT('',#497);
#125=VERTEX_POINT('',#501);
#126=VERTEX_POINT('',#502);
#127=VERTEX_POINT('',#506);
#128=VERTEX_POINT('',#508);
#129=VERTEX_POINT('',#512);
#130=VERTEX_POINT('',#513);
#131=VERTEX_POINT('',#517);
#132=VERTEX_POINT('',#518);
#133=VERTEX_POINT('',#523);
#134=VERTEX_POINT('',#524);
#135=VERTEX_POINT('',#533);
#136=EDGE_CURVE('',#110,#111,#80,.T.);
#137=EDGE_CURVE('',#111,#112,#81,.T.);
#138=EDGE_CURVE('',#112,#113,#82,.T.);
#139=EDGE_CURVE('',#113,#112,#83,.T.);
#140=EDGE_CURVE('',#111,#110,#84,.T.);
#141=EDGE_CURVE('',#114,#115,#85,.T.);
#142=EDGE_CURVE('',#115,#114,#86,.T.);
#143=EDGE_CURVE('',#116,#117,#87,.T.);
#144=EDGE_CURVE('',#117,#118,#88,.T.);
#145=EDGE_CURVE('',#118,#119,#89,.T.);
#146=EDGE_CURVE('',#119,#118,#90,.T.);
#147=EDGE_CURVE('',#117,#120,#91,.T.);
#148=EDGE_CURVE('',#120,#116,#92,.T.);
#149=EDGE_CURVE('',#120,#121,#27,.T.);
#150=EDGE_CURVE('',#122,#121,#93,.T.);
#151=EDGE_CURVE('',#121,#122,#94,.T.);
#152=EDGE_CURVE('',#123,#124,#95,.T.);
#153=EDGE_CURVE('',#124,#123,#96,.T.);
#154=EDGE_CURVE('',#125,#126,#97,.T.);
#155=EDGE_CURVE('',#126,#125,#98,.T.);
#156=EDGE_CURVE('',#126,#127,#28,.T.);
#157=EDGE_CURVE('',#128,#127,#99,.T.);
#158=EDGE_CURVE('',#127,#128,#100,.T.);
#159=EDGE_CURVE('',#129,#130,#101,.T.);
#160=EDGE_CURVE('',#130,#129,#102,.T.);
#161=EDGE_CURVE('',#131,#132,#103,.T.);
#162=EDGE_CURVE('',#132,#131,#104,.T.);
#163=EDGE_CURVE('',#132,#130,#29,.T.);
#164=EDGE_CURVE('',#133,#134,#105,.T.);
#165=EDGE_CURVE('',#134,#133,#106,.T.);
#166=EDGE_CURVE('',#134,#112,#107,.T.);
#167=EDGE_CURVE('',#124,#115,#30,.T.);
#168=EDGE_CURVE('',#135,#135,#108,.T.);
#169=EDGE_CURVE('',#135,#135,#109,.T.);
#170=ORIENTED_EDGE('',*,*,#136,.T.);
#171=ORIENTED_EDGE('',*,*,#137,.T.);
#172=ORIENTED_EDGE('',*,*,#138,.T.);
#173=ORIENTED_EDGE('',*,*,#139,.T.);
#174=ORIENTED_EDGE('',*,*,#137,.F.);
#175=ORIENTED_EDGE('',*,*,#140,.T.);
#176=ORIENTED_EDGE('',*,*,#136,.F.);
#177=ORIENTED_EDGE('',*,*,#140,.F.);
#178=ORIENTED_EDGE('',*,*,#141,.F.);
#179=ORIENTED_EDGE('',*,*,#142,.F.);
#180=ORIENTED_EDGE('',*,*,#143,.T.);
#181=ORIENTED_EDGE('',*,*,#144,.T.);
#182=ORIENTED_EDGE('',*,*,#145,.T.);
#183=ORIENTED_EDGE('',*,*,#146,.T.);
#184=ORIENTED_EDGE('',*,*,#144,.F.);
#185=ORIENTED_EDGE('',*,*,#147,.T.);
#186=ORIENTED_EDGE('',*,*,#148,.T.);
#187=ORIENTED_EDGE('',*,*,#143,.F.);
#188=ORIENTED_EDGE('',*,*,#148,.F.);
#189=ORIENTED_EDGE('',*,*,#149,.T.);
#190=ORIENTED_EDGE('',*,*,#150,.F.);
#191=ORIENTED_EDGE('',*,*,#151,.F.);
#192=ORIENTED_EDGE('',*,*,#149,.F.);
#193=ORIENTED_EDGE('',*,*,#147,.F.);
#194=ORIENTED_EDGE('',*,*,#152,.T.);
#195=ORIENTED_EDGE('',*,*,#153,.T.);
#196=ORIENTED_EDGE('',*,*,#146,.F.);
#197=ORIENTED_EDGE('',*,*,#145,.F.);
#198=ORIENTED_EDGE('',*,*,#150,.T.);
#199=ORIENTED_EDGE('',*,*,#151,.T.);
#200=ORIENTED_EDGE('',*,*,#154,.F.);
#201=ORIENTED_EDGE('',*,*,#155,.F.);
#202=ORIENTED_EDGE('',*,*,#154,.T.);
#203=ORIENTED_EDGE('',*,*,#156,.T.);
#204=ORIENTED_EDGE('',*,*,#157,.F.);
#205=ORIENTED_EDGE('',*,*,#158,.F.);
#206=ORIENTED_EDGE('',*,*,#156,.F.);
#207=ORIENTED_EDGE('',*,*,#155,.T.);
#208=ORIENTED_EDGE('',*,*,#159,.F.);
#209=ORIENTED_EDGE('',*,*,#160,.F.);
#210=ORIENTED_EDGE('',*,*,#157,.T.);
#211=ORIENTED_EDGE('',*,*,#158,.T.);
#212=ORIENTED_EDGE('',*,*,#161,.F.);
#213=ORIENTED_EDGE('',*,*,#162,.F.);
#214=ORIENTED_EDGE('',*,*,#163,.T.);
#215=ORIENTED_EDGE('',*,*,#160,.T.);
#216=ORIENTED_EDGE('',*,*,#159,.T.);
#217=ORIENTED_EDGE('',*,*,#163,.F.);
#218=ORIENTED_EDGE('',*,*,#164,.F.);
#219=ORIENTED_EDGE('',*,*,#165,.F.);
#220=ORIENTED_EDGE('',*,*,#161,.T.);
#221=ORIENTED_EDGE('',*,*,#162,.T.);
#222=ORIENTED_EDGE('',*,*,#164,.T.);
#223=ORIENTED_EDGE('',*,*,#166,.T.);
#224=ORIENTED_EDGE('',*,*,#139,.F.);
#225=ORIENTED_EDGE('',*,*,#138,.F.);
#226=ORIENTED_EDGE('',*,*,#166,.F.);
#227=ORIENTED_EDGE('',*,*,#165,.T.);
#228=ORIENTED_EDGE('',*,*,#152,.F.);
#229=ORIENTED_EDGE('',*,*,#153,.F.);
#230=ORIENTED_EDGE('',*,*,#167,.T.);
#231=ORIENTED_EDGE('',*,*,#142,.T.);
#232=ORIENTED_EDGE('',*,*,#141,.T.);
#233=ORIENTED_EDGE('',*,*,#167,.F.);
#234=ORIENTED_EDGE('',*,*,#168,.F.);
#235=ORIENTED_EDGE('',*,*,#169,.T.);
#236=ORIENTED_EDGE('',*,*,#168,.T.);
#237=ORIENTED_EDGE('',*,*,#169,.F.);
#238=TOROIDAL_SURFACE('',#314,14.5800729939971,0.1);
#239=TOROIDAL_SURFACE('',#323,12.6,0.1);
#240=TOROIDAL_SURFACE('',#351,16.635,2.665);
#241=TOROIDAL_SURFACE('',#355,16.635,2.665);
#242=ADVANCED_FACE('',(#49),#238,.T.);
#243=ADVANCED_FACE('',(#50,#39),#44,.T.);
#244=ADVANCED_FACE('',(#51),#239,.T.);
#245=ADVANCED_FACE('',(#52),#35,.F.);
#246=ADVANCED_FACE('',(#53,#40),#45,.T.);
#247=ADVANCED_FACE('',(#54,#41),#46,.T.);
#248=ADVANCED_FACE('',(#55),#36,.F.);
#249=ADVANCED_FACE('',(#56,#42),#47,.T.);
#250=ADVANCED_FACE('',(#57),#37,.T.);
#251=ADVANCED_FACE('',(#58,#43),#48,.T.);
#252=ADVANCED_FACE('',(#59),#240,.F.);
#253=ADVANCED_FACE('',(#60),#38,.T.);
#254=ADVANCED_FACE('',(#61),#241,.T.);
#255=CLOSED_SHELL('',(#242,#243,#244,#245,#246,#247,#248,#249,#250,#251,
#252,#253));
#256=CLOSED_SHELL('',(#254));
#257=DERIVED_UNIT_ELEMENT(#261,1.);
#258=DERIVED_UNIT_ELEMENT(#547,3.);
#259=DERIVED_UNIT_ELEMENT(#261,1.);
#260=DERIVED_UNIT_ELEMENT(#547,3.);
#261=(
MASS_UNIT()
NAMED_UNIT(*)
SI_UNIT($,.GRAM.)
);
#262=DERIVED_UNIT((#257,#258));
#263=DERIVED_UNIT((#259,#260));
#264=MEASURE_REPRESENTATION_ITEM('density measure',
POSITIVE_RATIO_MEASURE(8.),#262);
#265=MEASURE_REPRESENTATION_ITEM('density measure',
POSITIVE_RATIO_MEASURE(0.93),#263);
#266=PROPERTY_DEFINITION_REPRESENTATION(#276,#270);
#267=PROPERTY_DEFINITION_REPRESENTATION(#277,#271);
#268=PROPERTY_DEFINITION_REPRESENTATION(#278,#272);
#269=PROPERTY_DEFINITION_REPRESENTATION(#279,#273);
#270=REPRESENTATION('material name',(#274),#543);
#271=REPRESENTATION('density',(#264),#543);
#272=REPRESENTATION('material name',(#275),#544);
#273=REPRESENTATION('density',(#265),#544);
#274=DESCRIPTIVE_REPRESENTATION_ITEM('Stainless Steel AISI 304',
'Stainless Steel AISI 304');
#275=DESCRIPTIVE_REPRESENTATION_ITEM('Rubber','Rubber');
#276=PROPERTY_DEFINITION('material property','material name',#563);
#277=PROPERTY_DEFINITION('material property','density of part',#563);
#278=PROPERTY_DEFINITION('material property','material name',#564);
#279=PROPERTY_DEFINITION('material property','density of part',#564);
#280=PRESENTATION_STYLE_ASSIGNMENT((#282));
#281=PRESENTATION_STYLE_ASSIGNMENT((#283));
#282=SURFACE_STYLE_USAGE(.BOTH.,#284);
#283=SURFACE_STYLE_USAGE(.BOTH.,#285);
#284=SURFACE_SIDE_STYLE('',(#286));
#285=SURFACE_SIDE_STYLE('',(#287));
#286=SURFACE_STYLE_FILL_AREA(#288);
#287=SURFACE_STYLE_FILL_AREA(#289);
#288=FILL_AREA_STYLE('',(#290));
#289=FILL_AREA_STYLE('',(#291));
#290=FILL_AREA_STYLE_COLOUR('',#292);
#291=FILL_AREA_STYLE_COLOUR('',#293);
#292=COLOUR_RGB('',0.745098039215686,0.737254901960784,0.729411764705882);
#293=COLOUR_RGB('',0.250980392156863,0.250980392156863,0.250980392156863);
#294=DATE_TIME_ROLE('creation_date');
#295=DATE_TIME_ROLE('creation_date');
#296=DATE_TIME_ROLE('creation_date');
#297=APPLIED_DATE_AND_TIME_ASSIGNMENT(#300,#294,(#562));
#298=APPLIED_DATE_AND_TIME_ASSIGNMENT(#301,#295,(#563));
#299=APPLIED_DATE_AND_TIME_ASSIGNMENT(#302,#296,(#564));
#300=DATE_AND_TIME(#303,#306);
#301=DATE_AND_TIME(#304,#307);
#302=DATE_AND_TIME(#305,#308);
#303=CALENDAR_DATE(2018,12,3);
#304=CALENDAR_DATE(2018,9,3);
#305=CALENDAR_DATE(2018,9,3);
#306=LOCAL_TIME(13,51,51.,#309);
#307=LOCAL_TIME(14,33,56.,#310);
#308=LOCAL_TIME(15,14,48.,#311);
#309=COORDINATED_UNIVERSAL_TIME_OFFSET(0,0,.BEHIND.);
#310=COORDINATED_UNIVERSAL_TIME_OFFSET(0,0,.BEHIND.);
#311=COORDINATED_UNIVERSAL_TIME_OFFSET(0,0,.BEHIND.);
#312=AXIS2_PLACEMENT_3D('placement',#460,#360,#361);
#313=AXIS2_PLACEMENT_3D('placement',#461,#362,#363);
#314=AXIS2_PLACEMENT_3D('',#462,#364,#365);
#315=AXIS2_PLACEMENT_3D('',#465,#366,#367);
#316=AXIS2_PLACEMENT_3D('',#467,#368,#369);
#317=AXIS2_PLACEMENT_3D('',#469,#370,#371);
#318=AXIS2_PLACEMENT_3D('',#470,#372,#373);
#319=AXIS2_PLACEMENT_3D('',#471,#374,#375);
#320=AXIS2_PLACEMENT_3D('',#472,#376,#377);
#321=AXIS2_PLACEMENT_3D('',#475,#378,#379);
#322=AXIS2_PLACEMENT_3D('',#476,#380,#381);
#323=AXIS2_PLACEMENT_3D('',#477,#382,#383);
#324=AXIS2_PLACEMENT_3D('',#480,#384,#385);
#325=AXIS2_PLACEMENT_3D('',#482,#386,#387);
#326=AXIS2_PLACEMENT_3D('',#484,#388,#389);
#327=AXIS2_PLACEMENT_3D('',#485,#390,#391);
#328=AXIS2_PLACEMENT_3D('',#487,#392,#393);
#329=AXIS2_PLACEMENT_3D('',#488,#394,#395);
#330=AXIS2_PLACEMENT_3D('',#489,#396,#397);
#331=AXIS2_PLACEMENT_3D('',#493,#399,#400);
#332=AXIS2_PLACEMENT_3D('',#494,#401,#402);
#333=AXIS2_PLACEMENT_3D('',#495,#403,#404);
#334=AXIS2_PLACEMENT_3D('',#498,#405,#406);
#335=AXIS2_PLACEMENT_3D('',#499,#407,#408);
#336=AXIS2_PLACEMENT_3D('',#500,#409,#410);
#337=AXIS2_PLACEMENT_3D('',#503,#411,#412);
#338=AXIS2_PLACEMENT_3D('',#504,#413,#414);
#339=AXIS2_PLACEMENT_3D('',#505,#415,#416);
#340=AXIS2_PLACEMENT_3D('',#509,#418,#419);
#341=AXIS2_PLACEMENT_3D('',#510,#420,#421);
#342=AXIS2_PLACEMENT_3D('',#511,#422,#423);
#343=AXIS2_PLACEMENT_3D('',#514,#424,#425);
#344=AXIS2_PLACEMENT_3D('',#515,#426,#427);
#345=AXIS2_PLACEMENT_3D('',#516,#428,#429);
#346=AXIS2_PLACEMENT_3D('',#519,#430,#431);
#347=AXIS2_PLACEMENT_3D('',#520,#432,#433);
#348=AXIS2_PLACEMENT_3D('',#522,#435,#436);
#349=AXIS2_PLACEMENT_3D('',#525,#437,#438);
#350=AXIS2_PLACEMENT_3D('',#526,#439,#440);
#351=AXIS2_PLACEMENT_3D('',#527,#441,#442);
#352=AXIS2_PLACEMENT_3D('',#528,#443,#444);
#353=AXIS2_PLACEMENT_3D('',#529,#445,#446);
#354=AXIS2_PLACEMENT_3D('placement',#531,#448,#449);
#355=AXIS2_PLACEMENT_3D('',#532,#450,#451);
#356=AXIS2_PLACEMENT_3D('',#534,#452,#453);
#357=AXIS2_PLACEMENT_3D('',#535,#454,#455);
#358=AXIS2_PLACEMENT_3D('',#536,#456,#457);
#359=AXIS2_PLACEMENT_3D('',#537,#458,#459);
#360=DIRECTION('axis',(0.,0.,1.));
#361=DIRECTION('refdir',(1.,0.,0.));
#362=DIRECTION('axis',(0.,0.,1.));
#363=DIRECTION('refdir',(1.,0.,0.));
#364=DIRECTION('center_axis',(0.,1.,0.));
#365=DIRECTION('ref_axis',(0.,0.,1.));
#366=DIRECTION('center_axis',(0.,-1.,0.));
#367=DIRECTION('ref_axis',(1.,0.,0.));
#368=DIRECTION('center_axis',(-1.,0.,1.22464679914735E-16));
#369=DIRECTION('ref_axis',(-1.22464679914735E-16,0.,-1.));
#370=DIRECTION('center_axis',(0.,1.,0.));
#371=DIRECTION('ref_axis',(1.,0.,0.));
#372=DIRECTION('center_axis',(0.,1.,0.));
#373=DIRECTION('ref_axis',(1.,0.,0.));
#374=DIRECTION('center_axis',(0.,-1.,0.));
#375=DIRECTION('ref_axis',(1.,0.,0.));
#376=DIRECTION('center_axis',(0.,1.,0.));
#377=DIRECTION('ref_axis',(0.,0.,1.));
#378=DIRECTION('center_axis',(0.,1.,0.));
#379=DIRECTION('ref_axis',(1.,0.,0.));
#380=DIRECTION('center_axis',(0.,1.,0.));
#381=DIRECTION('ref_axis',(1.,0.,0.));
#382=DIRECTION('center_axis',(0.,1.,0.));
#383=DIRECTION('ref_axis',(0.,0.,1.));
#384=DIRECTION('center_axis',(0.,-1.,0.));
#385=DIRECTION('ref_axis',(1.,0.,0.));
#386=DIRECTION('center_axis',(-1.,0.,1.22464679914735E-16));
#387=DIRECTION('ref_axis',(-1.22464679914735E-16,0.,-1.));
#388=DIRECTION('center_axis',(0.,1.,0.));
#389=DIRECTION('ref_axis',(1.,0.,0.));
#390=DIRECTION('center_axis',(0.,1.,0.));
#391=DIRECTION('ref_axis',(1.,0.,0.));
#392=DIRECTION('center_axis',(0.,-1.,0.));
#393=DIRECTION('ref_axis',(1.,0.,0.));
#394=DIRECTION('center_axis',(0.,-1.,0.));
#395=DIRECTION('ref_axis',(1.,0.,0.));
#396=DIRECTION('center_axis',(0.,1.,0.));
#397=DIRECTION('ref_axis',(-1.,0.,0.));
#398=DIRECTION('',(0.,-1.,0.));
#399=DIRECTION('center_axis',(0.,1.,0.));
#400=DIRECTION('ref_axis',(1.,0.,0.));
#401=DIRECTION('center_axis',(0.,1.,0.));
#402=DIRECTION('ref_axis',(1.,0.,0.));
#403=DIRECTION('center_axis',(0.,1.,0.));
#404=DIRECTION('ref_axis',(0.,0.,1.));
#405=DIRECTION('center_axis',(0.,1.,0.));
#406=DIRECTION('ref_axis',(1.,0.,0.));
#407=DIRECTION('center_axis',(0.,1.,0.));
#408=DIRECTION('ref_axis',(1.,0.,0.));
#409=DIRECTION('center_axis',(0.,1.,0.));
#410=DIRECTION('ref_axis',(0.,0.,1.));
#411=DIRECTION('center_axis',(0.,1.,0.));
#412=DIRECTION('ref_axis',(1.,0.,0.));
#413=DIRECTION('center_axis',(0.,1.,0.));
#414=DIRECTION('ref_axis',(1.,0.,0.));
#415=DIRECTION('center_axis',(0.,1.,0.));
#416=DIRECTION('ref_axis',(-1.,0.,0.));
#417=DIRECTION('',(0.,-1.,0.));
#418=DIRECTION('center_axis',(0.,1.,0.));
#419=DIRECTION('ref_axis',(1.,0.,0.));
#420=DIRECTION('center_axis',(0.,1.,0.));
#421=DIRECTION('ref_axis',(1.,0.,0.));
#422=DIRECTION('center_axis',(0.,-1.,0.));
#423=DIRECTION('ref_axis',(0.,0.,-1.));
#424=DIRECTION('center_axis',(0.,1.,0.));
#425=DIRECTION('ref_axis',(1.,0.,0.));
#426=DIRECTION('center_axis',(0.,1.,0.));
#427=DIRECTION('ref_axis',(1.,0.,0.));
#428=DIRECTION('center_axis',(0.,1.,0.));
#429=DIRECTION('ref_axis',(-1.,0.,0.));
#430=DIRECTION('center_axis',(0.,1.,0.));
#431=DIRECTION('ref_axis',(1.,0.,0.));
#432=DIRECTION('center_axis',(0.,1.,0.));
#433=DIRECTION('ref_axis',(1.,0.,0.));
#434=DIRECTION('',(0.,-1.,0.));
#435=DIRECTION('center_axis',(0.,-1.,0.));
#436=DIRECTION('ref_axis',(0.,0.,-1.));
#437=DIRECTION('center_axis',(0.,1.,0.));
#438=DIRECTION('ref_axis',(1.,0.,0.));
#439=DIRECTION('center_axis',(0.,1.,0.));
#440=DIRECTION('ref_axis',(1.,0.,0.));
#441=DIRECTION('center_axis',(0.,1.,0.));
#442=DIRECTION('ref_axis',(0.,0.,1.));
#443=DIRECTION('center_axis',(-1.,0.,1.22464679914735E-16));
#444=DIRECTION('ref_axis',(-1.22464679914735E-16,0.,-1.));
#445=DIRECTION('center_axis',(0.,1.,0.));
#446=DIRECTION('ref_axis',(-1.,0.,0.));
#447=DIRECTION('',(0.,-1.,0.));
#448=DIRECTION('axis',(0.,0.,1.));
#449=DIRECTION('refdir',(1.,0.,0.));
#450=DIRECTION('center_axis',(0.,1.,0.));
#451=DIRECTION('ref_axis',(0.,0.,1.));
#452=DIRECTION('center_axis',(-1.,0.,1.22464679914735E-16));
#453=DIRECTION('ref_axis',(-1.22464679914735E-16,0.,-1.));
#454=DIRECTION('center_axis',(0.,-1.,0.));
#455=DIRECTION('ref_axis',(0.,0.,1.));
#456=DIRECTION('',(0.,0.,1.));
#457=DIRECTION('',(1.,0.,0.));
#458=DIRECTION('',(0.,0.,1.));
#459=DIRECTION('',(1.,0.,0.));
#460=CARTESIAN_POINT('',(0.,0.,0.));
#461=CARTESIAN_POINT('',(0.,0.,0.));
#462=CARTESIAN_POINT('Origin',(0.,5.85,0.));
#463=CARTESIAN_POINT('',(-14.5800729939971,5.95,-1.78554397234333E-15));
#464=CARTESIAN_POINT('',(-1.78554397234333E-15,5.95,-14.5800729939971));
#465=CARTESIAN_POINT('Origin',(0.,5.95,0.));
#466=CARTESIAN_POINT('',(-1.79464545437003E-15,5.78309222423147,-14.6543922347205));
#467=CARTESIAN_POINT('Origin',(-1.78554397234333E-15,5.85,-14.5800729939971));
#468=CARTESIAN_POINT('',(-14.6543922347205,5.78309222423147,1.79464545437003E-15));
#469=CARTESIAN_POINT('Origin',(0.,5.78309222423147,0.));
#470=CARTESIAN_POINT('Origin',(0.,5.78309222423147,0.));
#471=CARTESIAN_POINT('Origin',(0.,5.95,0.));
#472=CARTESIAN_POINT('Origin',(-13.,5.95,0.));
#473=CARTESIAN_POINT('',(-13.,5.95,0.));
#474=CARTESIAN_POINT('',(13.,5.95,-1.59204083889156E-15));
#475=CARTESIAN_POINT('Origin',(0.,5.95,0.));
#476=CARTESIAN_POINT('Origin',(0.,5.95,0.));
#477=CARTESIAN_POINT('Origin',(0.,7.9,0.));
#478=CARTESIAN_POINT('',(-12.5,7.9,-1.53080849893419E-15));
#479=CARTESIAN_POINT('',(-1.53080849893419E-15,7.9,-12.5));
#480=CARTESIAN_POINT('Origin',(0.,7.9,0.));
#481=CARTESIAN_POINT('',(-1.54305496692567E-15,8.,-12.6));
#482=CARTESIAN_POINT('Origin',(-1.54305496692567E-15,7.9,-12.6));
#483=CARTESIAN_POINT('',(-12.6,8.,1.54305496692567E-15));
#484=CARTESIAN_POINT('Origin',(0.,8.,0.));
#485=CARTESIAN_POINT('Origin',(0.,8.,0.));
#486=CARTESIAN_POINT('',(12.5,7.9,-1.53080849893419E-15));
#487=CARTESIAN_POINT('Origin',(0.,7.9,0.));
#488=CARTESIAN_POINT('Origin',(0.,7.9,0.));
#489=CARTESIAN_POINT('Origin',(0.,6.75,0.));
#490=CARTESIAN_POINT('',(12.5,5.5,-1.53080849893419E-15));
#491=CARTESIAN_POINT('',(12.5,6.75,-1.53080849893419E-15));
#492=CARTESIAN_POINT('',(-12.5,5.5,0.));
#493=CARTESIAN_POINT('Origin',(0.,5.5,0.));
#494=CARTESIAN_POINT('Origin',(0.,5.5,0.));
#495=CARTESIAN_POINT('Origin',(-12.5,8.,0.));
#496=CARTESIAN_POINT('',(-13.,8.,0.));
#497=CARTESIAN_POINT('',(13.,8.,-1.59204083889156E-15));
#498=CARTESIAN_POINT('Origin',(0.,8.,0.));
#499=CARTESIAN_POINT('Origin',(0.,8.,0.));
#500=CARTESIAN_POINT('Origin',(-10.,5.5,0.));
#501=CARTESIAN_POINT('',(-10.,5.5,0.));
#502=CARTESIAN_POINT('',(10.,5.5,-1.22464679914735E-15));
#503=CARTESIAN_POINT('Origin',(0.,5.5,0.));
#504=CARTESIAN_POINT('Origin',(0.,5.5,0.));
#505=CARTESIAN_POINT('Origin',(0.,2.75,0.));
#506=CARTESIAN_POINT('',(10.,0.,-1.22464679914735E-15));
#507=CARTESIAN_POINT('',(10.,2.75,-1.22464679914735E-15));
#508=CARTESIAN_POINT('',(-10.,0.,0.));
#509=CARTESIAN_POINT('Origin',(0.,0.,0.));
#510=CARTESIAN_POINT('Origin',(0.,0.,0.));
#511=CARTESIAN_POINT('Origin',(-11.,0.,0.));
#512=CARTESIAN_POINT('',(-11.,0.,0.));
#513=CARTESIAN_POINT('',(11.,0.,-1.34711147906209E-15));
#514=CARTESIAN_POINT('Origin',(0.,0.,0.));
#515=CARTESIAN_POINT('Origin',(0.,0.,0.));
#516=CARTESIAN_POINT('Origin',(0.,1.025,0.));
#517=CARTESIAN_POINT('',(-11.,2.04999999999999,0.));
#518=CARTESIAN_POINT('',(11.,2.04999999999999,-1.34711147906209E-15));
#519=CARTESIAN_POINT('Origin',(0.,2.04999999999999,0.));
#520=CARTESIAN_POINT('Origin',(0.,2.04999999999999,0.));
#521=CARTESIAN_POINT('',(11.,1.025,-1.34711147906209E-15));
#522=CARTESIAN_POINT('Origin',(-14.8184854803773,2.04999999999999,0.));
#523=CARTESIAN_POINT('',(-14.8184854803773,2.04999999999999,0.));
#524=CARTESIAN_POINT('',(-1.81474108117556E-15,2.04999999999999,-14.8184854803773));
#525=CARTESIAN_POINT('Origin',(0.,2.05,0.));
#526=CARTESIAN_POINT('Origin',(0.,2.05,0.));
#527=CARTESIAN_POINT('Origin',(0.,4.,0.));
#528=CARTESIAN_POINT('Origin',(-2.03719995038162E-15,4.,-16.635));
#529=CARTESIAN_POINT('Origin',(0.,6.975,0.));
#530=CARTESIAN_POINT('',(13.,6.975,-1.59204083889156E-15));
#531=CARTESIAN_POINT('',(0.,0.,0.));
#532=CARTESIAN_POINT('Origin',(0.,0.,0.));
#533=CARTESIAN_POINT('',(-1.71083157840885E-15,3.2636837197277E-16,-13.97));
#534=CARTESIAN_POINT('Origin',(-2.03719995038162E-15,0.,-16.635));
#535=CARTESIAN_POINT('Origin',(0.,-3.2636837197277E-16,0.));
#536=CARTESIAN_POINT('',(0.,0.,0.));
#537=CARTESIAN_POINT('',(0.,4.,0.));
#538=UNCERTAINTY_MEASURE_WITH_UNIT(LENGTH_MEASURE(0.01),#546,
'DISTANCE_ACCURACY_VALUE',
'Maximum model space distance between geometric entities at asserted c
onnectivities');
#539=UNCERTAINTY_MEASURE_WITH_UNIT(LENGTH_MEASURE(0.01),#546,
'DISTANCE_ACCURACY_VALUE',
'Maximum model space distance between geometric entities at asserted c
onnectivities');
#540=UNCERTAINTY_MEASURE_WITH_UNIT(LENGTH_MEASURE(0.01),#546,
'DISTANCE_ACCURACY_VALUE',
'Maximum model space distance between geometric entities at asserted c
onnectivities');
#541=UNCERTAINTY_MEASURE_WITH_UNIT(LENGTH_MEASURE(0.01),#546,
'DISTANCE_ACCURACY_VALUE',
'Maximum model space distance between geometric entities at asserted c
onnectivities');
#542=(
GEOMETRIC_REPRESENTATION_CONTEXT(3)
GLOBAL_UNCERTAINTY_ASSIGNED_CONTEXT((#538))
GLOBAL_UNIT_ASSIGNED_CONTEXT((#546,#549,#548))
REPRESENTATION_CONTEXT('','3D')
);
#543=(
GEOMETRIC_REPRESENTATION_CONTEXT(3)
GLOBAL_UNCERTAINTY_ASSIGNED_CONTEXT((#539))
GLOBAL_UNIT_ASSIGNED_CONTEXT((#546,#549,#548))
REPRESENTATION_CONTEXT('','3D')
);
#544=(
GEOMETRIC_REPRESENTATION_CONTEXT(3)
GLOBAL_UNCERTAINTY_ASSIGNED_CONTEXT((#540))
GLOBAL_UNIT_ASSIGNED_CONTEXT((#546,#549,#548))
REPRESENTATION_CONTEXT('','3D')
);
#545=(
GEOMETRIC_REPRESENTATION_CONTEXT(3)
GLOBAL_UNCERTAINTY_ASSIGNED_CONTEXT((#541))
GLOBAL_UNIT_ASSIGNED_CONTEXT((#546,#549,#548))
REPRESENTATION_CONTEXT('','3D')
);
#546=(
LENGTH_UNIT()
NAMED_UNIT(*)
SI_UNIT(.MILLI.,.METRE.)
);
#547=(
LENGTH_UNIT()
NAMED_UNIT(*)
SI_UNIT(.CENTI.,.METRE.)
);
#548=(
NAMED_UNIT(*)
SI_UNIT($,.STERADIAN.)
SOLID_ANGLE_UNIT()
);
#549=(
NAMED_UNIT(*)
PLANE_ANGLE_UNIT()
SI_UNIT($,.RADIAN.)
);
#550=SHAPE_DEFINITION_REPRESENTATION(#553,#558);
#551=SHAPE_DEFINITION_REPRESENTATION(#554,#559);
#552=SHAPE_DEFINITION_REPRESENTATION(#555,#560);
#553=PRODUCT_DEFINITION_SHAPE('',$,#562);
#554=PRODUCT_DEFINITION_SHAPE('',$,#563);
#555=PRODUCT_DEFINITION_SHAPE('',$,#564);
#556=PRODUCT_DEFINITION_SHAPE($,$,#17);
#557=PRODUCT_DEFINITION_SHAPE($,$,#18);
#558=SHAPE_REPRESENTATION('',(#312,#358,#359),#542);
#559=SHAPE_REPRESENTATION('',(#313),#543);
#560=SHAPE_REPRESENTATION('',(#354),#544);
#561=PRODUCT_DEFINITION_CONTEXT('part definition',#572,'design');
#562=PRODUCT_DEFINITION('FL-CRSV25-20KF','FL-CRSV25-20KF',#565,#561);
#563=PRODUCT_DEFINITION('o ring carrier 20-25','o ring carrier 20-25',#566,
#561);
#564=PRODUCT_DEFINITION('Oring BS320','Oring BS320',#567,#561);
#565=PRODUCT_DEFINITION_FORMATION('',$,#574);
#566=PRODUCT_DEFINITION_FORMATION('',$,#575);
#567=PRODUCT_DEFINITION_FORMATION('',$,#576);
#568=PRODUCT_RELATED_PRODUCT_CATEGORY('FL-CRSV25-20KF','FL-CRSV25-20KF',
(#574));
#569=PRODUCT_RELATED_PRODUCT_CATEGORY('o ring carrier 20-25',
'o ring carrier 20-25',(#575));
#570=PRODUCT_RELATED_PRODUCT_CATEGORY('Oring BS320','Oring BS320',(#576));
#571=APPLICATION_PROTOCOL_DEFINITION('international standard',
'automotive_design',2009,#572);
#572=APPLICATION_CONTEXT(
'Core Data for Automotive Mechanical Design Process');
#573=PRODUCT_CONTEXT('part definition',#572,'mechanical');
#574=PRODUCT('FL-CRSV25-20KF','FL-CRSV25-20KF',$,(#573));
#575=PRODUCT('o ring carrier 20-25','o ring carrier 20-25',$,(#573));
#576=PRODUCT('Oring BS320','Oring BS320',$,(#573));
ENDSEC;
END-ISO-10303-21;
