ISO-10303-21;
HEADER;
/* Generated by software containing ST-Developer
 * from STEP Tools, Inc. (www.steptools.com) 
 */

FILE_DESCRIPTION(
/* description */ (''),
/* implementation_level */ '2;1');

FILE_NAME(
/* name */ 'G:\\Flanges + FITTINGS\\NW10KF\\Step files\\FL-CRSV10-16KF.
stp',
/* time_stamp */ '2018-04-04T16:02:59+01:00',
/* author */ ('paul'),
/* organization */ (''),
/* preprocessor_version */ 'ST-DEVELOPER v17',
/* originating_system */ 'Autodesk Inventor 2018',
/* authorisation */ '');

FILE_SCHEMA (('AUTOMOTIVE_DESIGN { 1 0 10303 214 3 1 1 }'));
ENDSEC;

DATA;
#10=MECHANICAL_DESIGN_GEOMETRIC_PRESENTATION_REPRESENTATION('',(#23,#24),
#627);
#11=ITEM_DEFINED_TRANSFORMATION($,$,#354,#408);
#12=ITEM_DEFINED_TRANSFORMATION($,$,#404,#409);
#13=(
REPRESENTATION_RELATIONSHIP($,$,#641,#640)
REPRESENTATION_RELATIONSHIP_WITH_TRANSFORMATION(#11)
SHAPE_REPRESENTATION_RELATIONSHIP()
);
#14=(
REPRESENTATION_RELATIONSHIP($,$,#642,#640)
REPRESENTATION_RELATIONSHIP_WITH_TRANSFORMATION(#12)
SHAPE_REPRESENTATION_RELATIONSHIP()
);
#15=CONTEXT_DEPENDENT_SHAPE_REPRESENTATION(#13,#638);
#16=CONTEXT_DEPENDENT_SHAPE_REPRESENTATION(#14,#639);
#17=NEXT_ASSEMBLY_USAGE_OCCURRENCE('o ring carrier 10-16:1',
'o ring carrier 10-16:1','o ring carrier 10-16:1',#644,#645,
'o ring carrier 10-16:1');
#18=NEXT_ASSEMBLY_USAGE_OCCURRENCE('Oring BS312:1','Oring BS312:1',
'Oring BS312:1',#644,#646,'Oring BS312:1');
#19=SHAPE_REPRESENTATION_RELATIONSHIP('SRR','None',#641,#21);
#20=SHAPE_REPRESENTATION_RELATIONSHIP('SRR','None',#642,#22);
#21=ADVANCED_BREP_SHAPE_REPRESENTATION('',(#25),#625);
#22=ADVANCED_BREP_SHAPE_REPRESENTATION('',(#26),#626);
#23=STYLED_ITEM('',(#321),#25);
#24=STYLED_ITEM('',(#322),#26);
#25=MANIFOLD_SOLID_BREP('Solid1',#296);
#26=MANIFOLD_SOLID_BREP('Solid1',#297);
#27=LINE('',#579,#31);
#28=LINE('',#592,#32);
#29=LINE('',#600,#33);
#30=LINE('',#610,#34);
#31=VECTOR('',#472,8.);
#32=VECTOR('',#489,8.5);
#33=VECTOR('',#498,5.);
#34=VECTOR('',#511,6.);
#35=CYLINDRICAL_SURFACE('',#383,8.);
#36=CYLINDRICAL_SURFACE('',#391,8.5);
#37=CYLINDRICAL_SURFACE('',#395,5.);
#38=CYLINDRICAL_SURFACE('',#401,6.);
#39=FACE_BOUND('',#66,.T.);
#40=FACE_BOUND('',#69,.T.);
#41=FACE_BOUND('',#72,.T.);
#42=FACE_BOUND('',#77,.T.);
#43=FACE_BOUND('',#80,.T.);
#44=PLANE('',#361);
#45=PLANE('',#370);
#46=PLANE('',#380);
#47=PLANE('',#392);
#48=PLANE('',#398);
#49=FACE_OUTER_BOUND('',#64,.T.);
#50=FACE_OUTER_BOUND('',#65,.T.);
#51=FACE_OUTER_BOUND('',#67,.T.);
#52=FACE_OUTER_BOUND('',#68,.T.);
#53=FACE_OUTER_BOUND('',#70,.T.);
#54=FACE_OUTER_BOUND('',#71,.T.);
#55=FACE_OUTER_BOUND('',#73,.T.);
#56=FACE_OUTER_BOUND('',#74,.T.);
#57=FACE_OUTER_BOUND('',#75,.T.);
#58=FACE_OUTER_BOUND('',#76,.T.);
#59=FACE_OUTER_BOUND('',#78,.T.);
#60=FACE_OUTER_BOUND('',#79,.T.);
#61=FACE_OUTER_BOUND('',#81,.T.);
#62=FACE_OUTER_BOUND('',#82,.T.);
#63=FACE_OUTER_BOUND('',#83,.T.);
#64=EDGE_LOOP('',(#193,#194,#195,#196,#197,#198));
#65=EDGE_LOOP('',(#199,#200));
#66=EDGE_LOOP('',(#201,#202));
#67=EDGE_LOOP('',(#203,#204,#205,#206,#207,#208));
#68=EDGE_LOOP('',(#209,#210));
#69=EDGE_LOOP('',(#211,#212));
#70=EDGE_LOOP('',(#213,#214,#215,#216,#217,#218,#219));
#71=EDGE_LOOP('',(#220,#221));
#72=EDGE_LOOP('',(#222,#223));
#73=EDGE_LOOP('',(#224,#225,#226,#227,#228,#229,#230));
#74=EDGE_LOOP('',(#231,#232,#233,#234,#235,#236,#237));
#75=EDGE_LOOP('',(#238,#239,#240,#241,#242,#243,#244));
#76=EDGE_LOOP('',(#245,#246));
#77=EDGE_LOOP('',(#247,#248));
#78=EDGE_LOOP('',(#249,#250,#251,#252,#253,#254));
#79=EDGE_LOOP('',(#255,#256));
#80=EDGE_LOOP('',(#257,#258));
#81=EDGE_LOOP('',(#259,#260,#261,#262,#263,#264));
#82=EDGE_LOOP('',(#265,#266,#267,#268,#269,#270));
#83=EDGE_LOOP('',(#271,#272,#273,#274));
#84=CIRCLE('',#356,9.82007299399711);
#85=CIRCLE('',#357,0.1);
#86=CIRCLE('',#358,9.89439223472055);
#87=CIRCLE('',#359,9.89439223472055);
#88=CIRCLE('',#360,9.82007299399711);
#89=CIRCLE('',#362,8.5);
#90=CIRCLE('',#363,8.5);
#91=CIRCLE('',#365,9.89439223472054);
#92=CIRCLE('',#366,0.1);
#93=CIRCLE('',#367,9.82007299399711);
#94=CIRCLE('',#368,9.82007299399711);
#95=CIRCLE('',#369,9.89439223472054);
#96=CIRCLE('',#371,6.);
#97=CIRCLE('',#372,6.);
#98=CIRCLE('',#374,8.);
#99=CIRCLE('',#375,0.1);
#100=CIRCLE('',#376,8.1);
#101=CIRCLE('',#377,8.1);
#102=CIRCLE('',#378,8.);
#103=CIRCLE('',#379,8.);
#104=CIRCLE('',#381,8.4);
#105=CIRCLE('',#382,8.4);
#106=CIRCLE('',#384,8.);
#107=CIRCLE('',#385,8.);
#108=CIRCLE('',#387,0.1);
#109=CIRCLE('',#388,8.5);
#110=CIRCLE('',#389,8.5);
#111=CIRCLE('',#390,8.5);
#112=CIRCLE('',#393,5.);
#113=CIRCLE('',#394,5.);
#114=CIRCLE('',#396,5.);
#115=CIRCLE('',#397,5.);
#116=CIRCLE('',#399,6.00000000000001);
#117=CIRCLE('',#400,6.00000000000001);
#118=CIRCLE('',#403,2.665);
#119=CIRCLE('',#406,2.665);
#120=CIRCLE('',#407,9.21);
#121=VERTEX_POINT('',#531);
#122=VERTEX_POINT('',#532);
#123=VERTEX_POINT('',#534);
#124=VERTEX_POINT('',#536);
#125=VERTEX_POINT('',#541);
#126=VERTEX_POINT('',#542);
#127=VERTEX_POINT('',#546);
#128=VERTEX_POINT('',#547);
#129=VERTEX_POINT('',#549);
#130=VERTEX_POINT('',#551);
#131=VERTEX_POINT('',#556);
#132=VERTEX_POINT('',#557);
#133=VERTEX_POINT('',#561);
#134=VERTEX_POINT('',#562);
#135=VERTEX_POINT('',#564);
#136=VERTEX_POINT('',#566);
#137=VERTEX_POINT('',#569);
#138=VERTEX_POINT('',#573);
#139=VERTEX_POINT('',#574);
#140=VERTEX_POINT('',#578);
#141=VERTEX_POINT('',#580);
#142=VERTEX_POINT('',#584);
#143=VERTEX_POINT('',#586);
#144=VERTEX_POINT('',#588);
#145=VERTEX_POINT('',#594);
#146=VERTEX_POINT('',#595);
#147=VERTEX_POINT('',#599);
#148=VERTEX_POINT('',#601);
#149=VERTEX_POINT('',#605);
#150=VERTEX_POINT('',#606);
#151=VERTEX_POINT('',#615);
#152=EDGE_CURVE('',#121,#122,#84,.T.);
#153=EDGE_CURVE('',#122,#123,#85,.T.);
#154=EDGE_CURVE('',#123,#124,#86,.T.);
#155=EDGE_CURVE('',#124,#123,#87,.T.);
#156=EDGE_CURVE('',#122,#121,#88,.T.);
#157=EDGE_CURVE('',#125,#126,#89,.T.);
#158=EDGE_CURVE('',#126,#125,#90,.T.);
#159=EDGE_CURVE('',#127,#128,#91,.T.);
#160=EDGE_CURVE('',#128,#129,#92,.T.);
#161=EDGE_CURVE('',#129,#130,#93,.T.);
#162=EDGE_CURVE('',#130,#129,#94,.T.);
#163=EDGE_CURVE('',#128,#127,#95,.T.);
#164=EDGE_CURVE('',#131,#132,#96,.T.);
#165=EDGE_CURVE('',#132,#131,#97,.T.);
#166=EDGE_CURVE('',#133,#134,#98,.T.);
#167=EDGE_CURVE('',#134,#135,#99,.T.);
#168=EDGE_CURVE('',#135,#136,#100,.T.);
#169=EDGE_CURVE('',#136,#135,#101,.T.);
#170=EDGE_CURVE('',#134,#137,#102,.T.);
#171=EDGE_CURVE('',#137,#133,#103,.T.);
#172=EDGE_CURVE('',#138,#139,#104,.T.);
#173=EDGE_CURVE('',#139,#138,#105,.T.);
#174=EDGE_CURVE('',#137,#140,#27,.T.);
#175=EDGE_CURVE('',#141,#140,#106,.T.);
#176=EDGE_CURVE('',#140,#141,#107,.T.);
#177=EDGE_CURVE('',#139,#142,#108,.T.);
#178=EDGE_CURVE('',#142,#143,#109,.T.);
#179=EDGE_CURVE('',#143,#144,#110,.T.);
#180=EDGE_CURVE('',#144,#142,#111,.T.);
#181=EDGE_CURVE('',#144,#126,#28,.T.);
#182=EDGE_CURVE('',#145,#146,#112,.T.);
#183=EDGE_CURVE('',#146,#145,#113,.T.);
#184=EDGE_CURVE('',#146,#147,#29,.T.);
#185=EDGE_CURVE('',#148,#147,#114,.T.);
#186=EDGE_CURVE('',#147,#148,#115,.T.);
#187=EDGE_CURVE('',#149,#150,#116,.T.);
#188=EDGE_CURVE('',#150,#149,#117,.T.);
#189=EDGE_CURVE('',#132,#150,#30,.T.);
#190=EDGE_CURVE('',#128,#123,#118,.T.);
#191=EDGE_CURVE('',#151,#151,#119,.T.);
#192=EDGE_CURVE('',#151,#151,#120,.T.);
#193=ORIENTED_EDGE('',*,*,#152,.T.);
#194=ORIENTED_EDGE('',*,*,#153,.T.);
#195=ORIENTED_EDGE('',*,*,#154,.T.);
#196=ORIENTED_EDGE('',*,*,#155,.T.);
#197=ORIENTED_EDGE('',*,*,#153,.F.);
#198=ORIENTED_EDGE('',*,*,#156,.T.);
#199=ORIENTED_EDGE('',*,*,#152,.F.);
#200=ORIENTED_EDGE('',*,*,#156,.F.);
#201=ORIENTED_EDGE('',*,*,#157,.F.);
#202=ORIENTED_EDGE('',*,*,#158,.F.);
#203=ORIENTED_EDGE('',*,*,#159,.T.);
#204=ORIENTED_EDGE('',*,*,#160,.T.);
#205=ORIENTED_EDGE('',*,*,#161,.T.);
#206=ORIENTED_EDGE('',*,*,#162,.T.);
#207=ORIENTED_EDGE('',*,*,#160,.F.);
#208=ORIENTED_EDGE('',*,*,#163,.T.);
#209=ORIENTED_EDGE('',*,*,#162,.F.);
#210=ORIENTED_EDGE('',*,*,#161,.F.);
#211=ORIENTED_EDGE('',*,*,#164,.T.);
#212=ORIENTED_EDGE('',*,*,#165,.T.);
#213=ORIENTED_EDGE('',*,*,#166,.T.);
#214=ORIENTED_EDGE('',*,*,#167,.T.);
#215=ORIENTED_EDGE('',*,*,#168,.T.);
#216=ORIENTED_EDGE('',*,*,#169,.T.);
#217=ORIENTED_EDGE('',*,*,#167,.F.);
#218=ORIENTED_EDGE('',*,*,#170,.T.);
#219=ORIENTED_EDGE('',*,*,#171,.T.);
#220=ORIENTED_EDGE('',*,*,#172,.F.);
#221=ORIENTED_EDGE('',*,*,#173,.F.);
#222=ORIENTED_EDGE('',*,*,#169,.F.);
#223=ORIENTED_EDGE('',*,*,#168,.F.);
#224=ORIENTED_EDGE('',*,*,#166,.F.);
#225=ORIENTED_EDGE('',*,*,#171,.F.);
#226=ORIENTED_EDGE('',*,*,#174,.T.);
#227=ORIENTED_EDGE('',*,*,#175,.F.);
#228=ORIENTED_EDGE('',*,*,#176,.F.);
#229=ORIENTED_EDGE('',*,*,#174,.F.);
#230=ORIENTED_EDGE('',*,*,#170,.F.);
#231=ORIENTED_EDGE('',*,*,#172,.T.);
#232=ORIENTED_EDGE('',*,*,#177,.T.);
#233=ORIENTED_EDGE('',*,*,#178,.T.);
#234=ORIENTED_EDGE('',*,*,#179,.T.);
#235=ORIENTED_EDGE('',*,*,#180,.T.);
#236=ORIENTED_EDGE('',*,*,#177,.F.);
#237=ORIENTED_EDGE('',*,*,#173,.T.);
#238=ORIENTED_EDGE('',*,*,#179,.F.);
#239=ORIENTED_EDGE('',*,*,#178,.F.);
#240=ORIENTED_EDGE('',*,*,#180,.F.);
#241=ORIENTED_EDGE('',*,*,#181,.T.);
#242=ORIENTED_EDGE('',*,*,#158,.T.);
#243=ORIENTED_EDGE('',*,*,#157,.T.);
#244=ORIENTED_EDGE('',*,*,#181,.F.);
#245=ORIENTED_EDGE('',*,*,#175,.T.);
#246=ORIENTED_EDGE('',*,*,#176,.T.);
#247=ORIENTED_EDGE('',*,*,#182,.F.);
#248=ORIENTED_EDGE('',*,*,#183,.F.);
#249=ORIENTED_EDGE('',*,*,#182,.T.);
#250=ORIENTED_EDGE('',*,*,#184,.T.);
#251=ORIENTED_EDGE('',*,*,#185,.F.);
#252=ORIENTED_EDGE('',*,*,#186,.F.);
#253=ORIENTED_EDGE('',*,*,#184,.F.);
#254=ORIENTED_EDGE('',*,*,#183,.T.);
#255=ORIENTED_EDGE('',*,*,#187,.F.);
#256=ORIENTED_EDGE('',*,*,#188,.F.);
#257=ORIENTED_EDGE('',*,*,#185,.T.);
#258=ORIENTED_EDGE('',*,*,#186,.T.);
#259=ORIENTED_EDGE('',*,*,#164,.F.);
#260=ORIENTED_EDGE('',*,*,#165,.F.);
#261=ORIENTED_EDGE('',*,*,#189,.T.);
#262=ORIENTED_EDGE('',*,*,#188,.T.);
#263=ORIENTED_EDGE('',*,*,#187,.T.);
#264=ORIENTED_EDGE('',*,*,#189,.F.);
#265=ORIENTED_EDGE('',*,*,#159,.F.);
#266=ORIENTED_EDGE('',*,*,#163,.F.);
#267=ORIENTED_EDGE('',*,*,#190,.T.);
#268=ORIENTED_EDGE('',*,*,#155,.F.);
#269=ORIENTED_EDGE('',*,*,#154,.F.);
#270=ORIENTED_EDGE('',*,*,#190,.F.);
#271=ORIENTED_EDGE('',*,*,#191,.F.);
#272=ORIENTED_EDGE('',*,*,#192,.T.);
#273=ORIENTED_EDGE('',*,*,#191,.T.);
#274=ORIENTED_EDGE('',*,*,#192,.F.);
#275=TOROIDAL_SURFACE('',#355,9.82007299399711,0.1);
#276=TOROIDAL_SURFACE('',#364,9.82007299399711,0.1);
#277=TOROIDAL_SURFACE('',#373,8.1,0.1);
#278=TOROIDAL_SURFACE('',#386,8.4,0.1);
#279=TOROIDAL_SURFACE('',#402,11.875,2.665);
#280=TOROIDAL_SURFACE('',#405,11.875,2.665);
#281=ADVANCED_FACE('',(#49),#275,.T.);
#282=ADVANCED_FACE('',(#50,#39),#44,.T.);
#283=ADVANCED_FACE('',(#51),#276,.T.);
#284=ADVANCED_FACE('',(#52,#40),#45,.T.);
#285=ADVANCED_FACE('',(#53),#277,.T.);
#286=ADVANCED_FACE('',(#54,#41),#46,.T.);
#287=ADVANCED_FACE('',(#55),#35,.F.);
#288=ADVANCED_FACE('',(#56),#278,.T.);
#289=ADVANCED_FACE('',(#57),#36,.T.);
#290=ADVANCED_FACE('',(#58,#42),#47,.T.);
#291=ADVANCED_FACE('',(#59),#37,.F.);
#292=ADVANCED_FACE('',(#60,#43),#48,.T.);
#293=ADVANCED_FACE('',(#61),#38,.T.);
#294=ADVANCED_FACE('',(#62),#279,.F.);
#295=ADVANCED_FACE('',(#63),#280,.T.);
#296=CLOSED_SHELL('',(#281,#282,#283,#284,#285,#286,#287,#288,#289,#290,
#291,#292,#293,#294));
#297=CLOSED_SHELL('',(#295));
#298=DERIVED_UNIT_ELEMENT(#302,1.);
#299=DERIVED_UNIT_ELEMENT(#629,3.);
#300=DERIVED_UNIT_ELEMENT(#302,1.);
#301=DERIVED_UNIT_ELEMENT(#629,3.);
#302=(
MASS_UNIT()
NAMED_UNIT(*)
SI_UNIT($,.GRAM.)
);
#303=DERIVED_UNIT((#298,#299));
#304=DERIVED_UNIT((#300,#301));
#305=MEASURE_REPRESENTATION_ITEM('density measure',
POSITIVE_RATIO_MEASURE(8.),#303);
#306=MEASURE_REPRESENTATION_ITEM('density measure',
POSITIVE_RATIO_MEASURE(0.93),#304);
#307=PROPERTY_DEFINITION_REPRESENTATION(#317,#311);
#308=PROPERTY_DEFINITION_REPRESENTATION(#318,#312);
#309=PROPERTY_DEFINITION_REPRESENTATION(#319,#313);
#310=PROPERTY_DEFINITION_REPRESENTATION(#320,#314);
#311=REPRESENTATION('material name',(#315),#625);
#312=REPRESENTATION('density',(#305),#625);
#313=REPRESENTATION('material name',(#316),#626);
#314=REPRESENTATION('density',(#306),#626);
#315=DESCRIPTIVE_REPRESENTATION_ITEM('Stainless Steel AISI 304',
'Stainless Steel AISI 304');
#316=DESCRIPTIVE_REPRESENTATION_ITEM('Rubber','Rubber');
#317=PROPERTY_DEFINITION('material property','material name',#645);
#318=PROPERTY_DEFINITION('material property','density of part',#645);
#319=PROPERTY_DEFINITION('material property','material name',#646);
#320=PROPERTY_DEFINITION('material property','density of part',#646);
#321=PRESENTATION_STYLE_ASSIGNMENT((#323));
#322=PRESENTATION_STYLE_ASSIGNMENT((#324));
#323=SURFACE_STYLE_USAGE(.BOTH.,#325);
#324=SURFACE_STYLE_USAGE(.BOTH.,#326);
#325=SURFACE_SIDE_STYLE('',(#327));
#326=SURFACE_SIDE_STYLE('',(#328));
#327=SURFACE_STYLE_FILL_AREA(#329);
#328=SURFACE_STYLE_FILL_AREA(#330);
#329=FILL_AREA_STYLE('',(#331));
#330=FILL_AREA_STYLE('',(#332));
#331=FILL_AREA_STYLE_COLOUR('',#333);
#332=FILL_AREA_STYLE_COLOUR('',#334);
#333=COLOUR_RGB('',0.745098039215686,0.737254901960784,0.729411764705882);
#334=COLOUR_RGB('',0.250980392156863,0.250980392156863,0.250980392156863);
#335=DATE_TIME_ROLE('creation_date');
#336=DATE_TIME_ROLE('creation_date');
#337=DATE_TIME_ROLE('creation_date');
#338=APPLIED_DATE_AND_TIME_ASSIGNMENT(#341,#335,(#644));
#339=APPLIED_DATE_AND_TIME_ASSIGNMENT(#342,#336,(#645));
#340=APPLIED_DATE_AND_TIME_ASSIGNMENT(#343,#337,(#646));
#341=DATE_AND_TIME(#344,#347);
#342=DATE_AND_TIME(#345,#348);
#343=DATE_AND_TIME(#346,#349);
#344=CALENDAR_DATE(2018,12,3);
#345=CALENDAR_DATE(2018,9,3);
#346=CALENDAR_DATE(2018,9,3);
#347=LOCAL_TIME(13,26,51.,#350);
#348=LOCAL_TIME(14,33,56.,#351);
#349=LOCAL_TIME(15,1,58.,#352);
#350=COORDINATED_UNIVERSAL_TIME_OFFSET(0,0,.BEHIND.);
#351=COORDINATED_UNIVERSAL_TIME_OFFSET(0,0,.BEHIND.);
#352=COORDINATED_UNIVERSAL_TIME_OFFSET(0,0,.BEHIND.);
#353=AXIS2_PLACEMENT_3D('placement',#528,#410,#411);
#354=AXIS2_PLACEMENT_3D('placement',#529,#412,#413);
#355=AXIS2_PLACEMENT_3D('',#530,#414,#415);
#356=AXIS2_PLACEMENT_3D('',#533,#416,#417);
#357=AXIS2_PLACEMENT_3D('',#535,#418,#419);
#358=AXIS2_PLACEMENT_3D('',#537,#420,#421);
#359=AXIS2_PLACEMENT_3D('',#538,#422,#423);
#360=AXIS2_PLACEMENT_3D('',#539,#424,#425);
#361=AXIS2_PLACEMENT_3D('',#540,#426,#427);
#362=AXIS2_PLACEMENT_3D('',#543,#428,#429);
#363=AXIS2_PLACEMENT_3D('',#544,#430,#431);
#364=AXIS2_PLACEMENT_3D('',#545,#432,#433);
#365=AXIS2_PLACEMENT_3D('',#548,#434,#435);
#366=AXIS2_PLACEMENT_3D('',#550,#436,#437);
#367=AXIS2_PLACEMENT_3D('',#552,#438,#439);
#368=AXIS2_PLACEMENT_3D('',#553,#440,#441);
#369=AXIS2_PLACEMENT_3D('',#554,#442,#443);
#370=AXIS2_PLACEMENT_3D('',#555,#444,#445);
#371=AXIS2_PLACEMENT_3D('',#558,#446,#447);
#372=AXIS2_PLACEMENT_3D('',#559,#448,#449);
#373=AXIS2_PLACEMENT_3D('',#560,#450,#451);
#374=AXIS2_PLACEMENT_3D('',#563,#452,#453);
#375=AXIS2_PLACEMENT_3D('',#565,#454,#455);
#376=AXIS2_PLACEMENT_3D('',#567,#456,#457);
#377=AXIS2_PLACEMENT_3D('',#568,#458,#459);
#378=AXIS2_PLACEMENT_3D('',#570,#460,#461);
#379=AXIS2_PLACEMENT_3D('',#571,#462,#463);
#380=AXIS2_PLACEMENT_3D('',#572,#464,#465);
#381=AXIS2_PLACEMENT_3D('',#575,#466,#467);
#382=AXIS2_PLACEMENT_3D('',#576,#468,#469);
#383=AXIS2_PLACEMENT_3D('',#577,#470,#471);
#384=AXIS2_PLACEMENT_3D('',#581,#473,#474);
#385=AXIS2_PLACEMENT_3D('',#582,#475,#476);
#386=AXIS2_PLACEMENT_3D('',#583,#477,#478);
#387=AXIS2_PLACEMENT_3D('',#585,#479,#480);
#388=AXIS2_PLACEMENT_3D('',#587,#481,#482);
#389=AXIS2_PLACEMENT_3D('',#589,#483,#484);
#390=AXIS2_PLACEMENT_3D('',#590,#485,#486);
#391=AXIS2_PLACEMENT_3D('',#591,#487,#488);
#392=AXIS2_PLACEMENT_3D('',#593,#490,#491);
#393=AXIS2_PLACEMENT_3D('',#596,#492,#493);
#394=AXIS2_PLACEMENT_3D('',#597,#494,#495);
#395=AXIS2_PLACEMENT_3D('',#598,#496,#497);
#396=AXIS2_PLACEMENT_3D('',#602,#499,#500);
#397=AXIS2_PLACEMENT_3D('',#603,#501,#502);
#398=AXIS2_PLACEMENT_3D('',#604,#503,#504);
#399=AXIS2_PLACEMENT_3D('',#607,#505,#506);
#400=AXIS2_PLACEMENT_3D('',#608,#507,#508);
#401=AXIS2_PLACEMENT_3D('',#609,#509,#510);
#402=AXIS2_PLACEMENT_3D('',#611,#512,#513);
#403=AXIS2_PLACEMENT_3D('',#612,#514,#515);
#404=AXIS2_PLACEMENT_3D('placement',#613,#516,#517);
#405=AXIS2_PLACEMENT_3D('',#614,#518,#519);
#406=AXIS2_PLACEMENT_3D('',#616,#520,#521);
#407=AXIS2_PLACEMENT_3D('',#617,#522,#523);
#408=AXIS2_PLACEMENT_3D('',#618,#524,#525);
#409=AXIS2_PLACEMENT_3D('',#619,#526,#527);
#410=DIRECTION('axis',(0.,0.,1.));
#411=DIRECTION('refdir',(1.,0.,0.));
#412=DIRECTION('axis',(0.,0.,1.));
#413=DIRECTION('refdir',(1.,0.,0.));
#414=DIRECTION('center_axis',(0.,1.,0.));
#415=DIRECTION('ref_axis',(0.,0.,1.));
#416=DIRECTION('center_axis',(0.,-1.,0.));
#417=DIRECTION('ref_axis',(1.,0.,0.));
#418=DIRECTION('center_axis',(-1.,0.,1.22464679914735E-16));
#419=DIRECTION('ref_axis',(-1.22464679914735E-16,0.,-1.));
#420=DIRECTION('center_axis',(0.,1.,0.));
#421=DIRECTION('ref_axis',(1.,0.,0.));
#422=DIRECTION('center_axis',(0.,1.,0.));
#423=DIRECTION('ref_axis',(1.,0.,0.));
#424=DIRECTION('center_axis',(0.,-1.,0.));
#425=DIRECTION('ref_axis',(1.,0.,0.));
#426=DIRECTION('center_axis',(0.,1.,0.));
#427=DIRECTION('ref_axis',(0.,0.,1.));
#428=DIRECTION('center_axis',(0.,1.,0.));
#429=DIRECTION('ref_axis',(1.,0.,0.));
#430=DIRECTION('center_axis',(0.,1.,0.));
#431=DIRECTION('ref_axis',(1.,0.,0.));
#432=DIRECTION('center_axis',(0.,1.,0.));
#433=DIRECTION('ref_axis',(0.,0.,1.));
#434=DIRECTION('center_axis',(0.,-1.,0.));
#435=DIRECTION('ref_axis',(1.,0.,0.));
#436=DIRECTION('center_axis',(-1.,0.,1.22464679914735E-16));
#437=DIRECTION('ref_axis',(-1.22464679914735E-16,0.,-1.));
#438=DIRECTION('center_axis',(0.,1.,0.));
#439=DIRECTION('ref_axis',(1.,0.,0.));
#440=DIRECTION('center_axis',(0.,1.,0.));
#441=DIRECTION('ref_axis',(1.,0.,0.));
#442=DIRECTION('center_axis',(0.,-1.,0.));
#443=DIRECTION('ref_axis',(1.,0.,0.));
#444=DIRECTION('center_axis',(0.,-1.,0.));
#445=DIRECTION('ref_axis',(0.,0.,-1.));
#446=DIRECTION('center_axis',(0.,1.,0.));
#447=DIRECTION('ref_axis',(1.,0.,0.));
#448=DIRECTION('center_axis',(0.,1.,0.));
#449=DIRECTION('ref_axis',(1.,0.,0.));
#450=DIRECTION('center_axis',(0.,1.,0.));
#451=DIRECTION('ref_axis',(0.,0.,1.));
#452=DIRECTION('center_axis',(0.,-1.,0.));
#453=DIRECTION('ref_axis',(1.,0.,0.));
#454=DIRECTION('center_axis',(-1.,0.,1.22464679914735E-16));
#455=DIRECTION('ref_axis',(-1.22464679914735E-16,0.,-1.));
#456=DIRECTION('center_axis',(0.,1.,0.));
#457=DIRECTION('ref_axis',(1.,0.,0.));
#458=DIRECTION('center_axis',(0.,1.,0.));
#459=DIRECTION('ref_axis',(1.,0.,0.));
#460=DIRECTION('center_axis',(0.,-1.,0.));
#461=DIRECTION('ref_axis',(1.,0.,0.));
#462=DIRECTION('center_axis',(0.,-1.,0.));
#463=DIRECTION('ref_axis',(1.,0.,0.));
#464=DIRECTION('center_axis',(0.,1.,0.));
#465=DIRECTION('ref_axis',(0.,0.,1.));
#466=DIRECTION('center_axis',(0.,-1.,0.));
#467=DIRECTION('ref_axis',(1.,0.,0.));
#468=DIRECTION('center_axis',(0.,-1.,0.));
#469=DIRECTION('ref_axis',(1.,0.,0.));
#470=DIRECTION('center_axis',(0.,1.,0.));
#471=DIRECTION('ref_axis',(-1.,0.,0.));
#472=DIRECTION('',(0.,-1.,0.));
#473=DIRECTION('center_axis',(0.,1.,0.));
#474=DIRECTION('ref_axis',(1.,0.,0.));
#475=DIRECTION('center_axis',(0.,1.,0.));
#476=DIRECTION('ref_axis',(1.,0.,0.));
#477=DIRECTION('center_axis',(0.,1.,0.));
#478=DIRECTION('ref_axis',(0.,0.,1.));
#479=DIRECTION('center_axis',(-1.,0.,1.22464679914735E-16));
#480=DIRECTION('ref_axis',(-1.22464679914735E-16,0.,-1.));
#481=DIRECTION('center_axis',(0.,1.,0.));
#482=DIRECTION('ref_axis',(1.,0.,0.));
#483=DIRECTION('center_axis',(0.,1.,0.));
#484=DIRECTION('ref_axis',(1.,0.,0.));
#485=DIRECTION('center_axis',(0.,1.,0.));
#486=DIRECTION('ref_axis',(1.,0.,0.));
#487=DIRECTION('center_axis',(0.,1.,0.));
#488=DIRECTION('ref_axis',(-1.,0.,0.));
#489=DIRECTION('',(0.,-1.,0.));
#490=DIRECTION('center_axis',(0.,1.,0.));
#491=DIRECTION('ref_axis',(0.,0.,1.));
#492=DIRECTION('center_axis',(0.,1.,0.));
#493=DIRECTION('ref_axis',(1.,0.,0.));
#494=DIRECTION('center_axis',(0.,1.,0.));
#495=DIRECTION('ref_axis',(1.,0.,0.));
#496=DIRECTION('center_axis',(0.,1.,0.));
#497=DIRECTION('ref_axis',(-1.,0.,0.));
#498=DIRECTION('',(0.,-1.,0.));
#499=DIRECTION('center_axis',(0.,1.,0.));
#500=DIRECTION('ref_axis',(1.,0.,0.));
#501=DIRECTION('center_axis',(0.,1.,0.));
#502=DIRECTION('ref_axis',(1.,0.,0.));
#503=DIRECTION('center_axis',(0.,-1.,0.));
#504=DIRECTION('ref_axis',(0.,0.,-1.));
#505=DIRECTION('center_axis',(0.,1.,0.));
#506=DIRECTION('ref_axis',(1.,0.,0.));
#507=DIRECTION('center_axis',(0.,1.,0.));
#508=DIRECTION('ref_axis',(1.,0.,0.));
#509=DIRECTION('center_axis',(0.,1.,0.));
#510=DIRECTION('ref_axis',(-1.,0.,0.));
#511=DIRECTION('',(0.,-1.,0.));
#512=DIRECTION('center_axis',(0.,1.,0.));
#513=DIRECTION('ref_axis',(0.,0.,1.));
#514=DIRECTION('center_axis',(-1.,0.,1.22464679914735E-16));
#515=DIRECTION('ref_axis',(-1.22464679914735E-16,0.,-1.));
#516=DIRECTION('axis',(0.,0.,1.));
#517=DIRECTION('refdir',(1.,0.,0.));
#518=DIRECTION('center_axis',(0.,1.,0.));
#519=DIRECTION('ref_axis',(0.,0.,1.));
#520=DIRECTION('center_axis',(-1.,0.,1.22464679914735E-16));
#521=DIRECTION('ref_axis',(-1.22464679914735E-16,0.,-1.));
#522=DIRECTION('center_axis',(0.,-1.,0.));
#523=DIRECTION('ref_axis',(0.,0.,1.));
#524=DIRECTION('',(0.,0.,1.));
#525=DIRECTION('',(1.,0.,0.));
#526=DIRECTION('',(0.,0.,1.));
#527=DIRECTION('',(1.,0.,0.));
#528=CARTESIAN_POINT('',(0.,0.,0.));
#529=CARTESIAN_POINT('',(0.,0.,0.));
#530=CARTESIAN_POINT('Origin',(0.,5.85,0.));
#531=CARTESIAN_POINT('',(-9.82007299399711,5.95,-1.20261209594919E-15));
#532=CARTESIAN_POINT('',(-1.20261209594919E-15,5.95,-9.82007299399711));
#533=CARTESIAN_POINT('Origin',(0.,5.95,0.));
#534=CARTESIAN_POINT('',(-1.21171357797589E-15,5.78309222423147,-9.89439223472055));
#535=CARTESIAN_POINT('Origin',(-1.20261209594919E-15,5.85,-9.82007299399711));
#536=CARTESIAN_POINT('',(-9.89439223472055,5.78309222423147,1.21171357797589E-15));
#537=CARTESIAN_POINT('Origin',(0.,5.78309222423147,0.));
#538=CARTESIAN_POINT('Origin',(0.,5.78309222423147,0.));
#539=CARTESIAN_POINT('Origin',(0.,5.95,0.));
#540=CARTESIAN_POINT('Origin',(-8.5,5.95,0.));
#541=CARTESIAN_POINT('',(-8.5,5.95,0.));
#542=CARTESIAN_POINT('',(8.5,5.95,-1.04094977927525E-15));
#543=CARTESIAN_POINT('Origin',(0.,5.95,0.));
#544=CARTESIAN_POINT('Origin',(0.,5.95,0.));
#545=CARTESIAN_POINT('Origin',(0.,2.15,0.));
#546=CARTESIAN_POINT('',(-9.89439223472054,2.21690777576853,-1.21171357797589E-15));
#547=CARTESIAN_POINT('',(-1.21171357797589E-15,2.21690777576853,-9.89439223472054));
#548=CARTESIAN_POINT('Origin',(0.,2.21690777576853,0.));
#549=CARTESIAN_POINT('',(-1.20261209594919E-15,2.05,-9.82007299399711));
#550=CARTESIAN_POINT('Origin',(-1.20261209594919E-15,2.15,-9.82007299399711));
#551=CARTESIAN_POINT('',(-9.82007299399711,2.05,1.20261209594919E-15));
#552=CARTESIAN_POINT('Origin',(0.,2.05,0.));
#553=CARTESIAN_POINT('Origin',(0.,2.05,0.));
#554=CARTESIAN_POINT('Origin',(0.,2.21690777576853,0.));
#555=CARTESIAN_POINT('Origin',(-10.0584854803773,2.05,0.));
#556=CARTESIAN_POINT('',(-6.,2.05,0.));
#557=CARTESIAN_POINT('',(6.,2.05,-7.34788079488412E-16));
#558=CARTESIAN_POINT('Origin',(0.,2.05,0.));
#559=CARTESIAN_POINT('Origin',(0.,2.05,0.));
#560=CARTESIAN_POINT('Origin',(0.,7.9,0.));
#561=CARTESIAN_POINT('',(-8.,7.9,-9.79717439317883E-16));
#562=CARTESIAN_POINT('',(-9.79717439317883E-16,7.9,-8.));
#563=CARTESIAN_POINT('Origin',(0.,7.9,0.));
#564=CARTESIAN_POINT('',(-9.91963907309356E-16,8.,-8.1));
#565=CARTESIAN_POINT('Origin',(-9.91963907309356E-16,7.9,-8.1));
#566=CARTESIAN_POINT('',(-8.1,8.,9.91963907309356E-16));
#567=CARTESIAN_POINT('Origin',(0.,8.,0.));
#568=CARTESIAN_POINT('Origin',(0.,8.,0.));
#569=CARTESIAN_POINT('',(8.,7.9,-9.79717439317883E-16));
#570=CARTESIAN_POINT('Origin',(0.,7.9,0.));
#571=CARTESIAN_POINT('Origin',(0.,7.9,0.));
#572=CARTESIAN_POINT('Origin',(-8.,8.,0.));
#573=CARTESIAN_POINT('',(-8.4,8.,-1.02870331128378E-15));
#574=CARTESIAN_POINT('',(-1.02870331128378E-15,8.,-8.4));
#575=CARTESIAN_POINT('Origin',(0.,8.,0.));
#576=CARTESIAN_POINT('Origin',(0.,8.,0.));
#577=CARTESIAN_POINT('Origin',(0.,6.75,0.));
#578=CARTESIAN_POINT('',(8.,5.5,-9.79717439317883E-16));
#579=CARTESIAN_POINT('',(8.,6.75,-9.79717439317883E-16));
#580=CARTESIAN_POINT('',(-8.,5.5,0.));
#581=CARTESIAN_POINT('Origin',(0.,5.5,0.));
#582=CARTESIAN_POINT('Origin',(0.,5.5,0.));
#583=CARTESIAN_POINT('Origin',(0.,7.9,0.));
#584=CARTESIAN_POINT('',(-1.04094977927525E-15,7.9,-8.5));
#585=CARTESIAN_POINT('Origin',(-1.02870331128378E-15,7.9,-8.4));
#586=CARTESIAN_POINT('',(-8.5,7.9,1.04094977927525E-15));
#587=CARTESIAN_POINT('Origin',(0.,7.9,0.));
#588=CARTESIAN_POINT('',(8.5,7.9,-1.04094977927525E-15));
#589=CARTESIAN_POINT('Origin',(0.,7.9,0.));
#590=CARTESIAN_POINT('Origin',(0.,7.9,0.));
#591=CARTESIAN_POINT('Origin',(0.,6.975,0.));
#592=CARTESIAN_POINT('',(8.5,6.975,-1.04094977927525E-15));
#593=CARTESIAN_POINT('Origin',(-5.,5.5,0.));
#594=CARTESIAN_POINT('',(-5.,5.5,0.));
#595=CARTESIAN_POINT('',(5.,5.5,-6.12323399573676E-16));
#596=CARTESIAN_POINT('Origin',(0.,5.5,0.));
#597=CARTESIAN_POINT('Origin',(0.,5.5,0.));
#598=CARTESIAN_POINT('Origin',(0.,2.75,0.));
#599=CARTESIAN_POINT('',(5.,0.,-6.12323399573676E-16));
#600=CARTESIAN_POINT('',(5.,2.75,-6.12323399573676E-16));
#601=CARTESIAN_POINT('',(-5.,0.,0.));
#602=CARTESIAN_POINT('Origin',(0.,0.,0.));
#603=CARTESIAN_POINT('Origin',(0.,0.,0.));
#604=CARTESIAN_POINT('Origin',(-6.00000000000001,0.,0.));
#605=CARTESIAN_POINT('',(-6.00000000000001,0.,0.));
#606=CARTESIAN_POINT('',(6.,0.,-7.34788079488412E-16));
#607=CARTESIAN_POINT('Origin',(0.,0.,0.));
#608=CARTESIAN_POINT('Origin',(0.,0.,0.));
#609=CARTESIAN_POINT('Origin',(0.,1.025,0.));
#610=CARTESIAN_POINT('',(6.,1.025,-7.34788079488412E-16));
#611=CARTESIAN_POINT('Origin',(0.,4.,0.));
#612=CARTESIAN_POINT('Origin',(-1.45426807398748E-15,4.,-11.875));
#613=CARTESIAN_POINT('',(0.,0.,0.));
#614=CARTESIAN_POINT('Origin',(0.,0.,0.));
#615=CARTESIAN_POINT('',(-1.12789970201471E-15,3.2636837197277E-16,-9.21));
#616=CARTESIAN_POINT('Origin',(-1.45426807398748E-15,0.,-11.875));
#617=CARTESIAN_POINT('Origin',(0.,-3.2636837197277E-16,0.));
#618=CARTESIAN_POINT('',(0.,0.,0.));
#619=CARTESIAN_POINT('',(0.,4.,0.));
#620=UNCERTAINTY_MEASURE_WITH_UNIT(LENGTH_MEASURE(0.01),#628,
'DISTANCE_ACCURACY_VALUE',
'Maximum model space distance between geometric entities at asserted c
onnectivities');
#621=UNCERTAINTY_MEASURE_WITH_UNIT(LENGTH_MEASURE(0.01),#628,
'DISTANCE_ACCURACY_VALUE',
'Maximum model space distance between geometric entities at asserted c
onnectivities');
#622=UNCERTAINTY_MEASURE_WITH_UNIT(LENGTH_MEASURE(0.01),#628,
'DISTANCE_ACCURACY_VALUE',
'Maximum model space distance between geometric entities at asserted c
onnectivities');
#623=UNCERTAINTY_MEASURE_WITH_UNIT(LENGTH_MEASURE(0.01),#628,
'DISTANCE_ACCURACY_VALUE',
'Maximum model space distance between geometric entities at asserted c
onnectivities');
#624=(
GEOMETRIC_REPRESENTATION_CONTEXT(3)
GLOBAL_UNCERTAINTY_ASSIGNED_CONTEXT((#620))
GLOBAL_UNIT_ASSIGNED_CONTEXT((#628,#631,#630))
REPRESENTATION_CONTEXT('','3D')
);
#625=(
GEOMETRIC_REPRESENTATION_CONTEXT(3)
GLOBAL_UNCERTAINTY_ASSIGNED_CONTEXT((#621))
GLOBAL_UNIT_ASSIGNED_CONTEXT((#628,#631,#630))
REPRESENTATION_CONTEXT('','3D')
);
#626=(
GEOMETRIC_REPRESENTATION_CONTEXT(3)
GLOBAL_UNCERTAINTY_ASSIGNED_CONTEXT((#622))
GLOBAL_UNIT_ASSIGNED_CONTEXT((#628,#631,#630))
REPRESENTATION_CONTEXT('','3D')
);
#627=(
GEOMETRIC_REPRESENTATION_CONTEXT(3)
GLOBAL_UNCERTAINTY_ASSIGNED_CONTEXT((#623))
GLOBAL_UNIT_ASSIGNED_CONTEXT((#628,#631,#630))
REPRESENTATION_CONTEXT('','3D')
);
#628=(
LENGTH_UNIT()
NAMED_UNIT(*)
SI_UNIT(.MILLI.,.METRE.)
);
#629=(
LENGTH_UNIT()
NAMED_UNIT(*)
SI_UNIT(.CENTI.,.METRE.)
);
#630=(
NAMED_UNIT(*)
SI_UNIT($,.STERADIAN.)
SOLID_ANGLE_UNIT()
);
#631=(
NAMED_UNIT(*)
PLANE_ANGLE_UNIT()
SI_UNIT($,.RADIAN.)
);
#632=SHAPE_DEFINITION_REPRESENTATION(#635,#640);
#633=SHAPE_DEFINITION_REPRESENTATION(#636,#641);
#634=SHAPE_DEFINITION_REPRESENTATION(#637,#642);
#635=PRODUCT_DEFINITION_SHAPE('',$,#644);
#636=PRODUCT_DEFINITION_SHAPE('',$,#645);
#637=PRODUCT_DEFINITION_SHAPE('',$,#646);
#638=PRODUCT_DEFINITION_SHAPE($,$,#17);
#639=PRODUCT_DEFINITION_SHAPE($,$,#18);
#640=SHAPE_REPRESENTATION('',(#353,#408,#409),#624);
#641=SHAPE_REPRESENTATION('',(#354),#625);
#642=SHAPE_REPRESENTATION('',(#404),#626);
#643=PRODUCT_DEFINITION_CONTEXT('part definition',#654,'design');
#644=PRODUCT_DEFINITION('FL-CRSV10-16KF','FL-CRSV10-16KF',#647,#643);
#645=PRODUCT_DEFINITION('o ring carrier 10-16','o ring carrier 10-16',#648,
#643);
#646=PRODUCT_DEFINITION('Oring BS312','Oring BS312',#649,#643);
#647=PRODUCT_DEFINITION_FORMATION('',$,#656);
#648=PRODUCT_DEFINITION_FORMATION('',$,#657);
#649=PRODUCT_DEFINITION_FORMATION('',$,#658);
#650=PRODUCT_RELATED_PRODUCT_CATEGORY('FL-CRSV10-16KF','FL-CRSV10-16KF',
(#656));
#651=PRODUCT_RELATED_PRODUCT_CATEGORY('o ring carrier 10-16',
'o ring carrier 10-16',(#657));
#652=PRODUCT_RELATED_PRODUCT_CATEGORY('Oring BS312','Oring BS312',(#658));
#653=APPLICATION_PROTOCOL_DEFINITION('international standard',
'automotive_design',2009,#654);
#654=APPLICATION_CONTEXT(
'Core Data for Automotive Mechanical Design Process');
#655=PRODUCT_CONTEXT('part definition',#654,'mechanical');
#656=PRODUCT('FL-CRSV10-16KF','FL-CRSV10-16KF',$,(#655));
#657=PRODUCT('o ring carrier 10-16','o ring carrier 10-16',$,(#655));
#658=PRODUCT('Oring BS312','Oring BS312',$,(#655));
ENDSEC;
END-ISO-10303-21;
