ISO-10303-21;
HEADER;
/* Generated by software containing ST-Developer
 * from STEP Tools, Inc. (www.steptools.com) 
 */

FILE_DESCRIPTION(
/* description */ (''),
/* implementation_level */ '2;1');

FILE_NAME(
/* name */ 'G:\\FLANGES & FITTINGS\\NW63LF\\Step files\\FL-A63LFB.stp',

/* time_stamp */ '2018-07-09T11:21:50+01:00',
/* author */ ('paul'),
/* organization */ (''),
/* preprocessor_version */ 'ST-DEVELOPER v17',
/* originating_system */ 'Autodesk Inventor 2019',
/* authorisation */ '');

FILE_SCHEMA (('AUTOMOTIVE_DESIGN { 1 0 10303 214 3 1 1 }'));
ENDSEC;

DATA;
#10=MECHANICAL_DESIGN_GEOMETRIC_PRESENTATION_REPRESENTATION('',(#13),#488);
#11=SHAPE_REPRESENTATION_RELATIONSHIP('SRR','None',#495,#12);
#12=ADVANCED_BREP_SHAPE_REPRESENTATION('',(#14),#487);
#13=STYLED_ITEM('',(#504),#14);
#14=MANIFOLD_SOLID_BREP('Solid1',#262);
#15=FACE_BOUND('',#52,.T.);
#16=FACE_BOUND('',#53,.T.);
#17=FACE_BOUND('',#54,.T.);
#18=FACE_BOUND('',#55,.T.);
#19=FACE_BOUND('',#56,.T.);
#20=FACE_BOUND('',#63,.T.);
#21=FACE_BOUND('',#64,.T.);
#22=FACE_BOUND('',#65,.T.);
#23=FACE_BOUND('',#66,.T.);
#24=FACE_BOUND('',#70,.T.);
#25=PLANE('',#289);
#26=PLANE('',#310);
#27=PLANE('',#311);
#28=PLANE('',#317);
#29=CYLINDRICAL_SURFACE('',#286,65.);
#30=CYLINDRICAL_SURFACE('',#300,4.5);
#31=CYLINDRICAL_SURFACE('',#302,4.5);
#32=CYLINDRICAL_SURFACE('',#304,4.5);
#33=CYLINDRICAL_SURFACE('',#306,4.5);
#34=CYLINDRICAL_SURFACE('',#314,30.1);
#35=CYLINDRICAL_SURFACE('',#320,35.);
#36=FACE_OUTER_BOUND('',#49,.T.);
#37=FACE_OUTER_BOUND('',#50,.T.);
#38=FACE_OUTER_BOUND('',#51,.T.);
#39=FACE_OUTER_BOUND('',#57,.T.);
#40=FACE_OUTER_BOUND('',#58,.T.);
#41=FACE_OUTER_BOUND('',#59,.T.);
#42=FACE_OUTER_BOUND('',#60,.T.);
#43=FACE_OUTER_BOUND('',#61,.T.);
#44=FACE_OUTER_BOUND('',#62,.T.);
#45=FACE_OUTER_BOUND('',#67,.T.);
#46=FACE_OUTER_BOUND('',#68,.T.);
#47=FACE_OUTER_BOUND('',#69,.T.);
#48=FACE_OUTER_BOUND('',#71,.T.);
#49=EDGE_LOOP('',(#177,#178,#179,#180,#181));
#50=EDGE_LOOP('',(#182,#183,#184,#185,#186,#187));
#51=EDGE_LOOP('',(#188));
#52=EDGE_LOOP('',(#189,#190));
#53=EDGE_LOOP('',(#191,#192));
#54=EDGE_LOOP('',(#193,#194));
#55=EDGE_LOOP('',(#195,#196));
#56=EDGE_LOOP('',(#197,#198));
#57=EDGE_LOOP('',(#199,#200,#201,#202,#203));
#58=EDGE_LOOP('',(#204,#205,#206,#207,#208));
#59=EDGE_LOOP('',(#209,#210,#211,#212,#213));
#60=EDGE_LOOP('',(#214,#215,#216,#217,#218));
#61=EDGE_LOOP('',(#219,#220,#221,#222,#223));
#62=EDGE_LOOP('',(#224));
#63=EDGE_LOOP('',(#225));
#64=EDGE_LOOP('',(#226));
#65=EDGE_LOOP('',(#227));
#66=EDGE_LOOP('',(#228));
#67=EDGE_LOOP('',(#229,#230));
#68=EDGE_LOOP('',(#231,#232,#233,#234,#235,#236));
#69=EDGE_LOOP('',(#237,#238));
#70=EDGE_LOOP('',(#239,#240));
#71=EDGE_LOOP('',(#241,#242,#243,#244,#245,#246));
#72=LINE('',#417,#81);
#73=LINE('',#424,#82);
#74=LINE('',#448,#83);
#75=LINE('',#452,#84);
#76=LINE('',#456,#85);
#77=LINE('',#460,#86);
#78=LINE('',#465,#87);
#79=LINE('',#477,#88);
#80=LINE('',#484,#89);
#81=VECTOR('',#329,64.75);
#82=VECTOR('',#338,65.);
#83=VECTOR('',#363,4.5);
#84=VECTOR('',#368,4.5);
#85=VECTOR('',#373,4.5);
#86=VECTOR('',#378,4.5);
#87=VECTOR('',#385,64.75);
#88=VECTOR('',#400,30.1);
#89=VECTOR('',#409,35.);
#90=CIRCLE('',#283,65.);
#91=CIRCLE('',#284,65.);
#92=CIRCLE('',#285,64.5);
#93=CIRCLE('',#287,65.);
#94=CIRCLE('',#288,65.);
#95=CIRCLE('',#290,35.);
#96=CIRCLE('',#291,35.);
#97=CIRCLE('',#292,4.5);
#98=CIRCLE('',#293,4.5);
#99=CIRCLE('',#294,4.5);
#100=CIRCLE('',#295,4.5);
#101=CIRCLE('',#296,4.5);
#102=CIRCLE('',#297,4.5);
#103=CIRCLE('',#298,4.5);
#104=CIRCLE('',#299,4.5);
#105=CIRCLE('',#301,4.5);
#106=CIRCLE('',#303,4.5);
#107=CIRCLE('',#305,4.5);
#108=CIRCLE('',#307,4.5);
#109=CIRCLE('',#309,64.5);
#110=CIRCLE('',#312,30.1);
#111=CIRCLE('',#313,30.1);
#112=CIRCLE('',#315,30.1);
#113=CIRCLE('',#316,30.1);
#114=CIRCLE('',#318,35.);
#115=CIRCLE('',#319,35.);
#116=VERTEX_POINT('',#412);
#117=VERTEX_POINT('',#413);
#118=VERTEX_POINT('',#416);
#119=VERTEX_POINT('',#420);
#120=VERTEX_POINT('',#421);
#121=VERTEX_POINT('',#426);
#122=VERTEX_POINT('',#427);
#123=VERTEX_POINT('',#430);
#124=VERTEX_POINT('',#431);
#125=VERTEX_POINT('',#434);
#126=VERTEX_POINT('',#435);
#127=VERTEX_POINT('',#438);
#128=VERTEX_POINT('',#439);
#129=VERTEX_POINT('',#442);
#130=VERTEX_POINT('',#443);
#131=VERTEX_POINT('',#447);
#132=VERTEX_POINT('',#451);
#133=VERTEX_POINT('',#455);
#134=VERTEX_POINT('',#459);
#135=VERTEX_POINT('',#463);
#136=VERTEX_POINT('',#468);
#137=VERTEX_POINT('',#469);
#138=VERTEX_POINT('',#473);
#139=VERTEX_POINT('',#474);
#140=VERTEX_POINT('',#479);
#141=VERTEX_POINT('',#480);
#142=EDGE_CURVE('',#116,#117,#90,.T.);
#143=EDGE_CURVE('',#117,#116,#91,.T.);
#144=EDGE_CURVE('',#116,#118,#72,.T.);
#145=EDGE_CURVE('',#118,#118,#92,.T.);
#146=EDGE_CURVE('',#119,#120,#93,.T.);
#147=EDGE_CURVE('',#120,#119,#94,.T.);
#148=EDGE_CURVE('',#120,#117,#73,.T.);
#149=EDGE_CURVE('',#121,#122,#95,.T.);
#150=EDGE_CURVE('',#122,#121,#96,.T.);
#151=EDGE_CURVE('',#123,#124,#97,.T.);
#152=EDGE_CURVE('',#124,#123,#98,.T.);
#153=EDGE_CURVE('',#125,#126,#99,.T.);
#154=EDGE_CURVE('',#126,#125,#100,.T.);
#155=EDGE_CURVE('',#127,#128,#101,.T.);
#156=EDGE_CURVE('',#128,#127,#102,.T.);
#157=EDGE_CURVE('',#129,#130,#103,.T.);
#158=EDGE_CURVE('',#130,#129,#104,.T.);
#159=EDGE_CURVE('',#130,#131,#74,.T.);
#160=EDGE_CURVE('',#131,#131,#105,.T.);
#161=EDGE_CURVE('',#128,#132,#75,.T.);
#162=EDGE_CURVE('',#132,#132,#106,.T.);
#163=EDGE_CURVE('',#126,#133,#76,.T.);
#164=EDGE_CURVE('',#133,#133,#107,.T.);
#165=EDGE_CURVE('',#124,#134,#77,.T.);
#166=EDGE_CURVE('',#134,#134,#108,.T.);
#167=EDGE_CURVE('',#135,#135,#109,.T.);
#168=EDGE_CURVE('',#135,#119,#78,.T.);
#169=EDGE_CURVE('',#136,#137,#110,.T.);
#170=EDGE_CURVE('',#137,#136,#111,.T.);
#171=EDGE_CURVE('',#138,#139,#112,.T.);
#172=EDGE_CURVE('',#139,#138,#113,.T.);
#173=EDGE_CURVE('',#139,#137,#79,.T.);
#174=EDGE_CURVE('',#140,#141,#114,.T.);
#175=EDGE_CURVE('',#141,#140,#115,.T.);
#176=EDGE_CURVE('',#141,#122,#80,.T.);
#177=ORIENTED_EDGE('',*,*,#142,.T.);
#178=ORIENTED_EDGE('',*,*,#143,.T.);
#179=ORIENTED_EDGE('',*,*,#144,.T.);
#180=ORIENTED_EDGE('',*,*,#145,.T.);
#181=ORIENTED_EDGE('',*,*,#144,.F.);
#182=ORIENTED_EDGE('',*,*,#146,.F.);
#183=ORIENTED_EDGE('',*,*,#147,.F.);
#184=ORIENTED_EDGE('',*,*,#148,.T.);
#185=ORIENTED_EDGE('',*,*,#142,.F.);
#186=ORIENTED_EDGE('',*,*,#143,.F.);
#187=ORIENTED_EDGE('',*,*,#148,.F.);
#188=ORIENTED_EDGE('',*,*,#145,.F.);
#189=ORIENTED_EDGE('',*,*,#149,.T.);
#190=ORIENTED_EDGE('',*,*,#150,.T.);
#191=ORIENTED_EDGE('',*,*,#151,.T.);
#192=ORIENTED_EDGE('',*,*,#152,.T.);
#193=ORIENTED_EDGE('',*,*,#153,.T.);
#194=ORIENTED_EDGE('',*,*,#154,.T.);
#195=ORIENTED_EDGE('',*,*,#155,.T.);
#196=ORIENTED_EDGE('',*,*,#156,.T.);
#197=ORIENTED_EDGE('',*,*,#157,.T.);
#198=ORIENTED_EDGE('',*,*,#158,.T.);
#199=ORIENTED_EDGE('',*,*,#157,.F.);
#200=ORIENTED_EDGE('',*,*,#158,.F.);
#201=ORIENTED_EDGE('',*,*,#159,.T.);
#202=ORIENTED_EDGE('',*,*,#160,.F.);
#203=ORIENTED_EDGE('',*,*,#159,.F.);
#204=ORIENTED_EDGE('',*,*,#155,.F.);
#205=ORIENTED_EDGE('',*,*,#156,.F.);
#206=ORIENTED_EDGE('',*,*,#161,.T.);
#207=ORIENTED_EDGE('',*,*,#162,.F.);
#208=ORIENTED_EDGE('',*,*,#161,.F.);
#209=ORIENTED_EDGE('',*,*,#153,.F.);
#210=ORIENTED_EDGE('',*,*,#154,.F.);
#211=ORIENTED_EDGE('',*,*,#163,.T.);
#212=ORIENTED_EDGE('',*,*,#164,.F.);
#213=ORIENTED_EDGE('',*,*,#163,.F.);
#214=ORIENTED_EDGE('',*,*,#151,.F.);
#215=ORIENTED_EDGE('',*,*,#152,.F.);
#216=ORIENTED_EDGE('',*,*,#165,.T.);
#217=ORIENTED_EDGE('',*,*,#166,.F.);
#218=ORIENTED_EDGE('',*,*,#165,.F.);
#219=ORIENTED_EDGE('',*,*,#167,.T.);
#220=ORIENTED_EDGE('',*,*,#168,.T.);
#221=ORIENTED_EDGE('',*,*,#146,.T.);
#222=ORIENTED_EDGE('',*,*,#147,.T.);
#223=ORIENTED_EDGE('',*,*,#168,.F.);
#224=ORIENTED_EDGE('',*,*,#167,.F.);
#225=ORIENTED_EDGE('',*,*,#160,.T.);
#226=ORIENTED_EDGE('',*,*,#162,.T.);
#227=ORIENTED_EDGE('',*,*,#164,.T.);
#228=ORIENTED_EDGE('',*,*,#166,.T.);
#229=ORIENTED_EDGE('',*,*,#169,.F.);
#230=ORIENTED_EDGE('',*,*,#170,.F.);
#231=ORIENTED_EDGE('',*,*,#171,.F.);
#232=ORIENTED_EDGE('',*,*,#172,.F.);
#233=ORIENTED_EDGE('',*,*,#173,.T.);
#234=ORIENTED_EDGE('',*,*,#170,.T.);
#235=ORIENTED_EDGE('',*,*,#169,.T.);
#236=ORIENTED_EDGE('',*,*,#173,.F.);
#237=ORIENTED_EDGE('',*,*,#174,.F.);
#238=ORIENTED_EDGE('',*,*,#175,.F.);
#239=ORIENTED_EDGE('',*,*,#171,.T.);
#240=ORIENTED_EDGE('',*,*,#172,.T.);
#241=ORIENTED_EDGE('',*,*,#174,.T.);
#242=ORIENTED_EDGE('',*,*,#176,.T.);
#243=ORIENTED_EDGE('',*,*,#149,.F.);
#244=ORIENTED_EDGE('',*,*,#150,.F.);
#245=ORIENTED_EDGE('',*,*,#176,.F.);
#246=ORIENTED_EDGE('',*,*,#175,.T.);
#247=CONICAL_SURFACE('',#282,64.75,0.785398163397428);
#248=CONICAL_SURFACE('',#308,64.75,0.78539816339745);
#249=ADVANCED_FACE('',(#36),#247,.T.);
#250=ADVANCED_FACE('',(#37),#29,.T.);
#251=ADVANCED_FACE('',(#38,#15,#16,#17,#18,#19),#25,.T.);
#252=ADVANCED_FACE('',(#39),#30,.F.);
#253=ADVANCED_FACE('',(#40),#31,.F.);
#254=ADVANCED_FACE('',(#41),#32,.F.);
#255=ADVANCED_FACE('',(#42),#33,.F.);
#256=ADVANCED_FACE('',(#43),#248,.T.);
#257=ADVANCED_FACE('',(#44,#20,#21,#22,#23),#26,.T.);
#258=ADVANCED_FACE('',(#45),#27,.T.);
#259=ADVANCED_FACE('',(#46),#34,.T.);
#260=ADVANCED_FACE('',(#47,#24),#28,.T.);
#261=ADVANCED_FACE('',(#48),#35,.F.);
#262=CLOSED_SHELL('',(#249,#250,#251,#252,#253,#254,#255,#256,#257,#258,
#259,#260,#261));
#263=DERIVED_UNIT_ELEMENT(#265,1.);
#264=DERIVED_UNIT_ELEMENT(#490,3.);
#265=(
MASS_UNIT()
NAMED_UNIT(*)
SI_UNIT($,.GRAM.)
);
#266=DERIVED_UNIT((#263,#264));
#267=MEASURE_REPRESENTATION_ITEM('density measure',
POSITIVE_RATIO_MEASURE(2.7),#266);
#268=PROPERTY_DEFINITION_REPRESENTATION(#273,#270);
#269=PROPERTY_DEFINITION_REPRESENTATION(#274,#271);
#270=REPRESENTATION('material name',(#272),#487);
#271=REPRESENTATION('density',(#267),#487);
#272=DESCRIPTIVE_REPRESENTATION_ITEM('Aluminum 6061','Aluminum 6061');
#273=PROPERTY_DEFINITION('material property','material name',#497);
#274=PROPERTY_DEFINITION('material property','density of part',#497);
#275=DATE_TIME_ROLE('creation_date');
#276=APPLIED_DATE_AND_TIME_ASSIGNMENT(#277,#275,(#497));
#277=DATE_AND_TIME(#278,#279);
#278=CALENDAR_DATE(2014,1,10);
#279=LOCAL_TIME(9,2,29.,#280);
#280=COORDINATED_UNIVERSAL_TIME_OFFSET(0,0,.BEHIND.);
#281=AXIS2_PLACEMENT_3D('placement',#410,#321,#322);
#282=AXIS2_PLACEMENT_3D('',#411,#323,#324);
#283=AXIS2_PLACEMENT_3D('',#414,#325,#326);
#284=AXIS2_PLACEMENT_3D('',#415,#327,#328);
#285=AXIS2_PLACEMENT_3D('',#418,#330,#331);
#286=AXIS2_PLACEMENT_3D('',#419,#332,#333);
#287=AXIS2_PLACEMENT_3D('',#422,#334,#335);
#288=AXIS2_PLACEMENT_3D('',#423,#336,#337);
#289=AXIS2_PLACEMENT_3D('',#425,#339,#340);
#290=AXIS2_PLACEMENT_3D('',#428,#341,#342);
#291=AXIS2_PLACEMENT_3D('',#429,#343,#344);
#292=AXIS2_PLACEMENT_3D('',#432,#345,#346);
#293=AXIS2_PLACEMENT_3D('',#433,#347,#348);
#294=AXIS2_PLACEMENT_3D('',#436,#349,#350);
#295=AXIS2_PLACEMENT_3D('',#437,#351,#352);
#296=AXIS2_PLACEMENT_3D('',#440,#353,#354);
#297=AXIS2_PLACEMENT_3D('',#441,#355,#356);
#298=AXIS2_PLACEMENT_3D('',#444,#357,#358);
#299=AXIS2_PLACEMENT_3D('',#445,#359,#360);
#300=AXIS2_PLACEMENT_3D('',#446,#361,#362);
#301=AXIS2_PLACEMENT_3D('',#449,#364,#365);
#302=AXIS2_PLACEMENT_3D('',#450,#366,#367);
#303=AXIS2_PLACEMENT_3D('',#453,#369,#370);
#304=AXIS2_PLACEMENT_3D('',#454,#371,#372);
#305=AXIS2_PLACEMENT_3D('',#457,#374,#375);
#306=AXIS2_PLACEMENT_3D('',#458,#376,#377);
#307=AXIS2_PLACEMENT_3D('',#461,#379,#380);
#308=AXIS2_PLACEMENT_3D('',#462,#381,#382);
#309=AXIS2_PLACEMENT_3D('',#464,#383,#384);
#310=AXIS2_PLACEMENT_3D('',#466,#386,#387);
#311=AXIS2_PLACEMENT_3D('',#467,#388,#389);
#312=AXIS2_PLACEMENT_3D('',#470,#390,#391);
#313=AXIS2_PLACEMENT_3D('',#471,#392,#393);
#314=AXIS2_PLACEMENT_3D('',#472,#394,#395);
#315=AXIS2_PLACEMENT_3D('',#475,#396,#397);
#316=AXIS2_PLACEMENT_3D('',#476,#398,#399);
#317=AXIS2_PLACEMENT_3D('',#478,#401,#402);
#318=AXIS2_PLACEMENT_3D('',#481,#403,#404);
#319=AXIS2_PLACEMENT_3D('',#482,#405,#406);
#320=AXIS2_PLACEMENT_3D('',#483,#407,#408);
#321=DIRECTION('axis',(0.,0.,1.));
#322=DIRECTION('refdir',(1.,0.,0.));
#323=DIRECTION('center_axis',(0.,1.,0.));
#324=DIRECTION('ref_axis',(1.,0.,0.));
#325=DIRECTION('center_axis',(0.,-1.,0.));
#326=DIRECTION('ref_axis',(1.,0.,0.));
#327=DIRECTION('center_axis',(0.,-1.,0.));
#328=DIRECTION('ref_axis',(1.,0.,0.));
#329=DIRECTION('',(0.707106781186533,-0.707106781186562,-8.65956056235476E-17));
#330=DIRECTION('center_axis',(0.,1.,0.));
#331=DIRECTION('ref_axis',(1.,0.,0.));
#332=DIRECTION('center_axis',(0.,1.,0.));
#333=DIRECTION('ref_axis',(-1.,0.,0.));
#334=DIRECTION('center_axis',(0.,1.,0.));
#335=DIRECTION('ref_axis',(1.,0.,0.));
#336=DIRECTION('center_axis',(0.,1.,0.));
#337=DIRECTION('ref_axis',(1.,0.,0.));
#338=DIRECTION('',(0.,-1.,0.));
#339=DIRECTION('center_axis',(0.,-1.,0.));
#340=DIRECTION('ref_axis',(0.,0.,-1.));
#341=DIRECTION('center_axis',(0.,1.,0.));
#342=DIRECTION('ref_axis',(1.,0.,0.));
#343=DIRECTION('center_axis',(0.,1.,0.));
#344=DIRECTION('ref_axis',(1.,0.,0.));
#345=DIRECTION('center_axis',(0.,1.,0.));
#346=DIRECTION('ref_axis',(1.,0.,0.));
#347=DIRECTION('center_axis',(0.,1.,0.));
#348=DIRECTION('ref_axis',(1.,0.,0.));
#349=DIRECTION('center_axis',(0.,1.,0.));
#350=DIRECTION('ref_axis',(6.12323399573677E-17,0.,-1.));
#351=DIRECTION('center_axis',(0.,1.,0.));
#352=DIRECTION('ref_axis',(6.12323399573677E-17,0.,-1.));
#353=DIRECTION('center_axis',(0.,1.,0.));
#354=DIRECTION('ref_axis',(-1.,0.,-1.22464679914735E-16));
#355=DIRECTION('center_axis',(0.,1.,0.));
#356=DIRECTION('ref_axis',(-1.,0.,-1.22464679914735E-16));
#357=DIRECTION('center_axis',(0.,1.,0.));
#358=DIRECTION('ref_axis',(-1.83697019872103E-16,0.,1.));
#359=DIRECTION('center_axis',(0.,1.,0.));
#360=DIRECTION('ref_axis',(-1.83697019872103E-16,0.,1.));
#361=DIRECTION('center_axis',(0.,-1.,0.));
#362=DIRECTION('ref_axis',(-1.83697019872103E-16,0.,1.));
#363=DIRECTION('',(0.,1.,0.));
#364=DIRECTION('center_axis',(0.,-1.,0.));
#365=DIRECTION('ref_axis',(-1.83697019872103E-16,0.,1.));
#366=DIRECTION('center_axis',(0.,-1.,0.));
#367=DIRECTION('ref_axis',(-1.,0.,-1.22464679914735E-16));
#368=DIRECTION('',(0.,1.,0.));
#369=DIRECTION('center_axis',(0.,-1.,0.));
#370=DIRECTION('ref_axis',(-1.,0.,-1.22464679914735E-16));
#371=DIRECTION('center_axis',(0.,-1.,0.));
#372=DIRECTION('ref_axis',(6.12323399573677E-17,0.,-1.));
#373=DIRECTION('',(0.,1.,0.));
#374=DIRECTION('center_axis',(0.,-1.,0.));
#375=DIRECTION('ref_axis',(6.12323399573677E-17,0.,-1.));
#376=DIRECTION('center_axis',(0.,-1.,0.));
#377=DIRECTION('ref_axis',(1.,0.,0.));
#378=DIRECTION('',(0.,1.,0.));
#379=DIRECTION('center_axis',(0.,-1.,0.));
#380=DIRECTION('ref_axis',(1.,0.,0.));
#381=DIRECTION('center_axis',(0.,-1.,0.));
#382=DIRECTION('ref_axis',(1.,0.,0.));
#383=DIRECTION('center_axis',(0.,-1.,0.));
#384=DIRECTION('ref_axis',(1.,0.,0.));
#385=DIRECTION('',(-0.707106781186549,-0.707106781186546,8.65956056235495E-17));
#386=DIRECTION('center_axis',(0.,1.,0.));
#387=DIRECTION('ref_axis',(0.,0.,1.));
#388=DIRECTION('center_axis',(0.,-1.,0.));
#389=DIRECTION('ref_axis',(0.,0.,-1.));
#390=DIRECTION('center_axis',(0.,1.,0.));
#391=DIRECTION('ref_axis',(1.,0.,0.));
#392=DIRECTION('center_axis',(0.,1.,0.));
#393=DIRECTION('ref_axis',(1.,0.,0.));
#394=DIRECTION('center_axis',(0.,1.,0.));
#395=DIRECTION('ref_axis',(-1.,0.,0.));
#396=DIRECTION('center_axis',(0.,1.,0.));
#397=DIRECTION('ref_axis',(1.,0.,0.));
#398=DIRECTION('center_axis',(0.,1.,0.));
#399=DIRECTION('ref_axis',(1.,0.,0.));
#400=DIRECTION('',(0.,-1.,0.));
#401=DIRECTION('center_axis',(0.,-1.,0.));
#402=DIRECTION('ref_axis',(0.,0.,-1.));
#403=DIRECTION('center_axis',(0.,1.,0.));
#404=DIRECTION('ref_axis',(1.,0.,0.));
#405=DIRECTION('center_axis',(0.,1.,0.));
#406=DIRECTION('ref_axis',(1.,0.,0.));
#407=DIRECTION('center_axis',(0.,1.,0.));
#408=DIRECTION('ref_axis',(-1.,0.,0.));
#409=DIRECTION('',(0.,-1.,0.));
#410=CARTESIAN_POINT('',(0.,0.,0.));
#411=CARTESIAN_POINT('Origin',(0.,0.25,0.));
#412=CARTESIAN_POINT('',(-65.,0.5,-7.9602041944578E-15));
#413=CARTESIAN_POINT('',(65.,0.5,-7.9602041944578E-15));
#414=CARTESIAN_POINT('Origin',(0.,0.5,0.));
#415=CARTESIAN_POINT('Origin',(0.,0.5,0.));
#416=CARTESIAN_POINT('',(-64.5,0.,7.89897185450043E-15));
#417=CARTESIAN_POINT('',(-64.75,0.25,7.92958802447912E-15));
#418=CARTESIAN_POINT('Origin',(0.,0.,0.));
#419=CARTESIAN_POINT('Origin',(0.,5.99999999999999,0.));
#420=CARTESIAN_POINT('',(-65.,11.5,7.9602041944578E-15));
#421=CARTESIAN_POINT('',(65.,11.5,-7.9602041944578E-15));
#422=CARTESIAN_POINT('Origin',(0.,11.5,0.));
#423=CARTESIAN_POINT('Origin',(0.,11.5,0.));
#424=CARTESIAN_POINT('',(65.,5.99999999999999,-7.9602041944578E-15));
#425=CARTESIAN_POINT('Origin',(-65.,0.,0.));
#426=CARTESIAN_POINT('',(-35.,0.,0.));
#427=CARTESIAN_POINT('',(35.,0.,-4.28626379701574E-15));
#428=CARTESIAN_POINT('Origin',(0.,0.,0.));
#429=CARTESIAN_POINT('Origin',(0.,0.,0.));
#430=CARTESIAN_POINT('',(-50.5,0.,0.));
#431=CARTESIAN_POINT('',(-59.5,0.,-5.51091059616309E-16));
#432=CARTESIAN_POINT('Origin',(-55.,0.,0.));
#433=CARTESIAN_POINT('Origin',(-55.,0.,0.));
#434=CARTESIAN_POINT('',(-3.09223316784707E-15,0.,50.5));
#435=CARTESIAN_POINT('',(-4.19441528707969E-15,0.,59.5));
#436=CARTESIAN_POINT('Origin',(-3.36777869765522E-15,0.,55.));
#437=CARTESIAN_POINT('Origin',(-3.36777869765522E-15,0.,55.));
#438=CARTESIAN_POINT('',(50.5,0.,6.18446633569413E-15));
#439=CARTESIAN_POINT('',(59.5,0.,7.83773951454306E-15));
#440=CARTESIAN_POINT('Origin',(55.,0.,6.73555739531044E-15));
#441=CARTESIAN_POINT('Origin',(55.,0.,6.73555739531044E-15));
#442=CARTESIAN_POINT('',(9.2766995035412E-15,0.,-50.5));
#443=CARTESIAN_POINT('',(1.14810637420064E-14,0.,-59.5));
#444=CARTESIAN_POINT('Origin',(1.01033360929657E-14,0.,-55.));
#445=CARTESIAN_POINT('Origin',(1.01033360929657E-14,0.,-55.));
#446=CARTESIAN_POINT('Origin',(1.01033360929657E-14,184.238975246825,-55.));
#447=CARTESIAN_POINT('',(1.14810637420064E-14,12.,-59.5));
#448=CARTESIAN_POINT('',(1.14810637420064E-14,184.238975246825,-59.5));
#449=CARTESIAN_POINT('Origin',(1.01033360929657E-14,12.,-55.));
#450=CARTESIAN_POINT('Origin',(55.,184.238975246825,6.73555739531044E-15));
#451=CARTESIAN_POINT('',(59.5,12.,7.83773951454306E-15));
#452=CARTESIAN_POINT('',(59.5,184.238975246825,7.83773951454306E-15));
#453=CARTESIAN_POINT('Origin',(55.,12.,6.73555739531044E-15));
#454=CARTESIAN_POINT('Origin',(-3.36777869765522E-15,184.238975246825,55.));
#455=CARTESIAN_POINT('',(-4.19441528707969E-15,12.,59.5));
#456=CARTESIAN_POINT('',(-4.19441528707969E-15,184.238975246825,59.5));
#457=CARTESIAN_POINT('Origin',(-3.36777869765522E-15,12.,55.));
#458=CARTESIAN_POINT('Origin',(-55.,184.238975246825,0.));
#459=CARTESIAN_POINT('',(-59.5,12.,-5.51091059616309E-16));
#460=CARTESIAN_POINT('',(-59.5,184.238975246825,-5.51091059616309E-16));
#461=CARTESIAN_POINT('Origin',(-55.,12.,0.));
#462=CARTESIAN_POINT('Origin',(0.,11.75,0.));
#463=CARTESIAN_POINT('',(-64.5,12.,-7.89897185450043E-15));
#464=CARTESIAN_POINT('Origin',(0.,12.,0.));
#465=CARTESIAN_POINT('',(-64.75,11.75,7.92958802447911E-15));
#466=CARTESIAN_POINT('Origin',(0.,12.,0.));
#467=CARTESIAN_POINT('Origin',(-30.1,0.,0.));
#468=CARTESIAN_POINT('',(-30.1,0.,0.));
#469=CARTESIAN_POINT('',(30.1,0.,-3.68618686543353E-15));
#470=CARTESIAN_POINT('Origin',(0.,0.,0.));
#471=CARTESIAN_POINT('Origin',(0.,0.,0.));
#472=CARTESIAN_POINT('Origin',(0.,2.3,0.));
#473=CARTESIAN_POINT('',(-30.1,4.6,0.));
#474=CARTESIAN_POINT('',(30.1,4.6,-3.68618686543353E-15));
#475=CARTESIAN_POINT('Origin',(0.,4.6,0.));
#476=CARTESIAN_POINT('Origin',(0.,4.6,0.));
#477=CARTESIAN_POINT('',(30.1,2.3,-3.68618686543353E-15));
#478=CARTESIAN_POINT('Origin',(-35.,4.6,0.));
#479=CARTESIAN_POINT('',(-35.,4.6,0.));
#480=CARTESIAN_POINT('',(35.,4.6,-4.28626379701574E-15));
#481=CARTESIAN_POINT('Origin',(0.,4.6,0.));
#482=CARTESIAN_POINT('Origin',(0.,4.6,0.));
#483=CARTESIAN_POINT('Origin',(0.,2.3,0.));
#484=CARTESIAN_POINT('',(35.,2.3,-4.28626379701574E-15));
#485=UNCERTAINTY_MEASURE_WITH_UNIT(LENGTH_MEASURE(0.01),#489,
'DISTANCE_ACCURACY_VALUE',
'Maximum model space distance between geometric entities at asserted c
onnectivities');
#486=UNCERTAINTY_MEASURE_WITH_UNIT(LENGTH_MEASURE(0.01),#489,
'DISTANCE_ACCURACY_VALUE',
'Maximum model space distance between geometric entities at asserted c
onnectivities');
#487=(
GEOMETRIC_REPRESENTATION_CONTEXT(3)
GLOBAL_UNCERTAINTY_ASSIGNED_CONTEXT((#485))
GLOBAL_UNIT_ASSIGNED_CONTEXT((#489,#492,#491))
REPRESENTATION_CONTEXT('','3D')
);
#488=(
GEOMETRIC_REPRESENTATION_CONTEXT(3)
GLOBAL_UNCERTAINTY_ASSIGNED_CONTEXT((#486))
GLOBAL_UNIT_ASSIGNED_CONTEXT((#489,#492,#491))
REPRESENTATION_CONTEXT('','3D')
);
#489=(
LENGTH_UNIT()
NAMED_UNIT(*)
SI_UNIT(.MILLI.,.METRE.)
);
#490=(
LENGTH_UNIT()
NAMED_UNIT(*)
SI_UNIT(.CENTI.,.METRE.)
);
#491=(
NAMED_UNIT(*)
SI_UNIT($,.STERADIAN.)
SOLID_ANGLE_UNIT()
);
#492=(
NAMED_UNIT(*)
PLANE_ANGLE_UNIT()
SI_UNIT($,.RADIAN.)
);
#493=SHAPE_DEFINITION_REPRESENTATION(#494,#495);
#494=PRODUCT_DEFINITION_SHAPE('',$,#497);
#495=SHAPE_REPRESENTATION('',(#281),#487);
#496=PRODUCT_DEFINITION_CONTEXT('part definition',#501,'design');
#497=PRODUCT_DEFINITION('FL-A63LFB','FL-A63LFB',#498,#496);
#498=PRODUCT_DEFINITION_FORMATION('',$,#503);
#499=PRODUCT_RELATED_PRODUCT_CATEGORY('FL-A63LFB','FL-A63LFB',(#503));
#500=APPLICATION_PROTOCOL_DEFINITION('international standard',
'automotive_design',2009,#501);
#501=APPLICATION_CONTEXT(
'Core Data for Automotive Mechanical Design Process');
#502=PRODUCT_CONTEXT('part definition',#501,'mechanical');
#503=PRODUCT('FL-A63LFB','FL-A63LFB',$,(#502));
#504=PRESENTATION_STYLE_ASSIGNMENT((#505));
#505=SURFACE_STYLE_USAGE(.BOTH.,#506);
#506=SURFACE_SIDE_STYLE('',(#507));
#507=SURFACE_STYLE_FILL_AREA(#508);
#508=FILL_AREA_STYLE('',(#509));
#509=FILL_AREA_STYLE_COLOUR('',#510);
#510=COLOUR_RGB('',0.996078431372549,0.996078431372549,1.);
ENDSEC;
END-ISO-10303-21;
