ISO-10303-21;
HEADER;
/* Generated by software containing ST-Developer
 * from STEP Tools, Inc. (www.steptools.com) 
 */

FILE_DESCRIPTION(
/* description */ (''),
/* implementation_level */ '2;1');

FILE_NAME(
/* name */ 'G:\\FLANGES & FITTINGS\\NW200LF\\Step files\\FL-A200LF.stp',

/* time_stamp */ '2018-07-12T09:55:28+01:00',
/* author */ ('paul'),
/* organization */ (''),
/* preprocessor_version */ 'ST-DEVELOPER v17',
/* originating_system */ 'Autodesk Inventor 2019',
/* authorisation */ '');

FILE_SCHEMA (('AUTOMOTIVE_DESIGN { 1 0 10303 214 3 1 1 }'));
ENDSEC;

DATA;
#10=MECHANICAL_DESIGN_GEOMETRIC_PRESENTATION_REPRESENTATION('',(#13),#637);
#11=SHAPE_REPRESENTATION_RELATIONSHIP('SRR','None',#644,#12);
#12=ADVANCED_BREP_SHAPE_REPRESENTATION('',(#14),#636);
#13=STYLED_ITEM('',(#653),#14);
#14=MANIFOLD_SOLID_BREP('Solid1',#329);
#15=CONICAL_SURFACE('',#379,119.75,0.785398163397455);
#16=CONICAL_SURFACE('',#389,119.75,0.785398163397455);
#17=FACE_BOUND('',#71,.T.);
#18=FACE_BOUND('',#74,.T.);
#19=FACE_BOUND('',#82,.T.);
#20=FACE_BOUND('',#88,.T.);
#21=PLANE('',#358);
#22=PLANE('',#365);
#23=PLANE('',#376);
#24=PLANE('',#386);
#25=PLANE('',#400);
#26=PLANE('',#406);
#27=LINE('',#546,#35);
#28=LINE('',#579,#36);
#29=LINE('',#587,#37);
#30=LINE('',#593,#38);
#31=LINE('',#607,#39);
#32=LINE('',#613,#40);
#33=LINE('',#618,#41);
#34=LINE('',#632,#42);
#35=VECTOR('',#423,106.5);
#36=VECTOR('',#464,101.75);
#37=VECTOR('',#475,119.75);
#38=VECTOR('',#482,120.);
#39=VECTOR('',#499,119.75);
#40=VECTOR('',#506,120.);
#41=VECTOR('',#513,117.5);
#42=VECTOR('',#530,109.15);
#43=CYLINDRICAL_SURFACE('',#355,106.5);
#44=CYLINDRICAL_SURFACE('',#373,101.75);
#45=CYLINDRICAL_SURFACE('',#383,120.);
#46=CYLINDRICAL_SURFACE('',#392,120.);
#47=CYLINDRICAL_SURFACE('',#397,117.5);
#48=CYLINDRICAL_SURFACE('',#403,109.15);
#49=FACE_OUTER_BOUND('',#68,.T.);
#50=FACE_OUTER_BOUND('',#69,.T.);
#51=FACE_OUTER_BOUND('',#70,.T.);
#52=FACE_OUTER_BOUND('',#72,.T.);
#53=FACE_OUTER_BOUND('',#73,.T.);
#54=FACE_OUTER_BOUND('',#75,.T.);
#55=FACE_OUTER_BOUND('',#76,.T.);
#56=FACE_OUTER_BOUND('',#77,.T.);
#57=FACE_OUTER_BOUND('',#78,.T.);
#58=FACE_OUTER_BOUND('',#79,.T.);
#59=FACE_OUTER_BOUND('',#80,.T.);
#60=FACE_OUTER_BOUND('',#81,.T.);
#61=FACE_OUTER_BOUND('',#83,.T.);
#62=FACE_OUTER_BOUND('',#84,.T.);
#63=FACE_OUTER_BOUND('',#85,.T.);
#64=FACE_OUTER_BOUND('',#86,.T.);
#65=FACE_OUTER_BOUND('',#87,.T.);
#66=FACE_OUTER_BOUND('',#89,.T.);
#67=FACE_OUTER_BOUND('',#90,.T.);
#68=EDGE_LOOP('',(#211,#212,#213,#214,#215,#216));
#69=EDGE_LOOP('',(#217,#218,#219,#220,#221,#222));
#70=EDGE_LOOP('',(#223,#224));
#71=EDGE_LOOP('',(#225,#226));
#72=EDGE_LOOP('',(#227,#228,#229,#230,#231,#232));
#73=EDGE_LOOP('',(#233));
#74=EDGE_LOOP('',(#234,#235));
#75=EDGE_LOOP('',(#236,#237,#238,#239,#240,#241));
#76=EDGE_LOOP('',(#242,#243,#244,#245,#246,#247));
#77=EDGE_LOOP('',(#248,#249));
#78=EDGE_LOOP('',(#250,#251,#252,#253,#254,#255));
#79=EDGE_LOOP('',(#256,#257,#258,#259,#260));
#80=EDGE_LOOP('',(#261,#262,#263,#264,#265,#266));
#81=EDGE_LOOP('',(#267));
#82=EDGE_LOOP('',(#268,#269));
#83=EDGE_LOOP('',(#270,#271,#272,#273,#274));
#84=EDGE_LOOP('',(#275,#276,#277,#278,#279,#280));
#85=EDGE_LOOP('',(#281,#282,#283,#284,#285,#286));
#86=EDGE_LOOP('',(#287,#288,#289,#290,#291,#292));
#87=EDGE_LOOP('',(#293,#294));
#88=EDGE_LOOP('',(#295,#296));
#89=EDGE_LOOP('',(#297,#298,#299,#300,#301,#302));
#90=EDGE_LOOP('',(#303,#304));
#91=CIRCLE('',#350,106.119);
#92=CIRCLE('',#351,0.381);
#93=CIRCLE('',#352,106.5);
#94=CIRCLE('',#353,106.5);
#95=CIRCLE('',#354,106.119);
#96=CIRCLE('',#356,106.5);
#97=CIRCLE('',#357,106.5);
#98=CIRCLE('',#359,102.131);
#99=CIRCLE('',#360,102.131);
#100=CIRCLE('',#362,106.881);
#101=CIRCLE('',#363,0.381);
#102=CIRCLE('',#364,106.881);
#103=CIRCLE('',#366,119.5);
#104=CIRCLE('',#368,101.75);
#105=CIRCLE('',#369,0.381);
#106=CIRCLE('',#370,101.369);
#107=CIRCLE('',#371,101.369);
#108=CIRCLE('',#372,101.75);
#109=CIRCLE('',#374,101.75);
#110=CIRCLE('',#375,101.75);
#111=CIRCLE('',#378,0.381);
#112=CIRCLE('',#380,119.5);
#113=CIRCLE('',#381,120.);
#114=CIRCLE('',#382,120.);
#115=CIRCLE('',#384,120.);
#116=CIRCLE('',#385,120.);
#117=CIRCLE('',#387,117.5);
#118=CIRCLE('',#388,117.5);
#119=CIRCLE('',#390,120.);
#120=CIRCLE('',#391,120.);
#121=CIRCLE('',#393,120.);
#122=CIRCLE('',#394,120.);
#123=CIRCLE('',#396,2.5);
#124=CIRCLE('',#398,117.5);
#125=CIRCLE('',#399,117.5);
#126=CIRCLE('',#401,109.15);
#127=CIRCLE('',#402,109.15);
#128=CIRCLE('',#404,109.15);
#129=CIRCLE('',#405,109.15);
#130=VERTEX_POINT('',#535);
#131=VERTEX_POINT('',#536);
#132=VERTEX_POINT('',#538);
#133=VERTEX_POINT('',#540);
#134=VERTEX_POINT('',#545);
#135=VERTEX_POINT('',#547);
#136=VERTEX_POINT('',#551);
#137=VERTEX_POINT('',#552);
#138=VERTEX_POINT('',#556);
#139=VERTEX_POINT('',#557);
#140=VERTEX_POINT('',#562);
#141=VERTEX_POINT('',#565);
#142=VERTEX_POINT('',#566);
#143=VERTEX_POINT('',#568);
#144=VERTEX_POINT('',#570);
#145=VERTEX_POINT('',#575);
#146=VERTEX_POINT('',#576);
#147=VERTEX_POINT('',#584);
#148=VERTEX_POINT('',#586);
#149=VERTEX_POINT('',#588);
#150=VERTEX_POINT('',#592);
#151=VERTEX_POINT('',#594);
#152=VERTEX_POINT('',#598);
#153=VERTEX_POINT('',#599);
#154=VERTEX_POINT('',#603);
#155=VERTEX_POINT('',#604);
#156=VERTEX_POINT('',#609);
#157=VERTEX_POINT('',#610);
#158=VERTEX_POINT('',#617);
#159=VERTEX_POINT('',#619);
#160=VERTEX_POINT('',#623);
#161=VERTEX_POINT('',#624);
#162=VERTEX_POINT('',#628);
#163=VERTEX_POINT('',#629);
#164=EDGE_CURVE('',#130,#131,#91,.T.);
#165=EDGE_CURVE('',#131,#132,#92,.T.);
#166=EDGE_CURVE('',#132,#133,#93,.T.);
#167=EDGE_CURVE('',#133,#132,#94,.T.);
#168=EDGE_CURVE('',#131,#130,#95,.T.);
#169=EDGE_CURVE('',#132,#134,#27,.T.);
#170=EDGE_CURVE('',#135,#134,#96,.T.);
#171=EDGE_CURVE('',#134,#135,#97,.T.);
#172=EDGE_CURVE('',#136,#137,#98,.T.);
#173=EDGE_CURVE('',#137,#136,#99,.T.);
#174=EDGE_CURVE('',#138,#139,#100,.T.);
#175=EDGE_CURVE('',#139,#134,#101,.T.);
#176=EDGE_CURVE('',#139,#138,#102,.T.);
#177=EDGE_CURVE('',#140,#140,#103,.T.);
#178=EDGE_CURVE('',#141,#142,#104,.T.);
#179=EDGE_CURVE('',#142,#143,#105,.T.);
#180=EDGE_CURVE('',#143,#144,#106,.T.);
#181=EDGE_CURVE('',#144,#143,#107,.T.);
#182=EDGE_CURVE('',#142,#141,#108,.T.);
#183=EDGE_CURVE('',#145,#146,#109,.T.);
#184=EDGE_CURVE('',#146,#145,#110,.T.);
#185=EDGE_CURVE('',#146,#142,#28,.T.);
#186=EDGE_CURVE('',#146,#137,#111,.T.);
#187=EDGE_CURVE('',#147,#147,#112,.T.);
#188=EDGE_CURVE('',#147,#148,#29,.T.);
#189=EDGE_CURVE('',#148,#149,#113,.T.);
#190=EDGE_CURVE('',#149,#148,#114,.T.);
#191=EDGE_CURVE('',#149,#150,#30,.T.);
#192=EDGE_CURVE('',#150,#151,#115,.T.);
#193=EDGE_CURVE('',#151,#150,#116,.T.);
#194=EDGE_CURVE('',#152,#153,#117,.T.);
#195=EDGE_CURVE('',#153,#152,#118,.T.);
#196=EDGE_CURVE('',#154,#155,#119,.T.);
#197=EDGE_CURVE('',#155,#154,#120,.T.);
#198=EDGE_CURVE('',#154,#140,#31,.T.);
#199=EDGE_CURVE('',#156,#157,#121,.T.);
#200=EDGE_CURVE('',#157,#156,#122,.T.);
#201=EDGE_CURVE('',#157,#155,#32,.T.);
#202=EDGE_CURVE('',#157,#150,#123,.T.);
#203=EDGE_CURVE('',#153,#158,#33,.T.);
#204=EDGE_CURVE('',#159,#158,#124,.T.);
#205=EDGE_CURVE('',#158,#159,#125,.T.);
#206=EDGE_CURVE('',#160,#161,#126,.T.);
#207=EDGE_CURVE('',#161,#160,#127,.T.);
#208=EDGE_CURVE('',#162,#163,#128,.T.);
#209=EDGE_CURVE('',#163,#162,#129,.T.);
#210=EDGE_CURVE('',#163,#161,#34,.T.);
#211=ORIENTED_EDGE('',*,*,#164,.T.);
#212=ORIENTED_EDGE('',*,*,#165,.T.);
#213=ORIENTED_EDGE('',*,*,#166,.T.);
#214=ORIENTED_EDGE('',*,*,#167,.T.);
#215=ORIENTED_EDGE('',*,*,#165,.F.);
#216=ORIENTED_EDGE('',*,*,#168,.T.);
#217=ORIENTED_EDGE('',*,*,#167,.F.);
#218=ORIENTED_EDGE('',*,*,#166,.F.);
#219=ORIENTED_EDGE('',*,*,#169,.T.);
#220=ORIENTED_EDGE('',*,*,#170,.F.);
#221=ORIENTED_EDGE('',*,*,#171,.F.);
#222=ORIENTED_EDGE('',*,*,#169,.F.);
#223=ORIENTED_EDGE('',*,*,#164,.F.);
#224=ORIENTED_EDGE('',*,*,#168,.F.);
#225=ORIENTED_EDGE('',*,*,#172,.F.);
#226=ORIENTED_EDGE('',*,*,#173,.F.);
#227=ORIENTED_EDGE('',*,*,#174,.T.);
#228=ORIENTED_EDGE('',*,*,#175,.T.);
#229=ORIENTED_EDGE('',*,*,#171,.T.);
#230=ORIENTED_EDGE('',*,*,#170,.T.);
#231=ORIENTED_EDGE('',*,*,#175,.F.);
#232=ORIENTED_EDGE('',*,*,#176,.T.);
#233=ORIENTED_EDGE('',*,*,#177,.F.);
#234=ORIENTED_EDGE('',*,*,#174,.F.);
#235=ORIENTED_EDGE('',*,*,#176,.F.);
#236=ORIENTED_EDGE('',*,*,#178,.T.);
#237=ORIENTED_EDGE('',*,*,#179,.T.);
#238=ORIENTED_EDGE('',*,*,#180,.T.);
#239=ORIENTED_EDGE('',*,*,#181,.T.);
#240=ORIENTED_EDGE('',*,*,#179,.F.);
#241=ORIENTED_EDGE('',*,*,#182,.T.);
#242=ORIENTED_EDGE('',*,*,#183,.F.);
#243=ORIENTED_EDGE('',*,*,#184,.F.);
#244=ORIENTED_EDGE('',*,*,#185,.T.);
#245=ORIENTED_EDGE('',*,*,#178,.F.);
#246=ORIENTED_EDGE('',*,*,#182,.F.);
#247=ORIENTED_EDGE('',*,*,#185,.F.);
#248=ORIENTED_EDGE('',*,*,#181,.F.);
#249=ORIENTED_EDGE('',*,*,#180,.F.);
#250=ORIENTED_EDGE('',*,*,#183,.T.);
#251=ORIENTED_EDGE('',*,*,#186,.T.);
#252=ORIENTED_EDGE('',*,*,#173,.T.);
#253=ORIENTED_EDGE('',*,*,#172,.T.);
#254=ORIENTED_EDGE('',*,*,#186,.F.);
#255=ORIENTED_EDGE('',*,*,#184,.T.);
#256=ORIENTED_EDGE('',*,*,#187,.T.);
#257=ORIENTED_EDGE('',*,*,#188,.T.);
#258=ORIENTED_EDGE('',*,*,#189,.T.);
#259=ORIENTED_EDGE('',*,*,#190,.T.);
#260=ORIENTED_EDGE('',*,*,#188,.F.);
#261=ORIENTED_EDGE('',*,*,#189,.F.);
#262=ORIENTED_EDGE('',*,*,#190,.F.);
#263=ORIENTED_EDGE('',*,*,#191,.T.);
#264=ORIENTED_EDGE('',*,*,#192,.T.);
#265=ORIENTED_EDGE('',*,*,#193,.T.);
#266=ORIENTED_EDGE('',*,*,#191,.F.);
#267=ORIENTED_EDGE('',*,*,#187,.F.);
#268=ORIENTED_EDGE('',*,*,#194,.F.);
#269=ORIENTED_EDGE('',*,*,#195,.F.);
#270=ORIENTED_EDGE('',*,*,#196,.T.);
#271=ORIENTED_EDGE('',*,*,#197,.T.);
#272=ORIENTED_EDGE('',*,*,#198,.T.);
#273=ORIENTED_EDGE('',*,*,#177,.T.);
#274=ORIENTED_EDGE('',*,*,#198,.F.);
#275=ORIENTED_EDGE('',*,*,#199,.F.);
#276=ORIENTED_EDGE('',*,*,#200,.F.);
#277=ORIENTED_EDGE('',*,*,#201,.T.);
#278=ORIENTED_EDGE('',*,*,#196,.F.);
#279=ORIENTED_EDGE('',*,*,#197,.F.);
#280=ORIENTED_EDGE('',*,*,#201,.F.);
#281=ORIENTED_EDGE('',*,*,#199,.T.);
#282=ORIENTED_EDGE('',*,*,#202,.T.);
#283=ORIENTED_EDGE('',*,*,#193,.F.);
#284=ORIENTED_EDGE('',*,*,#192,.F.);
#285=ORIENTED_EDGE('',*,*,#202,.F.);
#286=ORIENTED_EDGE('',*,*,#200,.T.);
#287=ORIENTED_EDGE('',*,*,#194,.T.);
#288=ORIENTED_EDGE('',*,*,#203,.T.);
#289=ORIENTED_EDGE('',*,*,#204,.F.);
#290=ORIENTED_EDGE('',*,*,#205,.F.);
#291=ORIENTED_EDGE('',*,*,#203,.F.);
#292=ORIENTED_EDGE('',*,*,#195,.T.);
#293=ORIENTED_EDGE('',*,*,#204,.T.);
#294=ORIENTED_EDGE('',*,*,#205,.T.);
#295=ORIENTED_EDGE('',*,*,#206,.F.);
#296=ORIENTED_EDGE('',*,*,#207,.F.);
#297=ORIENTED_EDGE('',*,*,#208,.F.);
#298=ORIENTED_EDGE('',*,*,#209,.F.);
#299=ORIENTED_EDGE('',*,*,#210,.T.);
#300=ORIENTED_EDGE('',*,*,#207,.T.);
#301=ORIENTED_EDGE('',*,*,#206,.T.);
#302=ORIENTED_EDGE('',*,*,#210,.F.);
#303=ORIENTED_EDGE('',*,*,#208,.T.);
#304=ORIENTED_EDGE('',*,*,#209,.T.);
#305=TOROIDAL_SURFACE('',#349,106.119,0.381);
#306=TOROIDAL_SURFACE('',#361,106.881,0.381);
#307=TOROIDAL_SURFACE('',#367,101.369,0.381);
#308=TOROIDAL_SURFACE('',#377,102.131,0.381);
#309=TOROIDAL_SURFACE('',#395,120.,2.5);
#310=ADVANCED_FACE('',(#49),#305,.F.);
#311=ADVANCED_FACE('',(#50),#43,.F.);
#312=ADVANCED_FACE('',(#51,#17),#21,.T.);
#313=ADVANCED_FACE('',(#52),#306,.T.);
#314=ADVANCED_FACE('',(#53,#18),#22,.T.);
#315=ADVANCED_FACE('',(#54),#307,.T.);
#316=ADVANCED_FACE('',(#55),#44,.T.);
#317=ADVANCED_FACE('',(#56),#23,.T.);
#318=ADVANCED_FACE('',(#57),#308,.F.);
#319=ADVANCED_FACE('',(#58),#15,.T.);
#320=ADVANCED_FACE('',(#59),#45,.T.);
#321=ADVANCED_FACE('',(#60,#19),#24,.T.);
#322=ADVANCED_FACE('',(#61),#16,.T.);
#323=ADVANCED_FACE('',(#62),#46,.T.);
#324=ADVANCED_FACE('',(#63),#309,.F.);
#325=ADVANCED_FACE('',(#64),#47,.F.);
#326=ADVANCED_FACE('',(#65,#20),#25,.T.);
#327=ADVANCED_FACE('',(#66),#48,.T.);
#328=ADVANCED_FACE('',(#67),#26,.T.);
#329=CLOSED_SHELL('',(#310,#311,#312,#313,#314,#315,#316,#317,#318,#319,
#320,#321,#322,#323,#324,#325,#326,#327,#328));
#330=DERIVED_UNIT_ELEMENT(#332,1.);
#331=DERIVED_UNIT_ELEMENT(#639,3.);
#332=(
MASS_UNIT()
NAMED_UNIT(*)
SI_UNIT($,.GRAM.)
);
#333=DERIVED_UNIT((#330,#331));
#334=MEASURE_REPRESENTATION_ITEM('density measure',
POSITIVE_RATIO_MEASURE(2.7),#333);
#335=PROPERTY_DEFINITION_REPRESENTATION(#340,#337);
#336=PROPERTY_DEFINITION_REPRESENTATION(#341,#338);
#337=REPRESENTATION('material name',(#339),#636);
#338=REPRESENTATION('density',(#334),#636);
#339=DESCRIPTIVE_REPRESENTATION_ITEM('Aluminum 6061','Aluminum 6061');
#340=PROPERTY_DEFINITION('material property','material name',#646);
#341=PROPERTY_DEFINITION('material property','density of part',#646);
#342=DATE_TIME_ROLE('creation_date');
#343=APPLIED_DATE_AND_TIME_ASSIGNMENT(#344,#342,(#646));
#344=DATE_AND_TIME(#345,#346);
#345=CALENDAR_DATE(2014,7,7);
#346=LOCAL_TIME(13,41,27.,#347);
#347=COORDINATED_UNIVERSAL_TIME_OFFSET(0,0,.BEHIND.);
#348=AXIS2_PLACEMENT_3D('placement',#533,#407,#408);
#349=AXIS2_PLACEMENT_3D('',#534,#409,#410);
#350=AXIS2_PLACEMENT_3D('',#537,#411,#412);
#351=AXIS2_PLACEMENT_3D('',#539,#413,#414);
#352=AXIS2_PLACEMENT_3D('',#541,#415,#416);
#353=AXIS2_PLACEMENT_3D('',#542,#417,#418);
#354=AXIS2_PLACEMENT_3D('',#543,#419,#420);
#355=AXIS2_PLACEMENT_3D('',#544,#421,#422);
#356=AXIS2_PLACEMENT_3D('',#548,#424,#425);
#357=AXIS2_PLACEMENT_3D('',#549,#426,#427);
#358=AXIS2_PLACEMENT_3D('',#550,#428,#429);
#359=AXIS2_PLACEMENT_3D('',#553,#430,#431);
#360=AXIS2_PLACEMENT_3D('',#554,#432,#433);
#361=AXIS2_PLACEMENT_3D('',#555,#434,#435);
#362=AXIS2_PLACEMENT_3D('',#558,#436,#437);
#363=AXIS2_PLACEMENT_3D('',#559,#438,#439);
#364=AXIS2_PLACEMENT_3D('',#560,#440,#441);
#365=AXIS2_PLACEMENT_3D('',#561,#442,#443);
#366=AXIS2_PLACEMENT_3D('',#563,#444,#445);
#367=AXIS2_PLACEMENT_3D('',#564,#446,#447);
#368=AXIS2_PLACEMENT_3D('',#567,#448,#449);
#369=AXIS2_PLACEMENT_3D('',#569,#450,#451);
#370=AXIS2_PLACEMENT_3D('',#571,#452,#453);
#371=AXIS2_PLACEMENT_3D('',#572,#454,#455);
#372=AXIS2_PLACEMENT_3D('',#573,#456,#457);
#373=AXIS2_PLACEMENT_3D('',#574,#458,#459);
#374=AXIS2_PLACEMENT_3D('',#577,#460,#461);
#375=AXIS2_PLACEMENT_3D('',#578,#462,#463);
#376=AXIS2_PLACEMENT_3D('',#580,#465,#466);
#377=AXIS2_PLACEMENT_3D('',#581,#467,#468);
#378=AXIS2_PLACEMENT_3D('',#582,#469,#470);
#379=AXIS2_PLACEMENT_3D('',#583,#471,#472);
#380=AXIS2_PLACEMENT_3D('',#585,#473,#474);
#381=AXIS2_PLACEMENT_3D('',#589,#476,#477);
#382=AXIS2_PLACEMENT_3D('',#590,#478,#479);
#383=AXIS2_PLACEMENT_3D('',#591,#480,#481);
#384=AXIS2_PLACEMENT_3D('',#595,#483,#484);
#385=AXIS2_PLACEMENT_3D('',#596,#485,#486);
#386=AXIS2_PLACEMENT_3D('',#597,#487,#488);
#387=AXIS2_PLACEMENT_3D('',#600,#489,#490);
#388=AXIS2_PLACEMENT_3D('',#601,#491,#492);
#389=AXIS2_PLACEMENT_3D('',#602,#493,#494);
#390=AXIS2_PLACEMENT_3D('',#605,#495,#496);
#391=AXIS2_PLACEMENT_3D('',#606,#497,#498);
#392=AXIS2_PLACEMENT_3D('',#608,#500,#501);
#393=AXIS2_PLACEMENT_3D('',#611,#502,#503);
#394=AXIS2_PLACEMENT_3D('',#612,#504,#505);
#395=AXIS2_PLACEMENT_3D('',#614,#507,#508);
#396=AXIS2_PLACEMENT_3D('',#615,#509,#510);
#397=AXIS2_PLACEMENT_3D('',#616,#511,#512);
#398=AXIS2_PLACEMENT_3D('',#620,#514,#515);
#399=AXIS2_PLACEMENT_3D('',#621,#516,#517);
#400=AXIS2_PLACEMENT_3D('',#622,#518,#519);
#401=AXIS2_PLACEMENT_3D('',#625,#520,#521);
#402=AXIS2_PLACEMENT_3D('',#626,#522,#523);
#403=AXIS2_PLACEMENT_3D('',#627,#524,#525);
#404=AXIS2_PLACEMENT_3D('',#630,#526,#527);
#405=AXIS2_PLACEMENT_3D('',#631,#528,#529);
#406=AXIS2_PLACEMENT_3D('',#633,#531,#532);
#407=DIRECTION('axis',(0.,0.,1.));
#408=DIRECTION('refdir',(1.,0.,0.));
#409=DIRECTION('center_axis',(-1.,0.,0.));
#410=DIRECTION('ref_axis',(0.,0.,1.));
#411=DIRECTION('center_axis',(-1.,0.,0.));
#412=DIRECTION('ref_axis',(0.,1.22464679914735E-16,-1.));
#413=DIRECTION('center_axis',(0.,-1.,1.22464679914735E-16));
#414=DIRECTION('ref_axis',(0.,-1.22464679914735E-16,-1.));
#415=DIRECTION('center_axis',(1.,0.,0.));
#416=DIRECTION('ref_axis',(0.,1.22464679914735E-16,-1.));
#417=DIRECTION('center_axis',(1.,0.,0.));
#418=DIRECTION('ref_axis',(0.,1.22464679914735E-16,-1.));
#419=DIRECTION('center_axis',(-1.,0.,0.));
#420=DIRECTION('ref_axis',(0.,1.22464679914735E-16,-1.));
#421=DIRECTION('center_axis',(-1.,0.,0.));
#422=DIRECTION('ref_axis',(0.,0.,1.));
#423=DIRECTION('',(1.,0.,0.));
#424=DIRECTION('center_axis',(-1.,0.,0.));
#425=DIRECTION('ref_axis',(0.,1.22464679914735E-16,-1.));
#426=DIRECTION('center_axis',(-1.,0.,0.));
#427=DIRECTION('ref_axis',(0.,1.22464679914735E-16,-1.));
#428=DIRECTION('center_axis',(1.,0.,0.));
#429=DIRECTION('ref_axis',(0.,0.,-1.));
#430=DIRECTION('center_axis',(1.,0.,0.));
#431=DIRECTION('ref_axis',(0.,1.22464679914735E-16,-1.));
#432=DIRECTION('center_axis',(1.,0.,0.));
#433=DIRECTION('ref_axis',(0.,1.22464679914735E-16,-1.));
#434=DIRECTION('center_axis',(-1.,0.,0.));
#435=DIRECTION('ref_axis',(0.,0.,1.));
#436=DIRECTION('center_axis',(1.,0.,0.));
#437=DIRECTION('ref_axis',(0.,1.22464679914735E-16,-1.));
#438=DIRECTION('center_axis',(0.,-1.,1.22464679914735E-16));
#439=DIRECTION('ref_axis',(0.,-1.22464679914735E-16,-1.));
#440=DIRECTION('center_axis',(1.,0.,0.));
#441=DIRECTION('ref_axis',(0.,1.22464679914735E-16,-1.));
#442=DIRECTION('center_axis',(1.,0.,0.));
#443=DIRECTION('ref_axis',(0.,0.,-1.));
#444=DIRECTION('center_axis',(-1.,0.,0.));
#445=DIRECTION('ref_axis',(0.,0.,-1.));
#446=DIRECTION('center_axis',(-1.,0.,0.));
#447=DIRECTION('ref_axis',(0.,0.,1.));
#448=DIRECTION('center_axis',(1.,0.,0.));
#449=DIRECTION('ref_axis',(0.,1.22464679914735E-16,-1.));
#450=DIRECTION('center_axis',(0.,-1.,1.22464679914735E-16));
#451=DIRECTION('ref_axis',(0.,-1.22464679914735E-16,-1.));
#452=DIRECTION('center_axis',(-1.,0.,0.));
#453=DIRECTION('ref_axis',(0.,1.22464679914735E-16,-1.));
#454=DIRECTION('center_axis',(-1.,0.,0.));
#455=DIRECTION('ref_axis',(0.,1.22464679914735E-16,-1.));
#456=DIRECTION('center_axis',(1.,0.,0.));
#457=DIRECTION('ref_axis',(0.,1.22464679914735E-16,-1.));
#458=DIRECTION('center_axis',(-1.,0.,0.));
#459=DIRECTION('ref_axis',(0.,0.,1.));
#460=DIRECTION('center_axis',(-1.,0.,0.));
#461=DIRECTION('ref_axis',(0.,1.22464679914735E-16,-1.));
#462=DIRECTION('center_axis',(-1.,0.,0.));
#463=DIRECTION('ref_axis',(0.,1.22464679914735E-16,-1.));
#464=DIRECTION('',(1.,0.,0.));
#465=DIRECTION('center_axis',(1.,0.,0.));
#466=DIRECTION('ref_axis',(0.,0.,-1.));
#467=DIRECTION('center_axis',(-1.,0.,0.));
#468=DIRECTION('ref_axis',(0.,0.,1.));
#469=DIRECTION('center_axis',(0.,-1.,1.22464679914735E-16));
#470=DIRECTION('ref_axis',(0.,-1.22464679914735E-16,-1.));
#471=DIRECTION('center_axis',(1.,0.,0.));
#472=DIRECTION('ref_axis',(0.,0.,-1.));
#473=DIRECTION('center_axis',(1.,0.,0.));
#474=DIRECTION('ref_axis',(0.,0.,-1.));
#475=DIRECTION('',(0.707106781186543,8.65956056235499E-17,0.707106781186552));
#476=DIRECTION('center_axis',(-1.,0.,0.));
#477=DIRECTION('ref_axis',(0.,0.,-1.));
#478=DIRECTION('center_axis',(-1.,0.,0.));
#479=DIRECTION('ref_axis',(0.,0.,-1.));
#480=DIRECTION('center_axis',(-1.,0.,0.));
#481=DIRECTION('ref_axis',(0.,0.,1.));
#482=DIRECTION('',(1.,0.,0.));
#483=DIRECTION('center_axis',(-1.,0.,0.));
#484=DIRECTION('ref_axis',(0.,0.,1.));
#485=DIRECTION('center_axis',(-1.,0.,0.));
#486=DIRECTION('ref_axis',(0.,0.,1.));
#487=DIRECTION('center_axis',(-1.,0.,0.));
#488=DIRECTION('ref_axis',(0.,0.,1.));
#489=DIRECTION('center_axis',(-1.,0.,0.));
#490=DIRECTION('ref_axis',(0.,0.,1.));
#491=DIRECTION('center_axis',(-1.,0.,0.));
#492=DIRECTION('ref_axis',(0.,0.,1.));
#493=DIRECTION('center_axis',(-1.,0.,0.));
#494=DIRECTION('ref_axis',(0.,0.,-1.));
#495=DIRECTION('center_axis',(1.,0.,0.));
#496=DIRECTION('ref_axis',(0.,0.,-1.));
#497=DIRECTION('center_axis',(1.,0.,0.));
#498=DIRECTION('ref_axis',(0.,0.,-1.));
#499=DIRECTION('',(0.707106781186543,-8.65956056235499E-17,-0.707106781186552));
#500=DIRECTION('center_axis',(-1.,0.,0.));
#501=DIRECTION('ref_axis',(0.,0.,1.));
#502=DIRECTION('center_axis',(-1.,0.,0.));
#503=DIRECTION('ref_axis',(0.,0.,1.));
#504=DIRECTION('center_axis',(-1.,0.,0.));
#505=DIRECTION('ref_axis',(0.,0.,1.));
#506=DIRECTION('',(1.,0.,0.));
#507=DIRECTION('center_axis',(-1.,0.,0.));
#508=DIRECTION('ref_axis',(0.,0.,1.));
#509=DIRECTION('center_axis',(0.,-1.,1.22464679914735E-16));
#510=DIRECTION('ref_axis',(0.,-1.22464679914735E-16,-1.));
#511=DIRECTION('center_axis',(-1.,0.,0.));
#512=DIRECTION('ref_axis',(0.,0.,1.));
#513=DIRECTION('',(1.,0.,0.));
#514=DIRECTION('center_axis',(-1.,0.,0.));
#515=DIRECTION('ref_axis',(0.,0.,1.));
#516=DIRECTION('center_axis',(-1.,0.,0.));
#517=DIRECTION('ref_axis',(0.,0.,1.));
#518=DIRECTION('center_axis',(-1.,0.,0.));
#519=DIRECTION('ref_axis',(0.,0.,1.));
#520=DIRECTION('center_axis',(-1.,0.,0.));
#521=DIRECTION('ref_axis',(0.,0.,1.));
#522=DIRECTION('center_axis',(-1.,0.,0.));
#523=DIRECTION('ref_axis',(0.,0.,1.));
#524=DIRECTION('center_axis',(-1.,0.,0.));
#525=DIRECTION('ref_axis',(0.,0.,1.));
#526=DIRECTION('center_axis',(-1.,0.,0.));
#527=DIRECTION('ref_axis',(0.,0.,1.));
#528=DIRECTION('center_axis',(-1.,0.,0.));
#529=DIRECTION('ref_axis',(0.,0.,1.));
#530=DIRECTION('',(1.,0.,0.));
#531=DIRECTION('center_axis',(-1.,0.,0.));
#532=DIRECTION('ref_axis',(0.,0.,1.));
#533=CARTESIAN_POINT('',(0.,0.,0.));
#534=CARTESIAN_POINT('Origin',(-4.119,0.,0.));
#535=CARTESIAN_POINT('',(-4.5,0.,106.119));
#536=CARTESIAN_POINT('',(-4.5,-1.29958293678718E-14,-106.119));
#537=CARTESIAN_POINT('Origin',(-4.5,0.,0.));
#538=CARTESIAN_POINT('',(-4.119,-1.30424884109193E-14,-106.5));
#539=CARTESIAN_POINT('Origin',(-4.119,-1.29958293678718E-14,-106.119));
#540=CARTESIAN_POINT('',(-4.119,-2.60849768218386E-14,106.5));
#541=CARTESIAN_POINT('Origin',(-4.119,0.,0.));
#542=CARTESIAN_POINT('Origin',(-4.119,0.,0.));
#543=CARTESIAN_POINT('Origin',(-4.5,0.,0.));
#544=CARTESIAN_POINT('Origin',(-2.25,0.,0.));
#545=CARTESIAN_POINT('',(-0.381,-1.30424884109193E-14,-106.5));
#546=CARTESIAN_POINT('',(-2.25,-1.30424884109193E-14,-106.5));
#547=CARTESIAN_POINT('',(-0.381,0.,106.5));
#548=CARTESIAN_POINT('Origin',(-0.381,0.,0.));
#549=CARTESIAN_POINT('Origin',(-0.381,0.,0.));
#550=CARTESIAN_POINT('Origin',(-4.5,0.,106.5));
#551=CARTESIAN_POINT('',(-4.5,-2.50148804487437E-14,102.131));
#552=CARTESIAN_POINT('',(-4.5,-1.25074402243718E-14,-102.131));
#553=CARTESIAN_POINT('Origin',(-4.5,0.,0.));
#554=CARTESIAN_POINT('Origin',(-4.5,0.,0.));
#555=CARTESIAN_POINT('Origin',(-0.381,0.,0.));
#556=CARTESIAN_POINT('',(0.,-2.61782949079337E-14,106.881));
#557=CARTESIAN_POINT('',(0.,-1.30891474539668E-14,-106.881));
#558=CARTESIAN_POINT('Origin',(0.,0.,0.));
#559=CARTESIAN_POINT('Origin',(-0.381,-1.30891474539668E-14,-106.881));
#560=CARTESIAN_POINT('Origin',(0.,0.,0.));
#561=CARTESIAN_POINT('Origin',(0.,0.,120.));
#562=CARTESIAN_POINT('',(0.,1.46345292498109E-14,119.5));
#563=CARTESIAN_POINT('Origin',(0.,0.,0.));
#564=CARTESIAN_POINT('Origin',(-0.381,0.,0.));
#565=CARTESIAN_POINT('',(-0.381,-2.49215623626486E-14,101.75));
#566=CARTESIAN_POINT('',(-0.381,-1.24607811813243E-14,-101.75));
#567=CARTESIAN_POINT('Origin',(-0.381,0.,0.));
#568=CARTESIAN_POINT('',(0.,-1.24141221382768E-14,-101.369));
#569=CARTESIAN_POINT('Origin',(-0.381,-1.24141221382768E-14,-101.369));
#570=CARTESIAN_POINT('',(0.,0.,101.369));
#571=CARTESIAN_POINT('Origin',(0.,0.,0.));
#572=CARTESIAN_POINT('Origin',(0.,0.,0.));
#573=CARTESIAN_POINT('Origin',(-0.381,0.,0.));
#574=CARTESIAN_POINT('Origin',(-2.25,0.,0.));
#575=CARTESIAN_POINT('',(-4.119,0.,101.75));
#576=CARTESIAN_POINT('',(-4.119,-1.24607811813243E-14,-101.75));
#577=CARTESIAN_POINT('Origin',(-4.119,0.,0.));
#578=CARTESIAN_POINT('Origin',(-4.119,0.,0.));
#579=CARTESIAN_POINT('',(-2.25,-1.24607811813243E-14,-101.75));
#580=CARTESIAN_POINT('Origin',(0.,0.,101.75));
#581=CARTESIAN_POINT('Origin',(-4.119,0.,0.));
#582=CARTESIAN_POINT('Origin',(-4.119,-1.25074402243718E-14,-102.131));
#583=CARTESIAN_POINT('Origin',(-11.75,0.,0.));
#584=CARTESIAN_POINT('',(-12.,-1.46345292498109E-14,119.5));
#585=CARTESIAN_POINT('Origin',(-12.,0.,0.));
#586=CARTESIAN_POINT('',(-11.5,1.46957615897682E-14,120.));
#587=CARTESIAN_POINT('',(-11.75,1.46651454197896E-14,119.75));
#588=CARTESIAN_POINT('',(-11.5,-1.46957615897682E-14,-120.));
#589=CARTESIAN_POINT('Origin',(-11.5,0.,0.));
#590=CARTESIAN_POINT('Origin',(-11.5,0.,0.));
#591=CARTESIAN_POINT('Origin',(-10.25,0.,0.));
#592=CARTESIAN_POINT('',(-8.5,-1.46957615897682E-14,-120.));
#593=CARTESIAN_POINT('',(-10.25,-1.46957615897682E-14,-120.));
#594=CARTESIAN_POINT('',(-8.5,0.,120.));
#595=CARTESIAN_POINT('Origin',(-8.5,0.,0.));
#596=CARTESIAN_POINT('Origin',(-8.5,0.,0.));
#597=CARTESIAN_POINT('Origin',(-12.,0.,117.5));
#598=CARTESIAN_POINT('',(-12.,0.,117.5));
#599=CARTESIAN_POINT('',(-12.,-1.43895998899814E-14,-117.5));
#600=CARTESIAN_POINT('Origin',(-12.,0.,0.));
#601=CARTESIAN_POINT('Origin',(-12.,0.,0.));
#602=CARTESIAN_POINT('Origin',(-0.25,0.,0.));
#603=CARTESIAN_POINT('',(-0.5,-1.46957615897682E-14,120.));
#604=CARTESIAN_POINT('',(-0.5,-1.46957615897682E-14,-120.));
#605=CARTESIAN_POINT('Origin',(-0.5,0.,0.));
#606=CARTESIAN_POINT('Origin',(-0.5,0.,0.));
#607=CARTESIAN_POINT('',(-0.25,1.46651454197896E-14,119.75));
#608=CARTESIAN_POINT('Origin',(-1.75,0.,0.));
#609=CARTESIAN_POINT('',(-3.5,0.,120.));
#610=CARTESIAN_POINT('',(-3.5,-1.46957615897682E-14,-120.));
#611=CARTESIAN_POINT('Origin',(-3.5,0.,0.));
#612=CARTESIAN_POINT('Origin',(-3.5,0.,0.));
#613=CARTESIAN_POINT('',(-1.75,-1.46957615897682E-14,-120.));
#614=CARTESIAN_POINT('Origin',(-6.,0.,0.));
#615=CARTESIAN_POINT('Origin',(-6.,-1.46957615897682E-14,-120.));
#616=CARTESIAN_POINT('Origin',(-11.125,0.,0.));
#617=CARTESIAN_POINT('',(-10.25,-1.43895998899814E-14,-117.5));
#618=CARTESIAN_POINT('',(-11.125,-1.43895998899814E-14,-117.5));
#619=CARTESIAN_POINT('',(-10.25,0.,117.5));
#620=CARTESIAN_POINT('Origin',(-10.25,0.,0.));
#621=CARTESIAN_POINT('Origin',(-10.25,0.,0.));
#622=CARTESIAN_POINT('Origin',(-10.25,0.,109.15));
#623=CARTESIAN_POINT('',(-10.25,0.,109.15));
#624=CARTESIAN_POINT('',(-10.25,-1.33670198126934E-14,-109.15));
#625=CARTESIAN_POINT('Origin',(-10.25,0.,0.));
#626=CARTESIAN_POINT('Origin',(-10.25,0.,0.));
#627=CARTESIAN_POINT('Origin',(-11.125,0.,0.));
#628=CARTESIAN_POINT('',(-12.,0.,109.15));
#629=CARTESIAN_POINT('',(-12.,-1.33670198126934E-14,-109.15));
#630=CARTESIAN_POINT('Origin',(-12.,0.,0.));
#631=CARTESIAN_POINT('Origin',(-12.,0.,0.));
#632=CARTESIAN_POINT('',(-11.125,-1.33670198126934E-14,-109.15));
#633=CARTESIAN_POINT('Origin',(-12.,0.,0.));
#634=UNCERTAINTY_MEASURE_WITH_UNIT(LENGTH_MEASURE(0.01),#638,
'DISTANCE_ACCURACY_VALUE',
'Maximum model space distance between geometric entities at asserted c
onnectivities');
#635=UNCERTAINTY_MEASURE_WITH_UNIT(LENGTH_MEASURE(0.01),#638,
'DISTANCE_ACCURACY_VALUE',
'Maximum model space distance between geometric entities at asserted c
onnectivities');
#636=(
GEOMETRIC_REPRESENTATION_CONTEXT(3)
GLOBAL_UNCERTAINTY_ASSIGNED_CONTEXT((#634))
GLOBAL_UNIT_ASSIGNED_CONTEXT((#638,#641,#640))
REPRESENTATION_CONTEXT('','3D')
);
#637=(
GEOMETRIC_REPRESENTATION_CONTEXT(3)
GLOBAL_UNCERTAINTY_ASSIGNED_CONTEXT((#635))
GLOBAL_UNIT_ASSIGNED_CONTEXT((#638,#641,#640))
REPRESENTATION_CONTEXT('','3D')
);
#638=(
LENGTH_UNIT()
NAMED_UNIT(*)
SI_UNIT(.MILLI.,.METRE.)
);
#639=(
LENGTH_UNIT()
NAMED_UNIT(*)
SI_UNIT(.CENTI.,.METRE.)
);
#640=(
NAMED_UNIT(*)
SI_UNIT($,.STERADIAN.)
SOLID_ANGLE_UNIT()
);
#641=(
NAMED_UNIT(*)
PLANE_ANGLE_UNIT()
SI_UNIT($,.RADIAN.)
);
#642=SHAPE_DEFINITION_REPRESENTATION(#643,#644);
#643=PRODUCT_DEFINITION_SHAPE('',$,#646);
#644=SHAPE_REPRESENTATION('',(#348),#636);
#645=PRODUCT_DEFINITION_CONTEXT('part definition',#650,'design');
#646=PRODUCT_DEFINITION('FL-A200LF','FL-A200LF',#647,#645);
#647=PRODUCT_DEFINITION_FORMATION('',$,#652);
#648=PRODUCT_RELATED_PRODUCT_CATEGORY('FL-A200LF','FL-A200LF',(#652));
#649=APPLICATION_PROTOCOL_DEFINITION('international standard',
'automotive_design',2009,#650);
#650=APPLICATION_CONTEXT(
'Core Data for Automotive Mechanical Design Process');
#651=PRODUCT_CONTEXT('part definition',#650,'mechanical');
#652=PRODUCT('FL-A200LF','FL-A200LF',$,(#651));
#653=PRESENTATION_STYLE_ASSIGNMENT((#654));
#654=SURFACE_STYLE_USAGE(.BOTH.,#655);
#655=SURFACE_SIDE_STYLE('',(#656));
#656=SURFACE_STYLE_FILL_AREA(#657);
#657=FILL_AREA_STYLE('',(#658));
#658=FILL_AREA_STYLE_COLOUR('',#659);
#659=COLOUR_RGB('',0.996078431372549,0.996078431372549,1.);
ENDSEC;
END-ISO-10303-21;
