ISO-10303-21;
HEADER;
/* Generated by software containing ST-Developer
 * from STEP Tools, Inc. (www.steptools.com) 
 */

FILE_DESCRIPTION(
/* description */ (''),
/* implementation_level */ '2;1');

FILE_NAME(
/* name */ 'G:\\FLANGES & FITTINGS\\NW160LF\\Step files\\FL-A160LF.stp',

/* time_stamp */ '2018-07-12T09:31:01+01:00',
/* author */ ('paul'),
/* organization */ (''),
/* preprocessor_version */ 'ST-DEVELOPER v17',
/* originating_system */ 'Autodesk Inventor 2019',
/* authorisation */ '');

FILE_SCHEMA (('AUTOMOTIVE_DESIGN { 1 0 10303 214 3 1 1 }'));
ENDSEC;

DATA;
#10=MECHANICAL_DESIGN_GEOMETRIC_PRESENTATION_REPRESENTATION('',(#13),#493);
#11=SHAPE_REPRESENTATION_RELATIONSHIP('SRR','None',#500,#12);
#12=ADVANCED_BREP_SHAPE_REPRESENTATION('',(#14),#492);
#13=STYLED_ITEM('',(#509),#14);
#14=MANIFOLD_SOLID_BREP('Solid1',#257);
#15=TOROIDAL_SURFACE('',#307,90.,2.5);
#16=FACE_BOUND('',#50,.T.);
#17=FACE_BOUND('',#53,.T.);
#18=FACE_BOUND('',#58,.T.);
#19=FACE_BOUND('',#63,.T.);
#20=PLANE('',#284);
#21=PLANE('',#291);
#22=PLANE('',#297);
#23=PLANE('',#303);
#24=PLANE('',#312);
#25=PLANE('',#318);
#26=CYLINDRICAL_SURFACE('',#281,90.);
#27=CYLINDRICAL_SURFACE('',#294,90.);
#28=CYLINDRICAL_SURFACE('',#300,81.5);
#29=CYLINDRICAL_SURFACE('',#306,87.5);
#30=CYLINDRICAL_SURFACE('',#309,76.5);
#31=CYLINDRICAL_SURFACE('',#315,71.6);
#32=FACE_OUTER_BOUND('',#47,.T.);
#33=FACE_OUTER_BOUND('',#48,.T.);
#34=FACE_OUTER_BOUND('',#49,.T.);
#35=FACE_OUTER_BOUND('',#51,.T.);
#36=FACE_OUTER_BOUND('',#52,.T.);
#37=FACE_OUTER_BOUND('',#54,.T.);
#38=FACE_OUTER_BOUND('',#55,.T.);
#39=FACE_OUTER_BOUND('',#56,.T.);
#40=FACE_OUTER_BOUND('',#57,.T.);
#41=FACE_OUTER_BOUND('',#59,.T.);
#42=FACE_OUTER_BOUND('',#60,.T.);
#43=FACE_OUTER_BOUND('',#61,.T.);
#44=FACE_OUTER_BOUND('',#62,.T.);
#45=FACE_OUTER_BOUND('',#64,.T.);
#46=FACE_OUTER_BOUND('',#65,.T.);
#47=EDGE_LOOP('',(#170,#171,#172,#173,#174));
#48=EDGE_LOOP('',(#175,#176,#177,#178,#179,#180));
#49=EDGE_LOOP('',(#181));
#50=EDGE_LOOP('',(#182,#183));
#51=EDGE_LOOP('',(#184,#185,#186,#187,#188));
#52=EDGE_LOOP('',(#189));
#53=EDGE_LOOP('',(#190,#191));
#54=EDGE_LOOP('',(#192,#193,#194,#195,#196,#197));
#55=EDGE_LOOP('',(#198,#199));
#56=EDGE_LOOP('',(#200,#201,#202,#203,#204,#205));
#57=EDGE_LOOP('',(#206,#207));
#58=EDGE_LOOP('',(#208,#209));
#59=EDGE_LOOP('',(#210,#211,#212,#213,#214,#215));
#60=EDGE_LOOP('',(#216,#217,#218,#219,#220,#221));
#61=EDGE_LOOP('',(#222,#223,#224,#225,#226,#227));
#62=EDGE_LOOP('',(#228,#229));
#63=EDGE_LOOP('',(#230,#231));
#64=EDGE_LOOP('',(#232,#233,#234,#235,#236,#237));
#65=EDGE_LOOP('',(#238,#239));
#66=LINE('',#418,#74);
#67=LINE('',#424,#75);
#68=LINE('',#439,#76);
#69=LINE('',#451,#77);
#70=LINE('',#462,#78);
#71=LINE('',#469,#79);
#72=LINE('',#474,#80);
#73=LINE('',#488,#81);
#74=VECTOR('',#325,89.75);
#75=VECTOR('',#332,90.);
#76=VECTOR('',#349,89.75);
#77=VECTOR('',#364,90.);
#78=VECTOR('',#377,81.5);
#79=VECTOR('',#386,87.5);
#80=VECTOR('',#393,76.5);
#81=VECTOR('',#410,71.6);
#82=CIRCLE('',#278,89.5);
#83=CIRCLE('',#279,90.);
#84=CIRCLE('',#280,90.);
#85=CIRCLE('',#282,90.);
#86=CIRCLE('',#283,90.);
#87=CIRCLE('',#285,76.5);
#88=CIRCLE('',#286,76.5);
#89=CIRCLE('',#288,90.);
#90=CIRCLE('',#289,90.);
#91=CIRCLE('',#290,89.5);
#92=CIRCLE('',#292,87.5);
#93=CIRCLE('',#293,87.5);
#94=CIRCLE('',#295,90.);
#95=CIRCLE('',#296,90.);
#96=CIRCLE('',#298,81.5);
#97=CIRCLE('',#299,81.5);
#98=CIRCLE('',#301,81.5);
#99=CIRCLE('',#302,81.5);
#100=CIRCLE('',#304,87.5);
#101=CIRCLE('',#305,87.5);
#102=CIRCLE('',#308,2.5);
#103=CIRCLE('',#310,76.5);
#104=CIRCLE('',#311,76.5);
#105=CIRCLE('',#313,71.6);
#106=CIRCLE('',#314,71.6);
#107=CIRCLE('',#316,71.6);
#108=CIRCLE('',#317,71.6);
#109=VERTEX_POINT('',#415);
#110=VERTEX_POINT('',#417);
#111=VERTEX_POINT('',#419);
#112=VERTEX_POINT('',#423);
#113=VERTEX_POINT('',#425);
#114=VERTEX_POINT('',#429);
#115=VERTEX_POINT('',#430);
#116=VERTEX_POINT('',#434);
#117=VERTEX_POINT('',#435);
#118=VERTEX_POINT('',#438);
#119=VERTEX_POINT('',#442);
#120=VERTEX_POINT('',#443);
#121=VERTEX_POINT('',#447);
#122=VERTEX_POINT('',#448);
#123=VERTEX_POINT('',#453);
#124=VERTEX_POINT('',#454);
#125=VERTEX_POINT('',#458);
#126=VERTEX_POINT('',#459);
#127=VERTEX_POINT('',#464);
#128=VERTEX_POINT('',#465);
#129=VERTEX_POINT('',#473);
#130=VERTEX_POINT('',#475);
#131=VERTEX_POINT('',#479);
#132=VERTEX_POINT('',#480);
#133=VERTEX_POINT('',#484);
#134=VERTEX_POINT('',#485);
#135=EDGE_CURVE('',#109,#109,#82,.T.);
#136=EDGE_CURVE('',#109,#110,#66,.T.);
#137=EDGE_CURVE('',#110,#111,#83,.T.);
#138=EDGE_CURVE('',#111,#110,#84,.T.);
#139=EDGE_CURVE('',#111,#112,#67,.T.);
#140=EDGE_CURVE('',#112,#113,#85,.T.);
#141=EDGE_CURVE('',#113,#112,#86,.T.);
#142=EDGE_CURVE('',#114,#115,#87,.T.);
#143=EDGE_CURVE('',#115,#114,#88,.T.);
#144=EDGE_CURVE('',#116,#117,#89,.T.);
#145=EDGE_CURVE('',#117,#116,#90,.T.);
#146=EDGE_CURVE('',#116,#118,#68,.T.);
#147=EDGE_CURVE('',#118,#118,#91,.T.);
#148=EDGE_CURVE('',#119,#120,#92,.T.);
#149=EDGE_CURVE('',#120,#119,#93,.T.);
#150=EDGE_CURVE('',#121,#122,#94,.T.);
#151=EDGE_CURVE('',#122,#121,#95,.T.);
#152=EDGE_CURVE('',#122,#117,#69,.T.);
#153=EDGE_CURVE('',#123,#124,#96,.T.);
#154=EDGE_CURVE('',#124,#123,#97,.T.);
#155=EDGE_CURVE('',#125,#126,#98,.T.);
#156=EDGE_CURVE('',#126,#125,#99,.T.);
#157=EDGE_CURVE('',#126,#124,#70,.T.);
#158=EDGE_CURVE('',#127,#128,#100,.T.);
#159=EDGE_CURVE('',#128,#127,#101,.T.);
#160=EDGE_CURVE('',#128,#120,#71,.T.);
#161=EDGE_CURVE('',#122,#112,#102,.T.);
#162=EDGE_CURVE('',#115,#129,#72,.T.);
#163=EDGE_CURVE('',#130,#129,#103,.T.);
#164=EDGE_CURVE('',#129,#130,#104,.T.);
#165=EDGE_CURVE('',#131,#132,#105,.T.);
#166=EDGE_CURVE('',#132,#131,#106,.T.);
#167=EDGE_CURVE('',#133,#134,#107,.T.);
#168=EDGE_CURVE('',#134,#133,#108,.T.);
#169=EDGE_CURVE('',#134,#132,#73,.T.);
#170=ORIENTED_EDGE('',*,*,#135,.T.);
#171=ORIENTED_EDGE('',*,*,#136,.T.);
#172=ORIENTED_EDGE('',*,*,#137,.T.);
#173=ORIENTED_EDGE('',*,*,#138,.T.);
#174=ORIENTED_EDGE('',*,*,#136,.F.);
#175=ORIENTED_EDGE('',*,*,#137,.F.);
#176=ORIENTED_EDGE('',*,*,#138,.F.);
#177=ORIENTED_EDGE('',*,*,#139,.T.);
#178=ORIENTED_EDGE('',*,*,#140,.T.);
#179=ORIENTED_EDGE('',*,*,#141,.T.);
#180=ORIENTED_EDGE('',*,*,#139,.F.);
#181=ORIENTED_EDGE('',*,*,#135,.F.);
#182=ORIENTED_EDGE('',*,*,#142,.F.);
#183=ORIENTED_EDGE('',*,*,#143,.F.);
#184=ORIENTED_EDGE('',*,*,#144,.T.);
#185=ORIENTED_EDGE('',*,*,#145,.T.);
#186=ORIENTED_EDGE('',*,*,#146,.T.);
#187=ORIENTED_EDGE('',*,*,#147,.T.);
#188=ORIENTED_EDGE('',*,*,#146,.F.);
#189=ORIENTED_EDGE('',*,*,#147,.F.);
#190=ORIENTED_EDGE('',*,*,#148,.T.);
#191=ORIENTED_EDGE('',*,*,#149,.T.);
#192=ORIENTED_EDGE('',*,*,#150,.F.);
#193=ORIENTED_EDGE('',*,*,#151,.F.);
#194=ORIENTED_EDGE('',*,*,#152,.T.);
#195=ORIENTED_EDGE('',*,*,#144,.F.);
#196=ORIENTED_EDGE('',*,*,#145,.F.);
#197=ORIENTED_EDGE('',*,*,#152,.F.);
#198=ORIENTED_EDGE('',*,*,#153,.F.);
#199=ORIENTED_EDGE('',*,*,#154,.F.);
#200=ORIENTED_EDGE('',*,*,#155,.F.);
#201=ORIENTED_EDGE('',*,*,#156,.F.);
#202=ORIENTED_EDGE('',*,*,#157,.T.);
#203=ORIENTED_EDGE('',*,*,#154,.T.);
#204=ORIENTED_EDGE('',*,*,#153,.T.);
#205=ORIENTED_EDGE('',*,*,#157,.F.);
#206=ORIENTED_EDGE('',*,*,#158,.F.);
#207=ORIENTED_EDGE('',*,*,#159,.F.);
#208=ORIENTED_EDGE('',*,*,#155,.T.);
#209=ORIENTED_EDGE('',*,*,#156,.T.);
#210=ORIENTED_EDGE('',*,*,#158,.T.);
#211=ORIENTED_EDGE('',*,*,#160,.T.);
#212=ORIENTED_EDGE('',*,*,#148,.F.);
#213=ORIENTED_EDGE('',*,*,#149,.F.);
#214=ORIENTED_EDGE('',*,*,#160,.F.);
#215=ORIENTED_EDGE('',*,*,#159,.T.);
#216=ORIENTED_EDGE('',*,*,#150,.T.);
#217=ORIENTED_EDGE('',*,*,#161,.T.);
#218=ORIENTED_EDGE('',*,*,#141,.F.);
#219=ORIENTED_EDGE('',*,*,#140,.F.);
#220=ORIENTED_EDGE('',*,*,#161,.F.);
#221=ORIENTED_EDGE('',*,*,#151,.T.);
#222=ORIENTED_EDGE('',*,*,#142,.T.);
#223=ORIENTED_EDGE('',*,*,#162,.T.);
#224=ORIENTED_EDGE('',*,*,#163,.F.);
#225=ORIENTED_EDGE('',*,*,#164,.F.);
#226=ORIENTED_EDGE('',*,*,#162,.F.);
#227=ORIENTED_EDGE('',*,*,#143,.T.);
#228=ORIENTED_EDGE('',*,*,#163,.T.);
#229=ORIENTED_EDGE('',*,*,#164,.T.);
#230=ORIENTED_EDGE('',*,*,#165,.F.);
#231=ORIENTED_EDGE('',*,*,#166,.F.);
#232=ORIENTED_EDGE('',*,*,#167,.F.);
#233=ORIENTED_EDGE('',*,*,#168,.F.);
#234=ORIENTED_EDGE('',*,*,#169,.T.);
#235=ORIENTED_EDGE('',*,*,#166,.T.);
#236=ORIENTED_EDGE('',*,*,#165,.T.);
#237=ORIENTED_EDGE('',*,*,#169,.F.);
#238=ORIENTED_EDGE('',*,*,#167,.T.);
#239=ORIENTED_EDGE('',*,*,#168,.T.);
#240=CONICAL_SURFACE('',#277,89.75,0.785398163397455);
#241=CONICAL_SURFACE('',#287,89.75,0.785398163397455);
#242=ADVANCED_FACE('',(#32),#240,.T.);
#243=ADVANCED_FACE('',(#33),#26,.T.);
#244=ADVANCED_FACE('',(#34,#16),#20,.T.);
#245=ADVANCED_FACE('',(#35),#241,.T.);
#246=ADVANCED_FACE('',(#36,#17),#21,.T.);
#247=ADVANCED_FACE('',(#37),#27,.T.);
#248=ADVANCED_FACE('',(#38),#22,.T.);
#249=ADVANCED_FACE('',(#39),#28,.T.);
#250=ADVANCED_FACE('',(#40,#18),#23,.T.);
#251=ADVANCED_FACE('',(#41),#29,.F.);
#252=ADVANCED_FACE('',(#42),#15,.F.);
#253=ADVANCED_FACE('',(#43),#30,.F.);
#254=ADVANCED_FACE('',(#44,#19),#24,.T.);
#255=ADVANCED_FACE('',(#45),#31,.T.);
#256=ADVANCED_FACE('',(#46),#25,.T.);
#257=CLOSED_SHELL('',(#242,#243,#244,#245,#246,#247,#248,#249,#250,#251,
#252,#253,#254,#255,#256));
#258=DERIVED_UNIT_ELEMENT(#260,1.);
#259=DERIVED_UNIT_ELEMENT(#495,3.);
#260=(
MASS_UNIT()
NAMED_UNIT(*)
SI_UNIT($,.GRAM.)
);
#261=DERIVED_UNIT((#258,#259));
#262=MEASURE_REPRESENTATION_ITEM('density measure',
POSITIVE_RATIO_MEASURE(2.7),#261);
#263=PROPERTY_DEFINITION_REPRESENTATION(#268,#265);
#264=PROPERTY_DEFINITION_REPRESENTATION(#269,#266);
#265=REPRESENTATION('material name',(#267),#492);
#266=REPRESENTATION('density',(#262),#492);
#267=DESCRIPTIVE_REPRESENTATION_ITEM('Aluminum 6061','Aluminum 6061');
#268=PROPERTY_DEFINITION('material property','material name',#502);
#269=PROPERTY_DEFINITION('material property','density of part',#502);
#270=DATE_TIME_ROLE('creation_date');
#271=APPLIED_DATE_AND_TIME_ASSIGNMENT(#272,#270,(#502));
#272=DATE_AND_TIME(#273,#274);
#273=CALENDAR_DATE(2014,10,6);
#274=LOCAL_TIME(7,33,43.,#275);
#275=COORDINATED_UNIVERSAL_TIME_OFFSET(0,0,.BEHIND.);
#276=AXIS2_PLACEMENT_3D('placement',#413,#319,#320);
#277=AXIS2_PLACEMENT_3D('',#414,#321,#322);
#278=AXIS2_PLACEMENT_3D('',#416,#323,#324);
#279=AXIS2_PLACEMENT_3D('',#420,#326,#327);
#280=AXIS2_PLACEMENT_3D('',#421,#328,#329);
#281=AXIS2_PLACEMENT_3D('',#422,#330,#331);
#282=AXIS2_PLACEMENT_3D('',#426,#333,#334);
#283=AXIS2_PLACEMENT_3D('',#427,#335,#336);
#284=AXIS2_PLACEMENT_3D('',#428,#337,#338);
#285=AXIS2_PLACEMENT_3D('',#431,#339,#340);
#286=AXIS2_PLACEMENT_3D('',#432,#341,#342);
#287=AXIS2_PLACEMENT_3D('',#433,#343,#344);
#288=AXIS2_PLACEMENT_3D('',#436,#345,#346);
#289=AXIS2_PLACEMENT_3D('',#437,#347,#348);
#290=AXIS2_PLACEMENT_3D('',#440,#350,#351);
#291=AXIS2_PLACEMENT_3D('',#441,#352,#353);
#292=AXIS2_PLACEMENT_3D('',#444,#354,#355);
#293=AXIS2_PLACEMENT_3D('',#445,#356,#357);
#294=AXIS2_PLACEMENT_3D('',#446,#358,#359);
#295=AXIS2_PLACEMENT_3D('',#449,#360,#361);
#296=AXIS2_PLACEMENT_3D('',#450,#362,#363);
#297=AXIS2_PLACEMENT_3D('',#452,#365,#366);
#298=AXIS2_PLACEMENT_3D('',#455,#367,#368);
#299=AXIS2_PLACEMENT_3D('',#456,#369,#370);
#300=AXIS2_PLACEMENT_3D('',#457,#371,#372);
#301=AXIS2_PLACEMENT_3D('',#460,#373,#374);
#302=AXIS2_PLACEMENT_3D('',#461,#375,#376);
#303=AXIS2_PLACEMENT_3D('',#463,#378,#379);
#304=AXIS2_PLACEMENT_3D('',#466,#380,#381);
#305=AXIS2_PLACEMENT_3D('',#467,#382,#383);
#306=AXIS2_PLACEMENT_3D('',#468,#384,#385);
#307=AXIS2_PLACEMENT_3D('',#470,#387,#388);
#308=AXIS2_PLACEMENT_3D('',#471,#389,#390);
#309=AXIS2_PLACEMENT_3D('',#472,#391,#392);
#310=AXIS2_PLACEMENT_3D('',#476,#394,#395);
#311=AXIS2_PLACEMENT_3D('',#477,#396,#397);
#312=AXIS2_PLACEMENT_3D('',#478,#398,#399);
#313=AXIS2_PLACEMENT_3D('',#481,#400,#401);
#314=AXIS2_PLACEMENT_3D('',#482,#402,#403);
#315=AXIS2_PLACEMENT_3D('',#483,#404,#405);
#316=AXIS2_PLACEMENT_3D('',#486,#406,#407);
#317=AXIS2_PLACEMENT_3D('',#487,#408,#409);
#318=AXIS2_PLACEMENT_3D('',#489,#411,#412);
#319=DIRECTION('axis',(0.,0.,1.));
#320=DIRECTION('refdir',(1.,0.,0.));
#321=DIRECTION('center_axis',(1.,0.,0.));
#322=DIRECTION('ref_axis',(0.,0.,-1.));
#323=DIRECTION('center_axis',(1.,0.,0.));
#324=DIRECTION('ref_axis',(0.,0.,-1.));
#325=DIRECTION('',(0.707106781186543,8.65956056235499E-17,0.707106781186552));
#326=DIRECTION('center_axis',(-1.,0.,0.));
#327=DIRECTION('ref_axis',(0.,0.,-1.));
#328=DIRECTION('center_axis',(-1.,0.,0.));
#329=DIRECTION('ref_axis',(0.,0.,-1.));
#330=DIRECTION('center_axis',(-1.,0.,0.));
#331=DIRECTION('ref_axis',(0.,0.,1.));
#332=DIRECTION('',(1.,0.,0.));
#333=DIRECTION('center_axis',(-1.,0.,0.));
#334=DIRECTION('ref_axis',(0.,0.,1.));
#335=DIRECTION('center_axis',(-1.,0.,0.));
#336=DIRECTION('ref_axis',(0.,0.,1.));
#337=DIRECTION('center_axis',(-1.,0.,0.));
#338=DIRECTION('ref_axis',(0.,0.,1.));
#339=DIRECTION('center_axis',(-1.,0.,0.));
#340=DIRECTION('ref_axis',(0.,0.,1.));
#341=DIRECTION('center_axis',(-1.,0.,0.));
#342=DIRECTION('ref_axis',(0.,0.,1.));
#343=DIRECTION('center_axis',(-1.,0.,0.));
#344=DIRECTION('ref_axis',(0.,0.,-1.));
#345=DIRECTION('center_axis',(1.,0.,0.));
#346=DIRECTION('ref_axis',(0.,0.,-1.));
#347=DIRECTION('center_axis',(1.,0.,0.));
#348=DIRECTION('ref_axis',(0.,0.,-1.));
#349=DIRECTION('',(0.707106781186542,-8.65956056235499E-17,-0.707106781186553));
#350=DIRECTION('center_axis',(-1.,0.,0.));
#351=DIRECTION('ref_axis',(0.,0.,-1.));
#352=DIRECTION('center_axis',(1.,0.,0.));
#353=DIRECTION('ref_axis',(0.,0.,-1.));
#354=DIRECTION('center_axis',(-1.,0.,0.));
#355=DIRECTION('ref_axis',(0.,0.,1.));
#356=DIRECTION('center_axis',(-1.,0.,0.));
#357=DIRECTION('ref_axis',(0.,0.,1.));
#358=DIRECTION('center_axis',(-1.,0.,0.));
#359=DIRECTION('ref_axis',(0.,0.,1.));
#360=DIRECTION('center_axis',(-1.,0.,0.));
#361=DIRECTION('ref_axis',(0.,0.,1.));
#362=DIRECTION('center_axis',(-1.,0.,0.));
#363=DIRECTION('ref_axis',(0.,0.,1.));
#364=DIRECTION('',(1.,0.,0.));
#365=DIRECTION('center_axis',(1.,0.,0.));
#366=DIRECTION('ref_axis',(0.,0.,-1.));
#367=DIRECTION('center_axis',(-1.,0.,0.));
#368=DIRECTION('ref_axis',(0.,0.,1.));
#369=DIRECTION('center_axis',(-1.,0.,0.));
#370=DIRECTION('ref_axis',(0.,0.,1.));
#371=DIRECTION('center_axis',(-1.,0.,0.));
#372=DIRECTION('ref_axis',(0.,0.,1.));
#373=DIRECTION('center_axis',(-1.,0.,0.));
#374=DIRECTION('ref_axis',(0.,0.,1.));
#375=DIRECTION('center_axis',(-1.,0.,0.));
#376=DIRECTION('ref_axis',(0.,0.,1.));
#377=DIRECTION('',(1.,0.,0.));
#378=DIRECTION('center_axis',(1.,0.,0.));
#379=DIRECTION('ref_axis',(0.,0.,-1.));
#380=DIRECTION('center_axis',(-1.,0.,0.));
#381=DIRECTION('ref_axis',(0.,0.,1.));
#382=DIRECTION('center_axis',(-1.,0.,0.));
#383=DIRECTION('ref_axis',(0.,0.,1.));
#384=DIRECTION('center_axis',(-1.,0.,0.));
#385=DIRECTION('ref_axis',(0.,0.,1.));
#386=DIRECTION('',(1.,0.,0.));
#387=DIRECTION('center_axis',(-1.,0.,0.));
#388=DIRECTION('ref_axis',(0.,0.,1.));
#389=DIRECTION('center_axis',(0.,-1.,1.22464679914735E-16));
#390=DIRECTION('ref_axis',(0.,-1.22464679914735E-16,-1.));
#391=DIRECTION('center_axis',(-1.,0.,0.));
#392=DIRECTION('ref_axis',(0.,0.,1.));
#393=DIRECTION('',(1.,0.,0.));
#394=DIRECTION('center_axis',(-1.,0.,0.));
#395=DIRECTION('ref_axis',(0.,0.,1.));
#396=DIRECTION('center_axis',(-1.,0.,0.));
#397=DIRECTION('ref_axis',(0.,0.,1.));
#398=DIRECTION('center_axis',(-1.,0.,0.));
#399=DIRECTION('ref_axis',(0.,0.,1.));
#400=DIRECTION('center_axis',(-1.,0.,0.));
#401=DIRECTION('ref_axis',(0.,0.,1.));
#402=DIRECTION('center_axis',(-1.,0.,0.));
#403=DIRECTION('ref_axis',(0.,0.,1.));
#404=DIRECTION('center_axis',(-1.,0.,0.));
#405=DIRECTION('ref_axis',(0.,0.,1.));
#406=DIRECTION('center_axis',(-1.,0.,0.));
#407=DIRECTION('ref_axis',(0.,0.,1.));
#408=DIRECTION('center_axis',(-1.,0.,0.));
#409=DIRECTION('ref_axis',(0.,0.,1.));
#410=DIRECTION('',(1.,0.,0.));
#411=DIRECTION('center_axis',(-1.,0.,0.));
#412=DIRECTION('ref_axis',(0.,0.,1.));
#413=CARTESIAN_POINT('',(0.,0.,0.));
#414=CARTESIAN_POINT('Origin',(-11.75,0.,0.));
#415=CARTESIAN_POINT('',(-12.,-1.09605888523688E-14,89.5));
#416=CARTESIAN_POINT('Origin',(-12.,0.,0.));
#417=CARTESIAN_POINT('',(-11.5,1.10218211923262E-14,90.));
#418=CARTESIAN_POINT('',(-11.75,1.09912050223475E-14,89.75));
#419=CARTESIAN_POINT('',(-11.5,-1.10218211923262E-14,-90.));
#420=CARTESIAN_POINT('Origin',(-11.5,0.,0.));
#421=CARTESIAN_POINT('Origin',(-11.5,0.,0.));
#422=CARTESIAN_POINT('Origin',(-10.75,0.,0.));
#423=CARTESIAN_POINT('',(-9.5,-1.10218211923262E-14,-90.));
#424=CARTESIAN_POINT('',(-10.75,-1.10218211923262E-14,-90.));
#425=CARTESIAN_POINT('',(-9.5,0.,90.));
#426=CARTESIAN_POINT('Origin',(-9.5,0.,0.));
#427=CARTESIAN_POINT('Origin',(-9.5,0.,0.));
#428=CARTESIAN_POINT('Origin',(-12.,0.,76.5));
#429=CARTESIAN_POINT('',(-12.,0.,76.5));
#430=CARTESIAN_POINT('',(-12.,-9.36854801347725E-15,-76.5));
#431=CARTESIAN_POINT('Origin',(-12.,0.,0.));
#432=CARTESIAN_POINT('Origin',(-12.,0.,0.));
#433=CARTESIAN_POINT('Origin',(-0.25,0.,0.));
#434=CARTESIAN_POINT('',(-0.5,-1.10218211923262E-14,90.));
#435=CARTESIAN_POINT('',(-0.5,-1.10218211923262E-14,-90.));
#436=CARTESIAN_POINT('Origin',(-0.5,0.,0.));
#437=CARTESIAN_POINT('Origin',(-0.5,0.,0.));
#438=CARTESIAN_POINT('',(0.,1.09605888523688E-14,89.5));
#439=CARTESIAN_POINT('',(-0.25,1.09912050223475E-14,89.75));
#440=CARTESIAN_POINT('Origin',(0.,0.,0.));
#441=CARTESIAN_POINT('Origin',(0.,0.,90.));
#442=CARTESIAN_POINT('',(0.,0.,87.5));
#443=CARTESIAN_POINT('',(0.,-1.07156594925393E-14,-87.5));
#444=CARTESIAN_POINT('Origin',(0.,0.,0.));
#445=CARTESIAN_POINT('Origin',(0.,0.,0.));
#446=CARTESIAN_POINT('Origin',(-2.25,0.,0.));
#447=CARTESIAN_POINT('',(-4.5,0.,90.));
#448=CARTESIAN_POINT('',(-4.5,-1.10218211923262E-14,-90.));
#449=CARTESIAN_POINT('Origin',(-4.5,0.,0.));
#450=CARTESIAN_POINT('Origin',(-4.5,0.,0.));
#451=CARTESIAN_POINT('',(-2.25,-1.10218211923262E-14,-90.));
#452=CARTESIAN_POINT('Origin',(0.,0.,81.5));
#453=CARTESIAN_POINT('',(0.,0.,81.5));
#454=CARTESIAN_POINT('',(0.,-9.98087141305093E-15,-81.5));
#455=CARTESIAN_POINT('Origin',(0.,0.,0.));
#456=CARTESIAN_POINT('Origin',(0.,0.,0.));
#457=CARTESIAN_POINT('Origin',(-1.,0.,0.));
#458=CARTESIAN_POINT('',(-2.,0.,81.5));
#459=CARTESIAN_POINT('',(-2.,-9.98087141305093E-15,-81.5));
#460=CARTESIAN_POINT('Origin',(-2.,0.,0.));
#461=CARTESIAN_POINT('Origin',(-2.,0.,0.));
#462=CARTESIAN_POINT('',(-1.,-9.98087141305093E-15,-81.5));
#463=CARTESIAN_POINT('Origin',(-2.,0.,87.5));
#464=CARTESIAN_POINT('',(-2.,0.,87.5));
#465=CARTESIAN_POINT('',(-2.,-1.07156594925393E-14,-87.5));
#466=CARTESIAN_POINT('Origin',(-2.,0.,0.));
#467=CARTESIAN_POINT('Origin',(-2.,0.,0.));
#468=CARTESIAN_POINT('Origin',(-1.,0.,0.));
#469=CARTESIAN_POINT('',(-1.,-1.07156594925393E-14,-87.5));
#470=CARTESIAN_POINT('Origin',(-7.,0.,0.));
#471=CARTESIAN_POINT('Origin',(-7.,-1.10218211923262E-14,-90.));
#472=CARTESIAN_POINT('Origin',(-9.7,0.,0.));
#473=CARTESIAN_POINT('',(-7.4,-9.36854801347725E-15,-76.5));
#474=CARTESIAN_POINT('',(-9.7,-9.36854801347725E-15,-76.5));
#475=CARTESIAN_POINT('',(-7.4,0.,76.5));
#476=CARTESIAN_POINT('Origin',(-7.4,0.,0.));
#477=CARTESIAN_POINT('Origin',(-7.4,0.,0.));
#478=CARTESIAN_POINT('Origin',(-7.4,0.,71.6));
#479=CARTESIAN_POINT('',(-7.4,0.,71.6));
#480=CARTESIAN_POINT('',(-7.4,-8.76847108189505E-15,-71.6));
#481=CARTESIAN_POINT('Origin',(-7.4,0.,0.));
#482=CARTESIAN_POINT('Origin',(-7.4,0.,0.));
#483=CARTESIAN_POINT('Origin',(-9.7,0.,0.));
#484=CARTESIAN_POINT('',(-12.,0.,71.6));
#485=CARTESIAN_POINT('',(-12.,-8.76847108189505E-15,-71.6));
#486=CARTESIAN_POINT('Origin',(-12.,0.,0.));
#487=CARTESIAN_POINT('Origin',(-12.,0.,0.));
#488=CARTESIAN_POINT('',(-9.7,-8.76847108189505E-15,-71.6));
#489=CARTESIAN_POINT('Origin',(-12.,0.,0.));
#490=UNCERTAINTY_MEASURE_WITH_UNIT(LENGTH_MEASURE(0.01),#494,
'DISTANCE_ACCURACY_VALUE',
'Maximum model space distance between geometric entities at asserted c
onnectivities');
#491=UNCERTAINTY_MEASURE_WITH_UNIT(LENGTH_MEASURE(0.01),#494,
'DISTANCE_ACCURACY_VALUE',
'Maximum model space distance between geometric entities at asserted c
onnectivities');
#492=(
GEOMETRIC_REPRESENTATION_CONTEXT(3)
GLOBAL_UNCERTAINTY_ASSIGNED_CONTEXT((#490))
GLOBAL_UNIT_ASSIGNED_CONTEXT((#494,#497,#496))
REPRESENTATION_CONTEXT('','3D')
);
#493=(
GEOMETRIC_REPRESENTATION_CONTEXT(3)
GLOBAL_UNCERTAINTY_ASSIGNED_CONTEXT((#491))
GLOBAL_UNIT_ASSIGNED_CONTEXT((#494,#497,#496))
REPRESENTATION_CONTEXT('','3D')
);
#494=(
LENGTH_UNIT()
NAMED_UNIT(*)
SI_UNIT(.MILLI.,.METRE.)
);
#495=(
LENGTH_UNIT()
NAMED_UNIT(*)
SI_UNIT(.CENTI.,.METRE.)
);
#496=(
NAMED_UNIT(*)
SI_UNIT($,.STERADIAN.)
SOLID_ANGLE_UNIT()
);
#497=(
NAMED_UNIT(*)
PLANE_ANGLE_UNIT()
SI_UNIT($,.RADIAN.)
);
#498=SHAPE_DEFINITION_REPRESENTATION(#499,#500);
#499=PRODUCT_DEFINITION_SHAPE('',$,#502);
#500=SHAPE_REPRESENTATION('',(#276),#492);
#501=PRODUCT_DEFINITION_CONTEXT('part definition',#506,'design');
#502=PRODUCT_DEFINITION('FL-A160LF','FL-A160LF',#503,#501);
#503=PRODUCT_DEFINITION_FORMATION('',$,#508);
#504=PRODUCT_RELATED_PRODUCT_CATEGORY('FL-A160LF','FL-A160LF',(#508));
#505=APPLICATION_PROTOCOL_DEFINITION('international standard',
'automotive_design',2009,#506);
#506=APPLICATION_CONTEXT(
'Core Data for Automotive Mechanical Design Process');
#507=PRODUCT_CONTEXT('part definition',#506,'mechanical');
#508=PRODUCT('FL-A160LF','FL-A160LF',$,(#507));
#509=PRESENTATION_STYLE_ASSIGNMENT((#510));
#510=SURFACE_STYLE_USAGE(.BOTH.,#511);
#511=SURFACE_SIDE_STYLE('',(#512));
#512=SURFACE_STYLE_FILL_AREA(#513);
#513=FILL_AREA_STYLE('',(#514));
#514=FILL_AREA_STYLE_COLOUR('',#515);
#515=COLOUR_RGB('',0.996078431372549,0.996078431372549,1.);
ENDSEC;
END-ISO-10303-21;
