ISO-10303-21;
HEADER;
/* Generated by software containing ST-Developer
 * from STEP Tools, Inc. (www.steptools.com) 
 */

FILE_DESCRIPTION(
/* description */ (''),
/* implementation_level */ '2;1');

FILE_NAME(
/* name */ 'G:\\Flanges + FITTINGS\\NW10KF\\Step files\\FL-A10KF.stp',
/* time_stamp */ '2018-03-09T14:07:29+00:00',
/* author */ ('paul'),
/* organization */ (''),
/* preprocessor_version */ 'ST-DEVELOPER v17',
/* originating_system */ 'Autodesk Inventor 2018',
/* authorisation */ '');

FILE_SCHEMA (('AUTOMOTIVE_DESIGN { 1 0 10303 214 3 1 1 }'));
ENDSEC;

DATA;
#10=MECHANICAL_DESIGN_GEOMETRIC_PRESENTATION_REPRESENTATION('',(#13),#212);
#11=SHAPE_REPRESENTATION_RELATIONSHIP('SRR','None',#219,#12);
#12=ADVANCED_BREP_SHAPE_REPRESENTATION('',(#14),#211);
#13=STYLED_ITEM('',(#228),#14);
#14=MANIFOLD_SOLID_BREP('Solid1',#106);
#15=FACE_BOUND('',#32,.T.);
#16=PLANE('',#134);
#17=PLANE('',#135);
#18=PLANE('',#141);
#19=CONICAL_SURFACE('',#131,11.2679491924311,1.30899693899575);
#20=FACE_OUTER_BOUND('',#26,.T.);
#21=FACE_OUTER_BOUND('',#27,.T.);
#22=FACE_OUTER_BOUND('',#28,.T.);
#23=FACE_OUTER_BOUND('',#29,.T.);
#24=FACE_OUTER_BOUND('',#30,.T.);
#25=FACE_OUTER_BOUND('',#31,.T.);
#26=EDGE_LOOP('',(#72,#73,#74,#75,#76,#77));
#27=EDGE_LOOP('',(#78,#79,#80,#81,#82,#83));
#28=EDGE_LOOP('',(#84,#85));
#29=EDGE_LOOP('',(#86,#87));
#30=EDGE_LOOP('',(#88,#89,#90,#91,#92,#93));
#31=EDGE_LOOP('',(#94,#95));
#32=EDGE_LOOP('',(#96,#97));
#33=LINE('',#186,#36);
#34=LINE('',#195,#37);
#35=LINE('',#204,#38);
#36=VECTOR('',#150,15.);
#37=VECTOR('',#161,11.2679491924311);
#38=VECTOR('',#172,6.1);
#39=CIRCLE('',#127,15.);
#40=CIRCLE('',#128,15.);
#41=CIRCLE('',#129,15.);
#42=CIRCLE('',#130,15.);
#43=CIRCLE('',#132,7.53589838486224);
#44=CIRCLE('',#133,7.53589838486224);
#45=CIRCLE('',#136,6.1);
#46=CIRCLE('',#137,6.1);
#47=CIRCLE('',#139,6.1);
#48=CIRCLE('',#140,6.1);
#49=VERTEX_POINT('',#181);
#50=VERTEX_POINT('',#182);
#51=VERTEX_POINT('',#185);
#52=VERTEX_POINT('',#187);
#53=VERTEX_POINT('',#191);
#54=VERTEX_POINT('',#192);
#55=VERTEX_POINT('',#198);
#56=VERTEX_POINT('',#199);
#57=VERTEX_POINT('',#203);
#58=VERTEX_POINT('',#205);
#59=EDGE_CURVE('',#49,#50,#39,.T.);
#60=EDGE_CURVE('',#50,#49,#40,.T.);
#61=EDGE_CURVE('',#50,#51,#33,.T.);
#62=EDGE_CURVE('',#51,#52,#41,.T.);
#63=EDGE_CURVE('',#52,#51,#42,.T.);
#64=EDGE_CURVE('',#53,#54,#43,.T.);
#65=EDGE_CURVE('',#54,#53,#44,.T.);
#66=EDGE_CURVE('',#54,#50,#34,.T.);
#67=EDGE_CURVE('',#55,#56,#45,.T.);
#68=EDGE_CURVE('',#56,#55,#46,.T.);
#69=EDGE_CURVE('',#56,#57,#35,.T.);
#70=EDGE_CURVE('',#58,#57,#47,.T.);
#71=EDGE_CURVE('',#57,#58,#48,.T.);
#72=ORIENTED_EDGE('',*,*,#59,.F.);
#73=ORIENTED_EDGE('',*,*,#60,.F.);
#74=ORIENTED_EDGE('',*,*,#61,.T.);
#75=ORIENTED_EDGE('',*,*,#62,.T.);
#76=ORIENTED_EDGE('',*,*,#63,.T.);
#77=ORIENTED_EDGE('',*,*,#61,.F.);
#78=ORIENTED_EDGE('',*,*,#64,.F.);
#79=ORIENTED_EDGE('',*,*,#65,.F.);
#80=ORIENTED_EDGE('',*,*,#66,.T.);
#81=ORIENTED_EDGE('',*,*,#60,.T.);
#82=ORIENTED_EDGE('',*,*,#59,.T.);
#83=ORIENTED_EDGE('',*,*,#66,.F.);
#84=ORIENTED_EDGE('',*,*,#64,.T.);
#85=ORIENTED_EDGE('',*,*,#65,.T.);
#86=ORIENTED_EDGE('',*,*,#67,.F.);
#87=ORIENTED_EDGE('',*,*,#68,.F.);
#88=ORIENTED_EDGE('',*,*,#67,.T.);
#89=ORIENTED_EDGE('',*,*,#69,.T.);
#90=ORIENTED_EDGE('',*,*,#70,.F.);
#91=ORIENTED_EDGE('',*,*,#71,.F.);
#92=ORIENTED_EDGE('',*,*,#69,.F.);
#93=ORIENTED_EDGE('',*,*,#68,.T.);
#94=ORIENTED_EDGE('',*,*,#63,.F.);
#95=ORIENTED_EDGE('',*,*,#62,.F.);
#96=ORIENTED_EDGE('',*,*,#70,.T.);
#97=ORIENTED_EDGE('',*,*,#71,.T.);
#98=CYLINDRICAL_SURFACE('',#126,15.);
#99=CYLINDRICAL_SURFACE('',#138,6.1);
#100=ADVANCED_FACE('',(#20),#98,.T.);
#101=ADVANCED_FACE('',(#21),#19,.T.);
#102=ADVANCED_FACE('',(#22),#16,.T.);
#103=ADVANCED_FACE('',(#23),#17,.T.);
#104=ADVANCED_FACE('',(#24),#99,.F.);
#105=ADVANCED_FACE('',(#25,#15),#18,.T.);
#106=CLOSED_SHELL('',(#100,#101,#102,#103,#104,#105));
#107=DERIVED_UNIT_ELEMENT(#109,1.);
#108=DERIVED_UNIT_ELEMENT(#214,3.);
#109=(
MASS_UNIT()
NAMED_UNIT(*)
SI_UNIT($,.GRAM.)
);
#110=DERIVED_UNIT((#107,#108));
#111=MEASURE_REPRESENTATION_ITEM('density measure',
POSITIVE_RATIO_MEASURE(2.7),#110);
#112=PROPERTY_DEFINITION_REPRESENTATION(#117,#114);
#113=PROPERTY_DEFINITION_REPRESENTATION(#118,#115);
#114=REPRESENTATION('material name',(#116),#211);
#115=REPRESENTATION('density',(#111),#211);
#116=DESCRIPTIVE_REPRESENTATION_ITEM('Aluminum 6061','Aluminum 6061');
#117=PROPERTY_DEFINITION('material property','material name',#221);
#118=PROPERTY_DEFINITION('material property','density of part',#221);
#119=DATE_TIME_ROLE('creation_date');
#120=APPLIED_DATE_AND_TIME_ASSIGNMENT(#121,#119,(#221));
#121=DATE_AND_TIME(#122,#123);
#122=CALENDAR_DATE(2014,20,11);
#123=LOCAL_TIME(11,0,44.,#124);
#124=COORDINATED_UNIVERSAL_TIME_OFFSET(0,0,.BEHIND.);
#125=AXIS2_PLACEMENT_3D('placement',#179,#142,#143);
#126=AXIS2_PLACEMENT_3D('',#180,#144,#145);
#127=AXIS2_PLACEMENT_3D('',#183,#146,#147);
#128=AXIS2_PLACEMENT_3D('',#184,#148,#149);
#129=AXIS2_PLACEMENT_3D('',#188,#151,#152);
#130=AXIS2_PLACEMENT_3D('',#189,#153,#154);
#131=AXIS2_PLACEMENT_3D('',#190,#155,#156);
#132=AXIS2_PLACEMENT_3D('',#193,#157,#158);
#133=AXIS2_PLACEMENT_3D('',#194,#159,#160);
#134=AXIS2_PLACEMENT_3D('',#196,#162,#163);
#135=AXIS2_PLACEMENT_3D('',#197,#164,#165);
#136=AXIS2_PLACEMENT_3D('',#200,#166,#167);
#137=AXIS2_PLACEMENT_3D('',#201,#168,#169);
#138=AXIS2_PLACEMENT_3D('',#202,#170,#171);
#139=AXIS2_PLACEMENT_3D('',#206,#173,#174);
#140=AXIS2_PLACEMENT_3D('',#207,#175,#176);
#141=AXIS2_PLACEMENT_3D('',#208,#177,#178);
#142=DIRECTION('axis',(0.,0.,1.));
#143=DIRECTION('refdir',(1.,0.,0.));
#144=DIRECTION('center_axis',(0.,1.,0.));
#145=DIRECTION('ref_axis',(-1.,0.,0.));
#146=DIRECTION('center_axis',(0.,1.,0.));
#147=DIRECTION('ref_axis',(1.,0.,0.));
#148=DIRECTION('center_axis',(0.,1.,0.));
#149=DIRECTION('ref_axis',(1.,0.,0.));
#150=DIRECTION('',(0.,-1.,0.));
#151=DIRECTION('center_axis',(0.,1.,0.));
#152=DIRECTION('ref_axis',(1.,0.,0.));
#153=DIRECTION('center_axis',(0.,1.,0.));
#154=DIRECTION('ref_axis',(1.,0.,0.));
#155=DIRECTION('center_axis',(0.,-1.,0.));
#156=DIRECTION('ref_axis',(-1.,0.,0.));
#157=DIRECTION('center_axis',(0.,1.,0.));
#158=DIRECTION('ref_axis',(1.,0.,0.));
#159=DIRECTION('center_axis',(0.,1.,0.));
#160=DIRECTION('ref_axis',(1.,0.,0.));
#161=DIRECTION('',(0.965925826289068,-0.258819045102521,-1.18291797137867E-16));
#162=DIRECTION('center_axis',(0.,1.,0.));
#163=DIRECTION('ref_axis',(0.,0.,1.));
#164=DIRECTION('center_axis',(0.,-1.,0.));
#165=DIRECTION('ref_axis',(0.,0.,-1.));
#166=DIRECTION('center_axis',(0.,1.,0.));
#167=DIRECTION('ref_axis',(1.,0.,0.));
#168=DIRECTION('center_axis',(0.,1.,0.));
#169=DIRECTION('ref_axis',(1.,0.,0.));
#170=DIRECTION('center_axis',(0.,1.,0.));
#171=DIRECTION('ref_axis',(-1.,0.,0.));
#172=DIRECTION('',(0.,-1.,0.));
#173=DIRECTION('center_axis',(0.,1.,0.));
#174=DIRECTION('ref_axis',(1.,0.,0.));
#175=DIRECTION('center_axis',(0.,1.,0.));
#176=DIRECTION('ref_axis',(1.,0.,0.));
#177=DIRECTION('center_axis',(0.,-1.,0.));
#178=DIRECTION('ref_axis',(0.,0.,-1.));
#179=CARTESIAN_POINT('',(0.,0.,0.));
#180=CARTESIAN_POINT('Origin',(0.,1.5,0.));
#181=CARTESIAN_POINT('',(-15.,3.,0.));
#182=CARTESIAN_POINT('',(15.,3.,-1.83697019872103E-15));
#183=CARTESIAN_POINT('Origin',(0.,3.,0.));
#184=CARTESIAN_POINT('Origin',(0.,3.,0.));
#185=CARTESIAN_POINT('',(15.,0.,-1.83697019872103E-15));
#186=CARTESIAN_POINT('',(15.,1.5,-1.83697019872103E-15));
#187=CARTESIAN_POINT('',(-15.,0.,0.));
#188=CARTESIAN_POINT('Origin',(0.,0.,0.));
#189=CARTESIAN_POINT('Origin',(0.,0.,0.));
#190=CARTESIAN_POINT('Origin',(0.,4.,0.));
#191=CARTESIAN_POINT('',(-7.53589838486224,5.,0.));
#192=CARTESIAN_POINT('',(7.53589838486223,5.,-9.22881383572125E-16));
#193=CARTESIAN_POINT('Origin',(0.,5.,0.));
#194=CARTESIAN_POINT('Origin',(0.,5.,0.));
#195=CARTESIAN_POINT('',(11.2679491924311,4.,-1.37992579114658E-15));
#196=CARTESIAN_POINT('Origin',(0.,5.,0.));
#197=CARTESIAN_POINT('Origin',(-6.1,2.5,0.));
#198=CARTESIAN_POINT('',(-6.1,2.5,0.));
#199=CARTESIAN_POINT('',(6.1,2.5,-7.47034547479885E-16));
#200=CARTESIAN_POINT('Origin',(0.,2.5,0.));
#201=CARTESIAN_POINT('Origin',(0.,2.5,0.));
#202=CARTESIAN_POINT('Origin',(0.,1.25,0.));
#203=CARTESIAN_POINT('',(6.1,2.77555756156289E-16,-7.47034547479885E-16));
#204=CARTESIAN_POINT('',(6.1,1.25,-7.47034547479885E-16));
#205=CARTESIAN_POINT('',(-6.1,2.77555756156289E-16,0.));
#206=CARTESIAN_POINT('Origin',(0.,2.77555756156289E-16,0.));
#207=CARTESIAN_POINT('Origin',(0.,2.77555756156289E-16,0.));
#208=CARTESIAN_POINT('Origin',(-15.,0.,0.));
#209=UNCERTAINTY_MEASURE_WITH_UNIT(LENGTH_MEASURE(0.01),#213,
'DISTANCE_ACCURACY_VALUE',
'Maximum model space distance between geometric entities at asserted c
onnectivities');
#210=UNCERTAINTY_MEASURE_WITH_UNIT(LENGTH_MEASURE(0.01),#213,
'DISTANCE_ACCURACY_VALUE',
'Maximum model space distance between geometric entities at asserted c
onnectivities');
#211=(
GEOMETRIC_REPRESENTATION_CONTEXT(3)
GLOBAL_UNCERTAINTY_ASSIGNED_CONTEXT((#209))
GLOBAL_UNIT_ASSIGNED_CONTEXT((#213,#216,#215))
REPRESENTATION_CONTEXT('','3D')
);
#212=(
GEOMETRIC_REPRESENTATION_CONTEXT(3)
GLOBAL_UNCERTAINTY_ASSIGNED_CONTEXT((#210))
GLOBAL_UNIT_ASSIGNED_CONTEXT((#213,#216,#215))
REPRESENTATION_CONTEXT('','3D')
);
#213=(
LENGTH_UNIT()
NAMED_UNIT(*)
SI_UNIT(.MILLI.,.METRE.)
);
#214=(
LENGTH_UNIT()
NAMED_UNIT(*)
SI_UNIT(.CENTI.,.METRE.)
);
#215=(
NAMED_UNIT(*)
SI_UNIT($,.STERADIAN.)
SOLID_ANGLE_UNIT()
);
#216=(
NAMED_UNIT(*)
PLANE_ANGLE_UNIT()
SI_UNIT($,.RADIAN.)
);
#217=SHAPE_DEFINITION_REPRESENTATION(#218,#219);
#218=PRODUCT_DEFINITION_SHAPE('',$,#221);
#219=SHAPE_REPRESENTATION('',(#125),#211);
#220=PRODUCT_DEFINITION_CONTEXT('part definition',#225,'design');
#221=PRODUCT_DEFINITION('FL-A10KF','FL-A10KF',#222,#220);
#222=PRODUCT_DEFINITION_FORMATION('',$,#227);
#223=PRODUCT_RELATED_PRODUCT_CATEGORY('FL-A10KF','FL-A10KF',(#227));
#224=APPLICATION_PROTOCOL_DEFINITION('international standard',
'automotive_design',2009,#225);
#225=APPLICATION_CONTEXT(
'Core Data for Automotive Mechanical Design Process');
#226=PRODUCT_CONTEXT('part definition',#225,'mechanical');
#227=PRODUCT('FL-A10KF','FL-A10KF',$,(#226));
#228=PRESENTATION_STYLE_ASSIGNMENT((#229));
#229=SURFACE_STYLE_USAGE(.BOTH.,#230);
#230=SURFACE_SIDE_STYLE('',(#231));
#231=SURFACE_STYLE_FILL_AREA(#232);
#232=FILL_AREA_STYLE('',(#233));
#233=FILL_AREA_STYLE_COLOUR('',#234);
#234=COLOUR_RGB('',0.996078431372549,0.996078431372549,1.);
ENDSEC;
END-ISO-10303-21;
