ISO-10303-21;
HEADER;
/* Generated by software containing ST-Developer
 * from STEP Tools, Inc. (www.steptools.com) 
 */

FILE_DESCRIPTION(
/* description */ (''),
/* implementation_level */ '2;1');

FILE_NAME(
/* name */ 'G:\\FLANGES & FITTINGS\\NW63LF\\Step files\\FL-63LF.stp',
/* time_stamp */ '2018-07-09T11:19:57+01:00',
/* author */ ('paul'),
/* organization */ (''),
/* preprocessor_version */ 'ST-DEVELOPER v17',
/* originating_system */ 'Autodesk Inventor 2019',
/* authorisation */ '');

FILE_SCHEMA (('AUTOMOTIVE_DESIGN { 1 0 10303 214 3 1 1 }'));
ENDSEC;

DATA;
#10=MECHANICAL_DESIGN_GEOMETRIC_PRESENTATION_REPRESENTATION('',(#13),#538);
#11=SHAPE_REPRESENTATION_RELATIONSHIP('SRR','None',#545,#12);
#12=ADVANCED_BREP_SHAPE_REPRESENTATION('',(#14),#537);
#13=STYLED_ITEM('',(#554),#14);
#14=MANIFOLD_SOLID_BREP('Solid1',#281);
#15=TOROIDAL_SURFACE('',#328,47.5803908285227,1.5);
#16=CYLINDRICAL_SURFACE('',#308,47.5);
#17=CYLINDRICAL_SURFACE('',#318,47.5);
#18=CYLINDRICAL_SURFACE('',#325,45.);
#19=CYLINDRICAL_SURFACE('',#333,39.);
#20=CYLINDRICAL_SURFACE('',#340,30.1);
#21=CYLINDRICAL_SURFACE('',#346,35.);
#22=FACE_BOUND('',#50,.T.);
#23=FACE_BOUND('',#54,.T.);
#24=FACE_BOUND('',#60,.T.);
#25=FACE_BOUND('',#66,.T.);
#26=PLANE('',#305);
#27=PLANE('',#316);
#28=PLANE('',#330);
#29=PLANE('',#336);
#30=PLANE('',#337);
#31=PLANE('',#343);
#32=FACE_OUTER_BOUND('',#48,.T.);
#33=FACE_OUTER_BOUND('',#49,.T.);
#34=FACE_OUTER_BOUND('',#51,.T.);
#35=FACE_OUTER_BOUND('',#52,.T.);
#36=FACE_OUTER_BOUND('',#53,.T.);
#37=FACE_OUTER_BOUND('',#55,.T.);
#38=FACE_OUTER_BOUND('',#56,.T.);
#39=FACE_OUTER_BOUND('',#57,.T.);
#40=FACE_OUTER_BOUND('',#58,.T.);
#41=FACE_OUTER_BOUND('',#59,.T.);
#42=FACE_OUTER_BOUND('',#61,.T.);
#43=FACE_OUTER_BOUND('',#62,.T.);
#44=FACE_OUTER_BOUND('',#63,.T.);
#45=FACE_OUTER_BOUND('',#64,.T.);
#46=FACE_OUTER_BOUND('',#65,.T.);
#47=FACE_OUTER_BOUND('',#67,.T.);
#48=EDGE_LOOP('',(#184,#185,#186,#187,#188));
#49=EDGE_LOOP('',(#189));
#50=EDGE_LOOP('',(#190,#191));
#51=EDGE_LOOP('',(#192,#193,#194,#195,#196,#197,#198));
#52=EDGE_LOOP('',(#199,#200,#201,#202,#203));
#53=EDGE_LOOP('',(#204));
#54=EDGE_LOOP('',(#205));
#55=EDGE_LOOP('',(#206,#207,#208,#209,#210,#211,#212));
#56=EDGE_LOOP('',(#213,#214,#215,#216,#217));
#57=EDGE_LOOP('',(#218,#219,#220,#221,#222,#223));
#58=EDGE_LOOP('',(#224,#225,#226,#227,#228,#229,#230,#231));
#59=EDGE_LOOP('',(#232,#233));
#60=EDGE_LOOP('',(#234,#235));
#61=EDGE_LOOP('',(#236,#237,#238,#239,#240,#241));
#62=EDGE_LOOP('',(#242,#243));
#63=EDGE_LOOP('',(#244,#245));
#64=EDGE_LOOP('',(#246,#247,#248,#249,#250,#251));
#65=EDGE_LOOP('',(#252,#253));
#66=EDGE_LOOP('',(#254,#255));
#67=EDGE_LOOP('',(#256,#257,#258,#259,#260,#261));
#68=LINE('',#457,#77);
#69=LINE('',#471,#78);
#70=LINE('',#476,#79);
#71=LINE('',#485,#80);
#72=LINE('',#496,#81);
#73=LINE('',#499,#82);
#74=LINE('',#515,#83);
#75=LINE('',#527,#84);
#76=LINE('',#534,#85);
#77=VECTOR('',#355,47.25);
#78=VECTOR('',#372,47.5);
#79=VECTOR('',#377,47.25);
#80=VECTOR('',#388,47.5);
#81=VECTOR('',#401,45.25);
#82=VECTOR('',#404,45.);
#83=VECTOR('',#425,39.);
#84=VECTOR('',#440,30.1);
#85=VECTOR('',#449,35.);
#86=CIRCLE('',#302,47.5);
#87=CIRCLE('',#303,47.5);
#88=CIRCLE('',#304,47.);
#89=CIRCLE('',#306,35.);
#90=CIRCLE('',#307,35.);
#91=CIRCLE('',#309,47.5);
#92=CIRCLE('',#310,47.5);
#93=CIRCLE('',#311,47.5);
#94=CIRCLE('',#313,47.);
#95=CIRCLE('',#314,47.5);
#96=CIRCLE('',#315,47.5);
#97=CIRCLE('',#317,45.5);
#98=CIRCLE('',#319,47.5);
#99=CIRCLE('',#320,47.5);
#100=CIRCLE('',#321,47.5);
#101=CIRCLE('',#323,45.);
#102=CIRCLE('',#324,45.);
#103=CIRCLE('',#326,45.);
#104=CIRCLE('',#327,45.);
#105=CIRCLE('',#329,1.5);
#106=CIRCLE('',#331,39.);
#107=CIRCLE('',#332,39.);
#108=CIRCLE('',#334,39.);
#109=CIRCLE('',#335,39.);
#110=CIRCLE('',#338,30.1);
#111=CIRCLE('',#339,30.1);
#112=CIRCLE('',#341,30.1);
#113=CIRCLE('',#342,30.1);
#114=CIRCLE('',#344,35.);
#115=CIRCLE('',#345,35.);
#116=VERTEX_POINT('',#452);
#117=VERTEX_POINT('',#453);
#118=VERTEX_POINT('',#456);
#119=VERTEX_POINT('',#460);
#120=VERTEX_POINT('',#461);
#121=VERTEX_POINT('',#465);
#122=VERTEX_POINT('',#466);
#123=VERTEX_POINT('',#468);
#124=VERTEX_POINT('',#473);
#125=VERTEX_POINT('',#475);
#126=VERTEX_POINT('',#477);
#127=VERTEX_POINT('',#481);
#128=VERTEX_POINT('',#484);
#129=VERTEX_POINT('',#486);
#130=VERTEX_POINT('',#488);
#131=VERTEX_POINT('',#492);
#132=VERTEX_POINT('',#493);
#133=VERTEX_POINT('',#498);
#134=VERTEX_POINT('',#500);
#135=VERTEX_POINT('',#506);
#136=VERTEX_POINT('',#507);
#137=VERTEX_POINT('',#511);
#138=VERTEX_POINT('',#512);
#139=VERTEX_POINT('',#518);
#140=VERTEX_POINT('',#519);
#141=VERTEX_POINT('',#523);
#142=VERTEX_POINT('',#524);
#143=VERTEX_POINT('',#529);
#144=VERTEX_POINT('',#530);
#145=EDGE_CURVE('',#116,#117,#86,.T.);
#146=EDGE_CURVE('',#117,#116,#87,.T.);
#147=EDGE_CURVE('',#116,#118,#68,.T.);
#148=EDGE_CURVE('',#118,#118,#88,.T.);
#149=EDGE_CURVE('',#119,#120,#89,.T.);
#150=EDGE_CURVE('',#120,#119,#90,.T.);
#151=EDGE_CURVE('',#121,#122,#91,.T.);
#152=EDGE_CURVE('',#123,#121,#92,.T.);
#153=EDGE_CURVE('',#122,#123,#93,.T.);
#154=EDGE_CURVE('',#122,#117,#69,.T.);
#155=EDGE_CURVE('',#124,#124,#94,.T.);
#156=EDGE_CURVE('',#124,#125,#70,.T.);
#157=EDGE_CURVE('',#125,#126,#95,.T.);
#158=EDGE_CURVE('',#126,#125,#96,.T.);
#159=EDGE_CURVE('',#127,#127,#97,.T.);
#160=EDGE_CURVE('',#126,#128,#71,.T.);
#161=EDGE_CURVE('',#128,#129,#98,.T.);
#162=EDGE_CURVE('',#129,#130,#99,.T.);
#163=EDGE_CURVE('',#130,#128,#100,.T.);
#164=EDGE_CURVE('',#131,#132,#101,.T.);
#165=EDGE_CURVE('',#132,#131,#102,.T.);
#166=EDGE_CURVE('',#131,#127,#72,.T.);
#167=EDGE_CURVE('',#132,#133,#73,.T.);
#168=EDGE_CURVE('',#134,#133,#103,.T.);
#169=EDGE_CURVE('',#133,#134,#104,.T.);
#170=EDGE_CURVE('',#123,#129,#105,.T.);
#171=EDGE_CURVE('',#135,#136,#106,.T.);
#172=EDGE_CURVE('',#136,#135,#107,.T.);
#173=EDGE_CURVE('',#137,#138,#108,.T.);
#174=EDGE_CURVE('',#138,#137,#109,.T.);
#175=EDGE_CURVE('',#138,#136,#74,.T.);
#176=EDGE_CURVE('',#139,#140,#110,.T.);
#177=EDGE_CURVE('',#140,#139,#111,.T.);
#178=EDGE_CURVE('',#141,#142,#112,.T.);
#179=EDGE_CURVE('',#142,#141,#113,.T.);
#180=EDGE_CURVE('',#142,#140,#75,.T.);
#181=EDGE_CURVE('',#143,#144,#114,.T.);
#182=EDGE_CURVE('',#144,#143,#115,.T.);
#183=EDGE_CURVE('',#144,#120,#76,.T.);
#184=ORIENTED_EDGE('',*,*,#145,.T.);
#185=ORIENTED_EDGE('',*,*,#146,.T.);
#186=ORIENTED_EDGE('',*,*,#147,.T.);
#187=ORIENTED_EDGE('',*,*,#148,.T.);
#188=ORIENTED_EDGE('',*,*,#147,.F.);
#189=ORIENTED_EDGE('',*,*,#148,.F.);
#190=ORIENTED_EDGE('',*,*,#149,.T.);
#191=ORIENTED_EDGE('',*,*,#150,.T.);
#192=ORIENTED_EDGE('',*,*,#151,.F.);
#193=ORIENTED_EDGE('',*,*,#152,.F.);
#194=ORIENTED_EDGE('',*,*,#153,.F.);
#195=ORIENTED_EDGE('',*,*,#154,.T.);
#196=ORIENTED_EDGE('',*,*,#145,.F.);
#197=ORIENTED_EDGE('',*,*,#146,.F.);
#198=ORIENTED_EDGE('',*,*,#154,.F.);
#199=ORIENTED_EDGE('',*,*,#155,.T.);
#200=ORIENTED_EDGE('',*,*,#156,.T.);
#201=ORIENTED_EDGE('',*,*,#157,.T.);
#202=ORIENTED_EDGE('',*,*,#158,.T.);
#203=ORIENTED_EDGE('',*,*,#156,.F.);
#204=ORIENTED_EDGE('',*,*,#155,.F.);
#205=ORIENTED_EDGE('',*,*,#159,.F.);
#206=ORIENTED_EDGE('',*,*,#157,.F.);
#207=ORIENTED_EDGE('',*,*,#158,.F.);
#208=ORIENTED_EDGE('',*,*,#160,.T.);
#209=ORIENTED_EDGE('',*,*,#161,.T.);
#210=ORIENTED_EDGE('',*,*,#162,.T.);
#211=ORIENTED_EDGE('',*,*,#163,.T.);
#212=ORIENTED_EDGE('',*,*,#160,.F.);
#213=ORIENTED_EDGE('',*,*,#164,.T.);
#214=ORIENTED_EDGE('',*,*,#165,.T.);
#215=ORIENTED_EDGE('',*,*,#166,.T.);
#216=ORIENTED_EDGE('',*,*,#159,.T.);
#217=ORIENTED_EDGE('',*,*,#166,.F.);
#218=ORIENTED_EDGE('',*,*,#164,.F.);
#219=ORIENTED_EDGE('',*,*,#165,.F.);
#220=ORIENTED_EDGE('',*,*,#167,.T.);
#221=ORIENTED_EDGE('',*,*,#168,.F.);
#222=ORIENTED_EDGE('',*,*,#169,.F.);
#223=ORIENTED_EDGE('',*,*,#167,.F.);
#224=ORIENTED_EDGE('',*,*,#151,.T.);
#225=ORIENTED_EDGE('',*,*,#153,.T.);
#226=ORIENTED_EDGE('',*,*,#170,.T.);
#227=ORIENTED_EDGE('',*,*,#161,.F.);
#228=ORIENTED_EDGE('',*,*,#163,.F.);
#229=ORIENTED_EDGE('',*,*,#162,.F.);
#230=ORIENTED_EDGE('',*,*,#170,.F.);
#231=ORIENTED_EDGE('',*,*,#152,.T.);
#232=ORIENTED_EDGE('',*,*,#168,.T.);
#233=ORIENTED_EDGE('',*,*,#169,.T.);
#234=ORIENTED_EDGE('',*,*,#171,.F.);
#235=ORIENTED_EDGE('',*,*,#172,.F.);
#236=ORIENTED_EDGE('',*,*,#173,.F.);
#237=ORIENTED_EDGE('',*,*,#174,.F.);
#238=ORIENTED_EDGE('',*,*,#175,.T.);
#239=ORIENTED_EDGE('',*,*,#172,.T.);
#240=ORIENTED_EDGE('',*,*,#171,.T.);
#241=ORIENTED_EDGE('',*,*,#175,.F.);
#242=ORIENTED_EDGE('',*,*,#173,.T.);
#243=ORIENTED_EDGE('',*,*,#174,.T.);
#244=ORIENTED_EDGE('',*,*,#176,.F.);
#245=ORIENTED_EDGE('',*,*,#177,.F.);
#246=ORIENTED_EDGE('',*,*,#178,.F.);
#247=ORIENTED_EDGE('',*,*,#179,.F.);
#248=ORIENTED_EDGE('',*,*,#180,.T.);
#249=ORIENTED_EDGE('',*,*,#177,.T.);
#250=ORIENTED_EDGE('',*,*,#176,.T.);
#251=ORIENTED_EDGE('',*,*,#180,.F.);
#252=ORIENTED_EDGE('',*,*,#181,.F.);
#253=ORIENTED_EDGE('',*,*,#182,.F.);
#254=ORIENTED_EDGE('',*,*,#178,.T.);
#255=ORIENTED_EDGE('',*,*,#179,.T.);
#256=ORIENTED_EDGE('',*,*,#181,.T.);
#257=ORIENTED_EDGE('',*,*,#183,.T.);
#258=ORIENTED_EDGE('',*,*,#149,.F.);
#259=ORIENTED_EDGE('',*,*,#150,.F.);
#260=ORIENTED_EDGE('',*,*,#183,.F.);
#261=ORIENTED_EDGE('',*,*,#182,.T.);
#262=CONICAL_SURFACE('',#301,47.25,0.785398163397447);
#263=CONICAL_SURFACE('',#312,47.25,0.785398163397446);
#264=CONICAL_SURFACE('',#322,45.25,0.785398163397446);
#265=ADVANCED_FACE('',(#32),#262,.T.);
#266=ADVANCED_FACE('',(#33,#22),#26,.T.);
#267=ADVANCED_FACE('',(#34),#16,.T.);
#268=ADVANCED_FACE('',(#35),#263,.T.);
#269=ADVANCED_FACE('',(#36,#23),#27,.T.);
#270=ADVANCED_FACE('',(#37),#17,.T.);
#271=ADVANCED_FACE('',(#38),#264,.F.);
#272=ADVANCED_FACE('',(#39),#18,.F.);
#273=ADVANCED_FACE('',(#40),#15,.F.);
#274=ADVANCED_FACE('',(#41,#24),#28,.T.);
#275=ADVANCED_FACE('',(#42),#19,.T.);
#276=ADVANCED_FACE('',(#43),#29,.T.);
#277=ADVANCED_FACE('',(#44),#30,.T.);
#278=ADVANCED_FACE('',(#45),#20,.T.);
#279=ADVANCED_FACE('',(#46,#25),#31,.T.);
#280=ADVANCED_FACE('',(#47),#21,.F.);
#281=CLOSED_SHELL('',(#265,#266,#267,#268,#269,#270,#271,#272,#273,#274,
#275,#276,#277,#278,#279,#280));
#282=DERIVED_UNIT_ELEMENT(#284,1.);
#283=DERIVED_UNIT_ELEMENT(#540,3.);
#284=(
MASS_UNIT()
NAMED_UNIT(*)
SI_UNIT($,.GRAM.)
);
#285=DERIVED_UNIT((#282,#283));
#286=MEASURE_REPRESENTATION_ITEM('density measure',
POSITIVE_RATIO_MEASURE(8.),#285);
#287=PROPERTY_DEFINITION_REPRESENTATION(#292,#289);
#288=PROPERTY_DEFINITION_REPRESENTATION(#293,#290);
#289=REPRESENTATION('material name',(#291),#537);
#290=REPRESENTATION('density',(#286),#537);
#291=DESCRIPTIVE_REPRESENTATION_ITEM('Stainless Steel, Austenitic',
'Stainless Steel, Austenitic');
#292=PROPERTY_DEFINITION('material property','material name',#547);
#293=PROPERTY_DEFINITION('material property','density of part',#547);
#294=DATE_TIME_ROLE('creation_date');
#295=APPLIED_DATE_AND_TIME_ASSIGNMENT(#296,#294,(#547));
#296=DATE_AND_TIME(#297,#298);
#297=CALENDAR_DATE(2014,1,10);
#298=LOCAL_TIME(9,2,29.,#299);
#299=COORDINATED_UNIVERSAL_TIME_OFFSET(0,0,.BEHIND.);
#300=AXIS2_PLACEMENT_3D('placement',#450,#347,#348);
#301=AXIS2_PLACEMENT_3D('',#451,#349,#350);
#302=AXIS2_PLACEMENT_3D('',#454,#351,#352);
#303=AXIS2_PLACEMENT_3D('',#455,#353,#354);
#304=AXIS2_PLACEMENT_3D('',#458,#356,#357);
#305=AXIS2_PLACEMENT_3D('',#459,#358,#359);
#306=AXIS2_PLACEMENT_3D('',#462,#360,#361);
#307=AXIS2_PLACEMENT_3D('',#463,#362,#363);
#308=AXIS2_PLACEMENT_3D('',#464,#364,#365);
#309=AXIS2_PLACEMENT_3D('',#467,#366,#367);
#310=AXIS2_PLACEMENT_3D('',#469,#368,#369);
#311=AXIS2_PLACEMENT_3D('',#470,#370,#371);
#312=AXIS2_PLACEMENT_3D('',#472,#373,#374);
#313=AXIS2_PLACEMENT_3D('',#474,#375,#376);
#314=AXIS2_PLACEMENT_3D('',#478,#378,#379);
#315=AXIS2_PLACEMENT_3D('',#479,#380,#381);
#316=AXIS2_PLACEMENT_3D('',#480,#382,#383);
#317=AXIS2_PLACEMENT_3D('',#482,#384,#385);
#318=AXIS2_PLACEMENT_3D('',#483,#386,#387);
#319=AXIS2_PLACEMENT_3D('',#487,#389,#390);
#320=AXIS2_PLACEMENT_3D('',#489,#391,#392);
#321=AXIS2_PLACEMENT_3D('',#490,#393,#394);
#322=AXIS2_PLACEMENT_3D('',#491,#395,#396);
#323=AXIS2_PLACEMENT_3D('',#494,#397,#398);
#324=AXIS2_PLACEMENT_3D('',#495,#399,#400);
#325=AXIS2_PLACEMENT_3D('',#497,#402,#403);
#326=AXIS2_PLACEMENT_3D('',#501,#405,#406);
#327=AXIS2_PLACEMENT_3D('',#502,#407,#408);
#328=AXIS2_PLACEMENT_3D('',#503,#409,#410);
#329=AXIS2_PLACEMENT_3D('',#504,#411,#412);
#330=AXIS2_PLACEMENT_3D('',#505,#413,#414);
#331=AXIS2_PLACEMENT_3D('',#508,#415,#416);
#332=AXIS2_PLACEMENT_3D('',#509,#417,#418);
#333=AXIS2_PLACEMENT_3D('',#510,#419,#420);
#334=AXIS2_PLACEMENT_3D('',#513,#421,#422);
#335=AXIS2_PLACEMENT_3D('',#514,#423,#424);
#336=AXIS2_PLACEMENT_3D('',#516,#426,#427);
#337=AXIS2_PLACEMENT_3D('',#517,#428,#429);
#338=AXIS2_PLACEMENT_3D('',#520,#430,#431);
#339=AXIS2_PLACEMENT_3D('',#521,#432,#433);
#340=AXIS2_PLACEMENT_3D('',#522,#434,#435);
#341=AXIS2_PLACEMENT_3D('',#525,#436,#437);
#342=AXIS2_PLACEMENT_3D('',#526,#438,#439);
#343=AXIS2_PLACEMENT_3D('',#528,#441,#442);
#344=AXIS2_PLACEMENT_3D('',#531,#443,#444);
#345=AXIS2_PLACEMENT_3D('',#532,#445,#446);
#346=AXIS2_PLACEMENT_3D('',#533,#447,#448);
#347=DIRECTION('axis',(0.,0.,1.));
#348=DIRECTION('refdir',(1.,0.,0.));
#349=DIRECTION('center_axis',(0.,1.,0.));
#350=DIRECTION('ref_axis',(1.,0.,0.));
#351=DIRECTION('center_axis',(0.,-1.,0.));
#352=DIRECTION('ref_axis',(1.,0.,0.));
#353=DIRECTION('center_axis',(0.,-1.,0.));
#354=DIRECTION('ref_axis',(1.,0.,0.));
#355=DIRECTION('',(0.707106781186546,-0.707106781186549,-8.65956056235492E-17));
#356=DIRECTION('center_axis',(0.,1.,0.));
#357=DIRECTION('ref_axis',(1.,0.,0.));
#358=DIRECTION('center_axis',(0.,-1.,0.));
#359=DIRECTION('ref_axis',(0.,0.,-1.));
#360=DIRECTION('center_axis',(0.,1.,0.));
#361=DIRECTION('ref_axis',(1.,0.,0.));
#362=DIRECTION('center_axis',(0.,1.,0.));
#363=DIRECTION('ref_axis',(1.,0.,0.));
#364=DIRECTION('center_axis',(0.,1.,0.));
#365=DIRECTION('ref_axis',(-1.,0.,0.));
#366=DIRECTION('center_axis',(0.,1.,0.));
#367=DIRECTION('ref_axis',(1.,0.,0.));
#368=DIRECTION('center_axis',(0.,1.,0.));
#369=DIRECTION('ref_axis',(1.,0.,0.));
#370=DIRECTION('center_axis',(0.,1.,0.));
#371=DIRECTION('ref_axis',(1.,0.,0.));
#372=DIRECTION('',(0.,-1.,0.));
#373=DIRECTION('center_axis',(0.,-1.,0.));
#374=DIRECTION('ref_axis',(1.,0.,0.));
#375=DIRECTION('center_axis',(0.,-1.,0.));
#376=DIRECTION('ref_axis',(1.,0.,0.));
#377=DIRECTION('',(-0.707106781186546,-0.707106781186549,8.65956056235491E-17));
#378=DIRECTION('center_axis',(0.,1.,0.));
#379=DIRECTION('ref_axis',(1.,0.,0.));
#380=DIRECTION('center_axis',(0.,1.,0.));
#381=DIRECTION('ref_axis',(1.,0.,0.));
#382=DIRECTION('center_axis',(0.,1.,0.));
#383=DIRECTION('ref_axis',(0.,0.,1.));
#384=DIRECTION('center_axis',(0.,1.,0.));
#385=DIRECTION('ref_axis',(1.,0.,0.));
#386=DIRECTION('center_axis',(0.,1.,0.));
#387=DIRECTION('ref_axis',(-1.,0.,0.));
#388=DIRECTION('',(0.,-1.,0.));
#389=DIRECTION('center_axis',(0.,1.,0.));
#390=DIRECTION('ref_axis',(1.,0.,0.));
#391=DIRECTION('center_axis',(0.,1.,0.));
#392=DIRECTION('ref_axis',(1.,0.,0.));
#393=DIRECTION('center_axis',(0.,1.,0.));
#394=DIRECTION('ref_axis',(1.,0.,0.));
#395=DIRECTION('center_axis',(0.,1.,0.));
#396=DIRECTION('ref_axis',(1.,0.,0.));
#397=DIRECTION('center_axis',(0.,-1.,0.));
#398=DIRECTION('ref_axis',(1.,0.,0.));
#399=DIRECTION('center_axis',(0.,-1.,0.));
#400=DIRECTION('ref_axis',(1.,0.,0.));
#401=DIRECTION('',(-0.707106781186546,0.707106781186549,-8.65956056235492E-17));
#402=DIRECTION('center_axis',(0.,1.,0.));
#403=DIRECTION('ref_axis',(-1.,0.,0.));
#404=DIRECTION('',(0.,-1.,0.));
#405=DIRECTION('center_axis',(0.,1.,0.));
#406=DIRECTION('ref_axis',(1.,0.,0.));
#407=DIRECTION('center_axis',(0.,1.,0.));
#408=DIRECTION('ref_axis',(1.,0.,0.));
#409=DIRECTION('center_axis',(0.,1.,0.));
#410=DIRECTION('ref_axis',(0.,0.,1.));
#411=DIRECTION('center_axis',(-1.,0.,1.22464679914735E-16));
#412=DIRECTION('ref_axis',(-1.22464679914735E-16,0.,-1.));
#413=DIRECTION('center_axis',(0.,1.,0.));
#414=DIRECTION('ref_axis',(0.,0.,1.));
#415=DIRECTION('center_axis',(0.,1.,0.));
#416=DIRECTION('ref_axis',(1.,0.,0.));
#417=DIRECTION('center_axis',(0.,1.,0.));
#418=DIRECTION('ref_axis',(1.,0.,0.));
#419=DIRECTION('center_axis',(0.,1.,0.));
#420=DIRECTION('ref_axis',(-1.,0.,0.));
#421=DIRECTION('center_axis',(0.,1.,0.));
#422=DIRECTION('ref_axis',(1.,0.,0.));
#423=DIRECTION('center_axis',(0.,1.,0.));
#424=DIRECTION('ref_axis',(1.,0.,0.));
#425=DIRECTION('',(0.,-1.,0.));
#426=DIRECTION('center_axis',(0.,1.,0.));
#427=DIRECTION('ref_axis',(0.,0.,1.));
#428=DIRECTION('center_axis',(0.,-1.,0.));
#429=DIRECTION('ref_axis',(0.,0.,-1.));
#430=DIRECTION('center_axis',(0.,1.,0.));
#431=DIRECTION('ref_axis',(1.,0.,0.));
#432=DIRECTION('center_axis',(0.,1.,0.));
#433=DIRECTION('ref_axis',(1.,0.,0.));
#434=DIRECTION('center_axis',(0.,1.,0.));
#435=DIRECTION('ref_axis',(-1.,0.,0.));
#436=DIRECTION('center_axis',(0.,1.,0.));
#437=DIRECTION('ref_axis',(1.,0.,0.));
#438=DIRECTION('center_axis',(0.,1.,0.));
#439=DIRECTION('ref_axis',(1.,0.,0.));
#440=DIRECTION('',(0.,-1.,0.));
#441=DIRECTION('center_axis',(0.,-1.,0.));
#442=DIRECTION('ref_axis',(0.,0.,-1.));
#443=DIRECTION('center_axis',(0.,1.,0.));
#444=DIRECTION('ref_axis',(1.,0.,0.));
#445=DIRECTION('center_axis',(0.,1.,0.));
#446=DIRECTION('ref_axis',(1.,0.,0.));
#447=DIRECTION('center_axis',(0.,1.,0.));
#448=DIRECTION('ref_axis',(-1.,0.,0.));
#449=DIRECTION('',(0.,-1.,0.));
#450=CARTESIAN_POINT('',(0.,0.,0.));
#451=CARTESIAN_POINT('Origin',(0.,0.25,0.));
#452=CARTESIAN_POINT('',(-47.5,0.5,-5.81707229594993E-15));
#453=CARTESIAN_POINT('',(47.5,0.5,-5.81707229594993E-15));
#454=CARTESIAN_POINT('Origin',(0.,0.5,0.));
#455=CARTESIAN_POINT('Origin',(0.,0.5,0.));
#456=CARTESIAN_POINT('',(-47.,0.,5.75583995599256E-15));
#457=CARTESIAN_POINT('',(-47.25,0.25,5.78645612597124E-15));
#458=CARTESIAN_POINT('Origin',(0.,0.,0.));
#459=CARTESIAN_POINT('Origin',(-47.5,0.,0.));
#460=CARTESIAN_POINT('',(-35.,0.,0.));
#461=CARTESIAN_POINT('',(35.,0.,-4.28626379701574E-15));
#462=CARTESIAN_POINT('Origin',(0.,0.,0.));
#463=CARTESIAN_POINT('Origin',(0.,0.,0.));
#464=CARTESIAN_POINT('Origin',(0.,1.75107788878125,0.));
#465=CARTESIAN_POINT('',(-47.5,3.50215577756249,0.));
#466=CARTESIAN_POINT('',(47.5,3.50215577756249,-5.81707229594993E-15));
#467=CARTESIAN_POINT('Origin',(0.,3.50215577756249,0.));
#468=CARTESIAN_POINT('',(-5.81707229594993E-15,3.50215577756249,-47.5));
#469=CARTESIAN_POINT('Origin',(0.,3.50215577756249,0.));
#470=CARTESIAN_POINT('Origin',(0.,3.50215577756249,0.));
#471=CARTESIAN_POINT('',(47.5,1.75107788878125,-5.81707229594993E-15));
#472=CARTESIAN_POINT('Origin',(0.,11.75,0.));
#473=CARTESIAN_POINT('',(-47.,12.,-5.75583995599256E-15));
#474=CARTESIAN_POINT('Origin',(0.,12.,0.));
#475=CARTESIAN_POINT('',(-47.5,11.5,5.81707229594993E-15));
#476=CARTESIAN_POINT('',(-47.25,11.75,5.78645612597124E-15));
#477=CARTESIAN_POINT('',(47.5,11.5,-5.81707229594993E-15));
#478=CARTESIAN_POINT('Origin',(0.,11.5,0.));
#479=CARTESIAN_POINT('Origin',(0.,11.5,0.));
#480=CARTESIAN_POINT('Origin',(-45.,12.,0.));
#481=CARTESIAN_POINT('',(-45.5,12.,5.57214293612046E-15));
#482=CARTESIAN_POINT('Origin',(0.,12.,0.));
#483=CARTESIAN_POINT('Origin',(0.,9.24892211121876,0.));
#484=CARTESIAN_POINT('',(47.5,6.49784422243751,-5.81707229594993E-15));
#485=CARTESIAN_POINT('',(47.5,9.24892211121876,-5.81707229594993E-15));
#486=CARTESIAN_POINT('',(-5.81707229594993E-15,6.49784422243751,-47.5));
#487=CARTESIAN_POINT('Origin',(0.,6.49784422243751,0.));
#488=CARTESIAN_POINT('',(-47.5,6.49784422243751,0.));
#489=CARTESIAN_POINT('Origin',(0.,6.49784422243751,0.));
#490=CARTESIAN_POINT('Origin',(0.,6.49784422243751,0.));
#491=CARTESIAN_POINT('Origin',(0.,11.75,0.));
#492=CARTESIAN_POINT('',(-45.,11.5,-5.51091059616309E-15));
#493=CARTESIAN_POINT('',(45.,11.5,-5.51091059616309E-15));
#494=CARTESIAN_POINT('Origin',(0.,11.5,0.));
#495=CARTESIAN_POINT('Origin',(0.,11.5,0.));
#496=CARTESIAN_POINT('',(-45.25,11.75,-5.54152676614177E-15));
#497=CARTESIAN_POINT('Origin',(0.,11.,0.));
#498=CARTESIAN_POINT('',(45.,10.,-5.51091059616309E-15));
#499=CARTESIAN_POINT('',(45.,11.,-5.51091059616309E-15));
#500=CARTESIAN_POINT('',(-45.,10.,0.));
#501=CARTESIAN_POINT('Origin',(0.,10.,0.));
#502=CARTESIAN_POINT('Origin',(0.,10.,0.));
#503=CARTESIAN_POINT('Origin',(0.,5.,0.));
#504=CARTESIAN_POINT('Origin',(-5.82691733303305E-15,5.,-47.5803908285227));
#505=CARTESIAN_POINT('Origin',(-39.,10.,0.));
#506=CARTESIAN_POINT('',(-39.,10.,0.));
#507=CARTESIAN_POINT('',(39.,10.,-4.77612251667468E-15));
#508=CARTESIAN_POINT('Origin',(0.,10.,0.));
#509=CARTESIAN_POINT('Origin',(0.,10.,0.));
#510=CARTESIAN_POINT('Origin',(0.,11.,0.));
#511=CARTESIAN_POINT('',(-39.,12.,0.));
#512=CARTESIAN_POINT('',(39.,12.,-4.77612251667468E-15));
#513=CARTESIAN_POINT('Origin',(0.,12.,0.));
#514=CARTESIAN_POINT('Origin',(0.,12.,0.));
#515=CARTESIAN_POINT('',(39.,11.,-4.77612251667468E-15));
#516=CARTESIAN_POINT('Origin',(0.,12.,0.));
#517=CARTESIAN_POINT('Origin',(-30.1,0.,0.));
#518=CARTESIAN_POINT('',(-30.1,0.,0.));
#519=CARTESIAN_POINT('',(30.1,0.,-3.68618686543353E-15));
#520=CARTESIAN_POINT('Origin',(0.,0.,0.));
#521=CARTESIAN_POINT('Origin',(0.,0.,0.));
#522=CARTESIAN_POINT('Origin',(0.,2.3,0.));
#523=CARTESIAN_POINT('',(-30.1,4.6,0.));
#524=CARTESIAN_POINT('',(30.1,4.6,-3.68618686543353E-15));
#525=CARTESIAN_POINT('Origin',(0.,4.6,0.));
#526=CARTESIAN_POINT('Origin',(0.,4.6,0.));
#527=CARTESIAN_POINT('',(30.1,2.3,-3.68618686543353E-15));
#528=CARTESIAN_POINT('Origin',(-35.,4.6,0.));
#529=CARTESIAN_POINT('',(-35.,4.6,0.));
#530=CARTESIAN_POINT('',(35.,4.6,-4.28626379701574E-15));
#531=CARTESIAN_POINT('Origin',(0.,4.6,0.));
#532=CARTESIAN_POINT('Origin',(0.,4.6,0.));
#533=CARTESIAN_POINT('Origin',(0.,2.3,0.));
#534=CARTESIAN_POINT('',(35.,2.3,-4.28626379701574E-15));
#535=UNCERTAINTY_MEASURE_WITH_UNIT(LENGTH_MEASURE(0.01),#539,
'DISTANCE_ACCURACY_VALUE',
'Maximum model space distance between geometric entities at asserted c
onnectivities');
#536=UNCERTAINTY_MEASURE_WITH_UNIT(LENGTH_MEASURE(0.01),#539,
'DISTANCE_ACCURACY_VALUE',
'Maximum model space distance between geometric entities at asserted c
onnectivities');
#537=(
GEOMETRIC_REPRESENTATION_CONTEXT(3)
GLOBAL_UNCERTAINTY_ASSIGNED_CONTEXT((#535))
GLOBAL_UNIT_ASSIGNED_CONTEXT((#539,#542,#541))
REPRESENTATION_CONTEXT('','3D')
);
#538=(
GEOMETRIC_REPRESENTATION_CONTEXT(3)
GLOBAL_UNCERTAINTY_ASSIGNED_CONTEXT((#536))
GLOBAL_UNIT_ASSIGNED_CONTEXT((#539,#542,#541))
REPRESENTATION_CONTEXT('','3D')
);
#539=(
LENGTH_UNIT()
NAMED_UNIT(*)
SI_UNIT(.MILLI.,.METRE.)
);
#540=(
LENGTH_UNIT()
NAMED_UNIT(*)
SI_UNIT(.CENTI.,.METRE.)
);
#541=(
NAMED_UNIT(*)
SI_UNIT($,.STERADIAN.)
SOLID_ANGLE_UNIT()
);
#542=(
NAMED_UNIT(*)
PLANE_ANGLE_UNIT()
SI_UNIT($,.RADIAN.)
);
#543=SHAPE_DEFINITION_REPRESENTATION(#544,#545);
#544=PRODUCT_DEFINITION_SHAPE('',$,#547);
#545=SHAPE_REPRESENTATION('',(#300),#537);
#546=PRODUCT_DEFINITION_CONTEXT('part definition',#551,'design');
#547=PRODUCT_DEFINITION('FL-63LF','FL-63LF',#548,#546);
#548=PRODUCT_DEFINITION_FORMATION('',$,#553);
#549=PRODUCT_RELATED_PRODUCT_CATEGORY('FL-63LF','FL-63LF',(#553));
#550=APPLICATION_PROTOCOL_DEFINITION('international standard',
'automotive_design',2009,#551);
#551=APPLICATION_CONTEXT(
'Core Data for Automotive Mechanical Design Process');
#552=PRODUCT_CONTEXT('part definition',#551,'mechanical');
#553=PRODUCT('FL-63LF','FL-63LF',$,(#552));
#554=PRESENTATION_STYLE_ASSIGNMENT((#555));
#555=SURFACE_STYLE_USAGE(.BOTH.,#556);
#556=SURFACE_SIDE_STYLE('',(#557));
#557=SURFACE_STYLE_FILL_AREA(#558);
#558=FILL_AREA_STYLE('',(#559));
#559=FILL_AREA_STYLE_COLOUR('',#560);
#560=COLOUR_RGB('',0.745098039215686,0.737254901960784,0.729411764705882);
ENDSEC;
END-ISO-10303-21;
