ISO-10303-21;
HEADER;
/* Generated by software containing ST-Developer
 * from STEP Tools, Inc. (www.steptools.com) 
 */

FILE_DESCRIPTION(
/* description */ (''),
/* implementation_level */ '2;1');

FILE_NAME(
/* name */ 'G:\\FLANGES & FITTINGS\\NW63LF\\Step files\\FL-63LF-W76.st
p',
/* time_stamp */ '2018-07-09T11:22:36+01:00',
/* author */ ('paul'),
/* organization */ (''),
/* preprocessor_version */ 'ST-DEVELOPER v17',
/* originating_system */ 'Autodesk Inventor 2019',
/* authorisation */ '');

FILE_SCHEMA (('AUTOMOTIVE_DESIGN { 1 0 10303 214 3 1 1 }'));
ENDSEC;

DATA;
#10=MECHANICAL_DESIGN_GEOMETRIC_PRESENTATION_REPRESENTATION('',(#13),#467);
#11=SHAPE_REPRESENTATION_RELATIONSHIP('SRR','None',#474,#12);
#12=ADVANCED_BREP_SHAPE_REPRESENTATION('',(#14),#466);
#13=STYLED_ITEM('',(#483),#14);
#14=MANIFOLD_SOLID_BREP('Solid1',#244);
#15=TOROIDAL_SURFACE('',#291,47.5803908285227,1.5);
#16=CYLINDRICAL_SURFACE('',#271,47.5);
#17=CYLINDRICAL_SURFACE('',#281,47.5);
#18=CYLINDRICAL_SURFACE('',#288,45.);
#19=CYLINDRICAL_SURFACE('',#296,38.25);
#20=CYLINDRICAL_SURFACE('',#302,35.);
#21=FACE_BOUND('',#44,.T.);
#22=FACE_BOUND('',#48,.T.);
#23=FACE_BOUND('',#54,.T.);
#24=FACE_BOUND('',#57,.T.);
#25=PLANE('',#268);
#26=PLANE('',#279);
#27=PLANE('',#293);
#28=PLANE('',#299);
#29=FACE_OUTER_BOUND('',#42,.T.);
#30=FACE_OUTER_BOUND('',#43,.T.);
#31=FACE_OUTER_BOUND('',#45,.T.);
#32=FACE_OUTER_BOUND('',#46,.T.);
#33=FACE_OUTER_BOUND('',#47,.T.);
#34=FACE_OUTER_BOUND('',#49,.T.);
#35=FACE_OUTER_BOUND('',#50,.T.);
#36=FACE_OUTER_BOUND('',#51,.T.);
#37=FACE_OUTER_BOUND('',#52,.T.);
#38=FACE_OUTER_BOUND('',#53,.T.);
#39=FACE_OUTER_BOUND('',#55,.T.);
#40=FACE_OUTER_BOUND('',#56,.T.);
#41=FACE_OUTER_BOUND('',#58,.T.);
#42=EDGE_LOOP('',(#160,#161,#162,#163,#164));
#43=EDGE_LOOP('',(#165));
#44=EDGE_LOOP('',(#166,#167));
#45=EDGE_LOOP('',(#168,#169,#170,#171,#172,#173,#174));
#46=EDGE_LOOP('',(#175,#176,#177,#178,#179));
#47=EDGE_LOOP('',(#180));
#48=EDGE_LOOP('',(#181));
#49=EDGE_LOOP('',(#182,#183,#184,#185,#186,#187,#188));
#50=EDGE_LOOP('',(#189,#190,#191,#192,#193));
#51=EDGE_LOOP('',(#194,#195,#196,#197,#198,#199));
#52=EDGE_LOOP('',(#200,#201,#202,#203,#204,#205,#206,#207));
#53=EDGE_LOOP('',(#208,#209));
#54=EDGE_LOOP('',(#210,#211));
#55=EDGE_LOOP('',(#212,#213,#214,#215,#216,#217));
#56=EDGE_LOOP('',(#218,#219));
#57=EDGE_LOOP('',(#220,#221));
#58=EDGE_LOOP('',(#222,#223,#224,#225,#226,#227));
#59=LINE('',#398,#67);
#60=LINE('',#412,#68);
#61=LINE('',#417,#69);
#62=LINE('',#426,#70);
#63=LINE('',#437,#71);
#64=LINE('',#440,#72);
#65=LINE('',#453,#73);
#66=LINE('',#463,#74);
#67=VECTOR('',#311,47.25);
#68=VECTOR('',#328,47.5);
#69=VECTOR('',#333,47.25);
#70=VECTOR('',#344,47.5);
#71=VECTOR('',#357,45.25);
#72=VECTOR('',#360,45.);
#73=VECTOR('',#377,38.25);
#74=VECTOR('',#390,35.);
#75=CIRCLE('',#265,47.5);
#76=CIRCLE('',#266,47.5);
#77=CIRCLE('',#267,47.);
#78=CIRCLE('',#269,35.);
#79=CIRCLE('',#270,35.);
#80=CIRCLE('',#272,47.5);
#81=CIRCLE('',#273,47.5);
#82=CIRCLE('',#274,47.5);
#83=CIRCLE('',#276,47.);
#84=CIRCLE('',#277,47.5);
#85=CIRCLE('',#278,47.5);
#86=CIRCLE('',#280,45.5);
#87=CIRCLE('',#282,47.5);
#88=CIRCLE('',#283,47.5);
#89=CIRCLE('',#284,47.5);
#90=CIRCLE('',#286,45.);
#91=CIRCLE('',#287,45.);
#92=CIRCLE('',#289,45.);
#93=CIRCLE('',#290,45.);
#94=CIRCLE('',#292,1.5);
#95=CIRCLE('',#294,38.25);
#96=CIRCLE('',#295,38.25);
#97=CIRCLE('',#297,38.25);
#98=CIRCLE('',#298,38.25);
#99=CIRCLE('',#300,35.);
#100=CIRCLE('',#301,35.);
#101=VERTEX_POINT('',#393);
#102=VERTEX_POINT('',#394);
#103=VERTEX_POINT('',#397);
#104=VERTEX_POINT('',#401);
#105=VERTEX_POINT('',#402);
#106=VERTEX_POINT('',#406);
#107=VERTEX_POINT('',#407);
#108=VERTEX_POINT('',#409);
#109=VERTEX_POINT('',#414);
#110=VERTEX_POINT('',#416);
#111=VERTEX_POINT('',#418);
#112=VERTEX_POINT('',#422);
#113=VERTEX_POINT('',#425);
#114=VERTEX_POINT('',#427);
#115=VERTEX_POINT('',#429);
#116=VERTEX_POINT('',#433);
#117=VERTEX_POINT('',#434);
#118=VERTEX_POINT('',#439);
#119=VERTEX_POINT('',#441);
#120=VERTEX_POINT('',#447);
#121=VERTEX_POINT('',#448);
#122=VERTEX_POINT('',#452);
#123=VERTEX_POINT('',#454);
#124=VERTEX_POINT('',#458);
#125=VERTEX_POINT('',#459);
#126=EDGE_CURVE('',#101,#102,#75,.T.);
#127=EDGE_CURVE('',#102,#101,#76,.T.);
#128=EDGE_CURVE('',#101,#103,#59,.T.);
#129=EDGE_CURVE('',#103,#103,#77,.T.);
#130=EDGE_CURVE('',#104,#105,#78,.T.);
#131=EDGE_CURVE('',#105,#104,#79,.T.);
#132=EDGE_CURVE('',#106,#107,#80,.T.);
#133=EDGE_CURVE('',#108,#106,#81,.T.);
#134=EDGE_CURVE('',#107,#108,#82,.T.);
#135=EDGE_CURVE('',#107,#102,#60,.T.);
#136=EDGE_CURVE('',#109,#109,#83,.T.);
#137=EDGE_CURVE('',#109,#110,#61,.T.);
#138=EDGE_CURVE('',#110,#111,#84,.T.);
#139=EDGE_CURVE('',#111,#110,#85,.T.);
#140=EDGE_CURVE('',#112,#112,#86,.T.);
#141=EDGE_CURVE('',#111,#113,#62,.T.);
#142=EDGE_CURVE('',#113,#114,#87,.T.);
#143=EDGE_CURVE('',#114,#115,#88,.T.);
#144=EDGE_CURVE('',#115,#113,#89,.T.);
#145=EDGE_CURVE('',#116,#117,#90,.T.);
#146=EDGE_CURVE('',#117,#116,#91,.T.);
#147=EDGE_CURVE('',#116,#112,#63,.T.);
#148=EDGE_CURVE('',#117,#118,#64,.T.);
#149=EDGE_CURVE('',#119,#118,#92,.T.);
#150=EDGE_CURVE('',#118,#119,#93,.T.);
#151=EDGE_CURVE('',#108,#114,#94,.T.);
#152=EDGE_CURVE('',#120,#121,#95,.T.);
#153=EDGE_CURVE('',#121,#120,#96,.T.);
#154=EDGE_CURVE('',#121,#122,#65,.T.);
#155=EDGE_CURVE('',#123,#122,#97,.T.);
#156=EDGE_CURVE('',#122,#123,#98,.T.);
#157=EDGE_CURVE('',#124,#125,#99,.T.);
#158=EDGE_CURVE('',#125,#124,#100,.T.);
#159=EDGE_CURVE('',#125,#105,#66,.T.);
#160=ORIENTED_EDGE('',*,*,#126,.T.);
#161=ORIENTED_EDGE('',*,*,#127,.T.);
#162=ORIENTED_EDGE('',*,*,#128,.T.);
#163=ORIENTED_EDGE('',*,*,#129,.T.);
#164=ORIENTED_EDGE('',*,*,#128,.F.);
#165=ORIENTED_EDGE('',*,*,#129,.F.);
#166=ORIENTED_EDGE('',*,*,#130,.T.);
#167=ORIENTED_EDGE('',*,*,#131,.T.);
#168=ORIENTED_EDGE('',*,*,#132,.F.);
#169=ORIENTED_EDGE('',*,*,#133,.F.);
#170=ORIENTED_EDGE('',*,*,#134,.F.);
#171=ORIENTED_EDGE('',*,*,#135,.T.);
#172=ORIENTED_EDGE('',*,*,#126,.F.);
#173=ORIENTED_EDGE('',*,*,#127,.F.);
#174=ORIENTED_EDGE('',*,*,#135,.F.);
#175=ORIENTED_EDGE('',*,*,#136,.T.);
#176=ORIENTED_EDGE('',*,*,#137,.T.);
#177=ORIENTED_EDGE('',*,*,#138,.T.);
#178=ORIENTED_EDGE('',*,*,#139,.T.);
#179=ORIENTED_EDGE('',*,*,#137,.F.);
#180=ORIENTED_EDGE('',*,*,#136,.F.);
#181=ORIENTED_EDGE('',*,*,#140,.F.);
#182=ORIENTED_EDGE('',*,*,#138,.F.);
#183=ORIENTED_EDGE('',*,*,#139,.F.);
#184=ORIENTED_EDGE('',*,*,#141,.T.);
#185=ORIENTED_EDGE('',*,*,#142,.T.);
#186=ORIENTED_EDGE('',*,*,#143,.T.);
#187=ORIENTED_EDGE('',*,*,#144,.T.);
#188=ORIENTED_EDGE('',*,*,#141,.F.);
#189=ORIENTED_EDGE('',*,*,#145,.T.);
#190=ORIENTED_EDGE('',*,*,#146,.T.);
#191=ORIENTED_EDGE('',*,*,#147,.T.);
#192=ORIENTED_EDGE('',*,*,#140,.T.);
#193=ORIENTED_EDGE('',*,*,#147,.F.);
#194=ORIENTED_EDGE('',*,*,#145,.F.);
#195=ORIENTED_EDGE('',*,*,#146,.F.);
#196=ORIENTED_EDGE('',*,*,#148,.T.);
#197=ORIENTED_EDGE('',*,*,#149,.F.);
#198=ORIENTED_EDGE('',*,*,#150,.F.);
#199=ORIENTED_EDGE('',*,*,#148,.F.);
#200=ORIENTED_EDGE('',*,*,#132,.T.);
#201=ORIENTED_EDGE('',*,*,#134,.T.);
#202=ORIENTED_EDGE('',*,*,#151,.T.);
#203=ORIENTED_EDGE('',*,*,#142,.F.);
#204=ORIENTED_EDGE('',*,*,#144,.F.);
#205=ORIENTED_EDGE('',*,*,#143,.F.);
#206=ORIENTED_EDGE('',*,*,#151,.F.);
#207=ORIENTED_EDGE('',*,*,#133,.T.);
#208=ORIENTED_EDGE('',*,*,#149,.T.);
#209=ORIENTED_EDGE('',*,*,#150,.T.);
#210=ORIENTED_EDGE('',*,*,#152,.F.);
#211=ORIENTED_EDGE('',*,*,#153,.F.);
#212=ORIENTED_EDGE('',*,*,#152,.T.);
#213=ORIENTED_EDGE('',*,*,#154,.T.);
#214=ORIENTED_EDGE('',*,*,#155,.F.);
#215=ORIENTED_EDGE('',*,*,#156,.F.);
#216=ORIENTED_EDGE('',*,*,#154,.F.);
#217=ORIENTED_EDGE('',*,*,#153,.T.);
#218=ORIENTED_EDGE('',*,*,#155,.T.);
#219=ORIENTED_EDGE('',*,*,#156,.T.);
#220=ORIENTED_EDGE('',*,*,#157,.F.);
#221=ORIENTED_EDGE('',*,*,#158,.F.);
#222=ORIENTED_EDGE('',*,*,#157,.T.);
#223=ORIENTED_EDGE('',*,*,#159,.T.);
#224=ORIENTED_EDGE('',*,*,#130,.F.);
#225=ORIENTED_EDGE('',*,*,#131,.F.);
#226=ORIENTED_EDGE('',*,*,#159,.F.);
#227=ORIENTED_EDGE('',*,*,#158,.T.);
#228=CONICAL_SURFACE('',#264,47.25,0.785398163397447);
#229=CONICAL_SURFACE('',#275,47.25,0.785398163397446);
#230=CONICAL_SURFACE('',#285,45.25,0.785398163397446);
#231=ADVANCED_FACE('',(#29),#228,.T.);
#232=ADVANCED_FACE('',(#30,#21),#25,.T.);
#233=ADVANCED_FACE('',(#31),#16,.T.);
#234=ADVANCED_FACE('',(#32),#229,.T.);
#235=ADVANCED_FACE('',(#33,#22),#26,.T.);
#236=ADVANCED_FACE('',(#34),#17,.T.);
#237=ADVANCED_FACE('',(#35),#230,.F.);
#238=ADVANCED_FACE('',(#36),#18,.F.);
#239=ADVANCED_FACE('',(#37),#15,.F.);
#240=ADVANCED_FACE('',(#38,#23),#27,.T.);
#241=ADVANCED_FACE('',(#39),#19,.F.);
#242=ADVANCED_FACE('',(#40,#24),#28,.T.);
#243=ADVANCED_FACE('',(#41),#20,.F.);
#244=CLOSED_SHELL('',(#231,#232,#233,#234,#235,#236,#237,#238,#239,#240,
#241,#242,#243));
#245=DERIVED_UNIT_ELEMENT(#247,1.);
#246=DERIVED_UNIT_ELEMENT(#469,3.);
#247=(
MASS_UNIT()
NAMED_UNIT(*)
SI_UNIT($,.GRAM.)
);
#248=DERIVED_UNIT((#245,#246));
#249=MEASURE_REPRESENTATION_ITEM('density measure',
POSITIVE_RATIO_MEASURE(8.),#248);
#250=PROPERTY_DEFINITION_REPRESENTATION(#255,#252);
#251=PROPERTY_DEFINITION_REPRESENTATION(#256,#253);
#252=REPRESENTATION('material name',(#254),#466);
#253=REPRESENTATION('density',(#249),#466);
#254=DESCRIPTIVE_REPRESENTATION_ITEM('Stainless Steel, Austenitic',
'Stainless Steel, Austenitic');
#255=PROPERTY_DEFINITION('material property','material name',#476);
#256=PROPERTY_DEFINITION('material property','density of part',#476);
#257=DATE_TIME_ROLE('creation_date');
#258=APPLIED_DATE_AND_TIME_ASSIGNMENT(#259,#257,(#476));
#259=DATE_AND_TIME(#260,#261);
#260=CALENDAR_DATE(2014,1,10);
#261=LOCAL_TIME(9,2,29.,#262);
#262=COORDINATED_UNIVERSAL_TIME_OFFSET(0,0,.BEHIND.);
#263=AXIS2_PLACEMENT_3D('placement',#391,#303,#304);
#264=AXIS2_PLACEMENT_3D('',#392,#305,#306);
#265=AXIS2_PLACEMENT_3D('',#395,#307,#308);
#266=AXIS2_PLACEMENT_3D('',#396,#309,#310);
#267=AXIS2_PLACEMENT_3D('',#399,#312,#313);
#268=AXIS2_PLACEMENT_3D('',#400,#314,#315);
#269=AXIS2_PLACEMENT_3D('',#403,#316,#317);
#270=AXIS2_PLACEMENT_3D('',#404,#318,#319);
#271=AXIS2_PLACEMENT_3D('',#405,#320,#321);
#272=AXIS2_PLACEMENT_3D('',#408,#322,#323);
#273=AXIS2_PLACEMENT_3D('',#410,#324,#325);
#274=AXIS2_PLACEMENT_3D('',#411,#326,#327);
#275=AXIS2_PLACEMENT_3D('',#413,#329,#330);
#276=AXIS2_PLACEMENT_3D('',#415,#331,#332);
#277=AXIS2_PLACEMENT_3D('',#419,#334,#335);
#278=AXIS2_PLACEMENT_3D('',#420,#336,#337);
#279=AXIS2_PLACEMENT_3D('',#421,#338,#339);
#280=AXIS2_PLACEMENT_3D('',#423,#340,#341);
#281=AXIS2_PLACEMENT_3D('',#424,#342,#343);
#282=AXIS2_PLACEMENT_3D('',#428,#345,#346);
#283=AXIS2_PLACEMENT_3D('',#430,#347,#348);
#284=AXIS2_PLACEMENT_3D('',#431,#349,#350);
#285=AXIS2_PLACEMENT_3D('',#432,#351,#352);
#286=AXIS2_PLACEMENT_3D('',#435,#353,#354);
#287=AXIS2_PLACEMENT_3D('',#436,#355,#356);
#288=AXIS2_PLACEMENT_3D('',#438,#358,#359);
#289=AXIS2_PLACEMENT_3D('',#442,#361,#362);
#290=AXIS2_PLACEMENT_3D('',#443,#363,#364);
#291=AXIS2_PLACEMENT_3D('',#444,#365,#366);
#292=AXIS2_PLACEMENT_3D('',#445,#367,#368);
#293=AXIS2_PLACEMENT_3D('',#446,#369,#370);
#294=AXIS2_PLACEMENT_3D('',#449,#371,#372);
#295=AXIS2_PLACEMENT_3D('',#450,#373,#374);
#296=AXIS2_PLACEMENT_3D('',#451,#375,#376);
#297=AXIS2_PLACEMENT_3D('',#455,#378,#379);
#298=AXIS2_PLACEMENT_3D('',#456,#380,#381);
#299=AXIS2_PLACEMENT_3D('',#457,#382,#383);
#300=AXIS2_PLACEMENT_3D('',#460,#384,#385);
#301=AXIS2_PLACEMENT_3D('',#461,#386,#387);
#302=AXIS2_PLACEMENT_3D('',#462,#388,#389);
#303=DIRECTION('axis',(0.,0.,1.));
#304=DIRECTION('refdir',(1.,0.,0.));
#305=DIRECTION('center_axis',(0.,1.,0.));
#306=DIRECTION('ref_axis',(1.,0.,0.));
#307=DIRECTION('center_axis',(0.,-1.,0.));
#308=DIRECTION('ref_axis',(1.,0.,0.));
#309=DIRECTION('center_axis',(0.,-1.,0.));
#310=DIRECTION('ref_axis',(1.,0.,0.));
#311=DIRECTION('',(0.707106781186546,-0.707106781186549,-8.65956056235492E-17));
#312=DIRECTION('center_axis',(0.,1.,0.));
#313=DIRECTION('ref_axis',(1.,0.,0.));
#314=DIRECTION('center_axis',(0.,-1.,0.));
#315=DIRECTION('ref_axis',(0.,0.,-1.));
#316=DIRECTION('center_axis',(0.,1.,0.));
#317=DIRECTION('ref_axis',(1.,0.,0.));
#318=DIRECTION('center_axis',(0.,1.,0.));
#319=DIRECTION('ref_axis',(1.,0.,0.));
#320=DIRECTION('center_axis',(0.,1.,0.));
#321=DIRECTION('ref_axis',(-1.,0.,0.));
#322=DIRECTION('center_axis',(0.,1.,0.));
#323=DIRECTION('ref_axis',(1.,0.,0.));
#324=DIRECTION('center_axis',(0.,1.,0.));
#325=DIRECTION('ref_axis',(1.,0.,0.));
#326=DIRECTION('center_axis',(0.,1.,0.));
#327=DIRECTION('ref_axis',(1.,0.,0.));
#328=DIRECTION('',(0.,-1.,0.));
#329=DIRECTION('center_axis',(0.,-1.,0.));
#330=DIRECTION('ref_axis',(1.,0.,0.));
#331=DIRECTION('center_axis',(0.,-1.,0.));
#332=DIRECTION('ref_axis',(1.,0.,0.));
#333=DIRECTION('',(-0.707106781186546,-0.707106781186549,8.65956056235491E-17));
#334=DIRECTION('center_axis',(0.,1.,0.));
#335=DIRECTION('ref_axis',(1.,0.,0.));
#336=DIRECTION('center_axis',(0.,1.,0.));
#337=DIRECTION('ref_axis',(1.,0.,0.));
#338=DIRECTION('center_axis',(0.,1.,0.));
#339=DIRECTION('ref_axis',(0.,0.,1.));
#340=DIRECTION('center_axis',(0.,1.,0.));
#341=DIRECTION('ref_axis',(1.,0.,0.));
#342=DIRECTION('center_axis',(0.,1.,0.));
#343=DIRECTION('ref_axis',(-1.,0.,0.));
#344=DIRECTION('',(0.,-1.,0.));
#345=DIRECTION('center_axis',(0.,1.,0.));
#346=DIRECTION('ref_axis',(1.,0.,0.));
#347=DIRECTION('center_axis',(0.,1.,0.));
#348=DIRECTION('ref_axis',(1.,0.,0.));
#349=DIRECTION('center_axis',(0.,1.,0.));
#350=DIRECTION('ref_axis',(1.,0.,0.));
#351=DIRECTION('center_axis',(0.,1.,0.));
#352=DIRECTION('ref_axis',(1.,0.,0.));
#353=DIRECTION('center_axis',(0.,-1.,0.));
#354=DIRECTION('ref_axis',(1.,0.,0.));
#355=DIRECTION('center_axis',(0.,-1.,0.));
#356=DIRECTION('ref_axis',(1.,0.,0.));
#357=DIRECTION('',(-0.707106781186546,0.707106781186549,-8.65956056235492E-17));
#358=DIRECTION('center_axis',(0.,1.,0.));
#359=DIRECTION('ref_axis',(-1.,0.,0.));
#360=DIRECTION('',(0.,-1.,0.));
#361=DIRECTION('center_axis',(0.,1.,0.));
#362=DIRECTION('ref_axis',(1.,0.,0.));
#363=DIRECTION('center_axis',(0.,1.,0.));
#364=DIRECTION('ref_axis',(1.,0.,0.));
#365=DIRECTION('center_axis',(0.,1.,0.));
#366=DIRECTION('ref_axis',(0.,0.,1.));
#367=DIRECTION('center_axis',(-1.,0.,1.22464679914735E-16));
#368=DIRECTION('ref_axis',(-1.22464679914735E-16,0.,-1.));
#369=DIRECTION('center_axis',(0.,1.,0.));
#370=DIRECTION('ref_axis',(0.,0.,1.));
#371=DIRECTION('center_axis',(0.,1.,0.));
#372=DIRECTION('ref_axis',(1.,0.,0.));
#373=DIRECTION('center_axis',(0.,1.,0.));
#374=DIRECTION('ref_axis',(1.,0.,0.));
#375=DIRECTION('center_axis',(0.,1.,0.));
#376=DIRECTION('ref_axis',(-1.,0.,0.));
#377=DIRECTION('',(0.,-1.,0.));
#378=DIRECTION('center_axis',(0.,1.,0.));
#379=DIRECTION('ref_axis',(1.,0.,0.));
#380=DIRECTION('center_axis',(0.,1.,0.));
#381=DIRECTION('ref_axis',(1.,0.,0.));
#382=DIRECTION('center_axis',(0.,1.,0.));
#383=DIRECTION('ref_axis',(0.,0.,1.));
#384=DIRECTION('center_axis',(0.,1.,0.));
#385=DIRECTION('ref_axis',(1.,0.,0.));
#386=DIRECTION('center_axis',(0.,1.,0.));
#387=DIRECTION('ref_axis',(1.,0.,0.));
#388=DIRECTION('center_axis',(0.,1.,0.));
#389=DIRECTION('ref_axis',(-1.,0.,0.));
#390=DIRECTION('',(0.,-1.,0.));
#391=CARTESIAN_POINT('',(0.,0.,0.));
#392=CARTESIAN_POINT('Origin',(0.,0.25,0.));
#393=CARTESIAN_POINT('',(-47.5,0.5,-5.81707229594993E-15));
#394=CARTESIAN_POINT('',(47.5,0.5,-5.81707229594993E-15));
#395=CARTESIAN_POINT('Origin',(0.,0.5,0.));
#396=CARTESIAN_POINT('Origin',(0.,0.5,0.));
#397=CARTESIAN_POINT('',(-47.,0.,5.75583995599256E-15));
#398=CARTESIAN_POINT('',(-47.25,0.25,5.78645612597124E-15));
#399=CARTESIAN_POINT('Origin',(0.,0.,0.));
#400=CARTESIAN_POINT('Origin',(-47.5,0.,0.));
#401=CARTESIAN_POINT('',(-35.,0.,0.));
#402=CARTESIAN_POINT('',(35.,0.,-4.28626379701574E-15));
#403=CARTESIAN_POINT('Origin',(0.,0.,0.));
#404=CARTESIAN_POINT('Origin',(0.,0.,0.));
#405=CARTESIAN_POINT('Origin',(0.,1.75107788878125,0.));
#406=CARTESIAN_POINT('',(-47.5,3.50215577756249,0.));
#407=CARTESIAN_POINT('',(47.5,3.50215577756249,-5.81707229594993E-15));
#408=CARTESIAN_POINT('Origin',(0.,3.50215577756249,0.));
#409=CARTESIAN_POINT('',(-5.81707229594993E-15,3.50215577756249,-47.5));
#410=CARTESIAN_POINT('Origin',(0.,3.50215577756249,0.));
#411=CARTESIAN_POINT('Origin',(0.,3.50215577756249,0.));
#412=CARTESIAN_POINT('',(47.5,1.75107788878125,-5.81707229594993E-15));
#413=CARTESIAN_POINT('Origin',(0.,11.75,0.));
#414=CARTESIAN_POINT('',(-47.,12.,-5.75583995599256E-15));
#415=CARTESIAN_POINT('Origin',(0.,12.,0.));
#416=CARTESIAN_POINT('',(-47.5,11.5,5.81707229594993E-15));
#417=CARTESIAN_POINT('',(-47.25,11.75,5.78645612597124E-15));
#418=CARTESIAN_POINT('',(47.5,11.5,-5.81707229594993E-15));
#419=CARTESIAN_POINT('Origin',(0.,11.5,0.));
#420=CARTESIAN_POINT('Origin',(0.,11.5,0.));
#421=CARTESIAN_POINT('Origin',(-45.,12.,0.));
#422=CARTESIAN_POINT('',(-45.5,12.,5.57214293612046E-15));
#423=CARTESIAN_POINT('Origin',(0.,12.,0.));
#424=CARTESIAN_POINT('Origin',(0.,9.24892211121876,0.));
#425=CARTESIAN_POINT('',(47.5,6.49784422243751,-5.81707229594993E-15));
#426=CARTESIAN_POINT('',(47.5,9.24892211121876,-5.81707229594993E-15));
#427=CARTESIAN_POINT('',(-5.81707229594993E-15,6.49784422243751,-47.5));
#428=CARTESIAN_POINT('Origin',(0.,6.49784422243751,0.));
#429=CARTESIAN_POINT('',(-47.5,6.49784422243751,0.));
#430=CARTESIAN_POINT('Origin',(0.,6.49784422243751,0.));
#431=CARTESIAN_POINT('Origin',(0.,6.49784422243751,0.));
#432=CARTESIAN_POINT('Origin',(0.,11.75,0.));
#433=CARTESIAN_POINT('',(-45.,11.5,-5.51091059616309E-15));
#434=CARTESIAN_POINT('',(45.,11.5,-5.51091059616309E-15));
#435=CARTESIAN_POINT('Origin',(0.,11.5,0.));
#436=CARTESIAN_POINT('Origin',(0.,11.5,0.));
#437=CARTESIAN_POINT('',(-45.25,11.75,-5.54152676614177E-15));
#438=CARTESIAN_POINT('Origin',(0.,11.,0.));
#439=CARTESIAN_POINT('',(45.,10.,-5.51091059616309E-15));
#440=CARTESIAN_POINT('',(45.,11.,-5.51091059616309E-15));
#441=CARTESIAN_POINT('',(-45.,10.,0.));
#442=CARTESIAN_POINT('Origin',(0.,10.,0.));
#443=CARTESIAN_POINT('Origin',(0.,10.,0.));
#444=CARTESIAN_POINT('Origin',(0.,5.,0.));
#445=CARTESIAN_POINT('Origin',(-5.82691733303305E-15,5.,-47.5803908285227));
#446=CARTESIAN_POINT('Origin',(-38.25,10.,0.));
#447=CARTESIAN_POINT('',(-38.25,10.,0.));
#448=CARTESIAN_POINT('',(38.25,10.,-4.68427400673863E-15));
#449=CARTESIAN_POINT('Origin',(0.,10.,0.));
#450=CARTESIAN_POINT('Origin',(0.,10.,0.));
#451=CARTESIAN_POINT('Origin',(0.,8.,0.));
#452=CARTESIAN_POINT('',(38.25,6.,-4.68427400673863E-15));
#453=CARTESIAN_POINT('',(38.25,8.,-4.68427400673863E-15));
#454=CARTESIAN_POINT('',(-38.25,6.,0.));
#455=CARTESIAN_POINT('Origin',(0.,6.,0.));
#456=CARTESIAN_POINT('Origin',(0.,6.,0.));
#457=CARTESIAN_POINT('Origin',(-35.,6.,0.));
#458=CARTESIAN_POINT('',(-35.,6.,0.));
#459=CARTESIAN_POINT('',(35.,6.,-4.28626379701574E-15));
#460=CARTESIAN_POINT('Origin',(0.,6.,0.));
#461=CARTESIAN_POINT('Origin',(0.,6.,0.));
#462=CARTESIAN_POINT('Origin',(0.,3.,0.));
#463=CARTESIAN_POINT('',(35.,3.,-4.28626379701574E-15));
#464=UNCERTAINTY_MEASURE_WITH_UNIT(LENGTH_MEASURE(0.01),#468,
'DISTANCE_ACCURACY_VALUE',
'Maximum model space distance between geometric entities at asserted c
onnectivities');
#465=UNCERTAINTY_MEASURE_WITH_UNIT(LENGTH_MEASURE(0.01),#468,
'DISTANCE_ACCURACY_VALUE',
'Maximum model space distance between geometric entities at asserted c
onnectivities');
#466=(
GEOMETRIC_REPRESENTATION_CONTEXT(3)
GLOBAL_UNCERTAINTY_ASSIGNED_CONTEXT((#464))
GLOBAL_UNIT_ASSIGNED_CONTEXT((#468,#471,#470))
REPRESENTATION_CONTEXT('','3D')
);
#467=(
GEOMETRIC_REPRESENTATION_CONTEXT(3)
GLOBAL_UNCERTAINTY_ASSIGNED_CONTEXT((#465))
GLOBAL_UNIT_ASSIGNED_CONTEXT((#468,#471,#470))
REPRESENTATION_CONTEXT('','3D')
);
#468=(
LENGTH_UNIT()
NAMED_UNIT(*)
SI_UNIT(.MILLI.,.METRE.)
);
#469=(
LENGTH_UNIT()
NAMED_UNIT(*)
SI_UNIT(.CENTI.,.METRE.)
);
#470=(
NAMED_UNIT(*)
SI_UNIT($,.STERADIAN.)
SOLID_ANGLE_UNIT()
);
#471=(
NAMED_UNIT(*)
PLANE_ANGLE_UNIT()
SI_UNIT($,.RADIAN.)
);
#472=SHAPE_DEFINITION_REPRESENTATION(#473,#474);
#473=PRODUCT_DEFINITION_SHAPE('',$,#476);
#474=SHAPE_REPRESENTATION('',(#263),#466);
#475=PRODUCT_DEFINITION_CONTEXT('part definition',#480,'design');
#476=PRODUCT_DEFINITION('FL-63LF-W76','FL-63LF-W76',#477,#475);
#477=PRODUCT_DEFINITION_FORMATION('',$,#482);
#478=PRODUCT_RELATED_PRODUCT_CATEGORY('FL-63LF-W76','FL-63LF-W76',(#482));
#479=APPLICATION_PROTOCOL_DEFINITION('international standard',
'automotive_design',2009,#480);
#480=APPLICATION_CONTEXT(
'Core Data for Automotive Mechanical Design Process');
#481=PRODUCT_CONTEXT('part definition',#480,'mechanical');
#482=PRODUCT('FL-63LF-W76','FL-63LF-W76',$,(#481));
#483=PRESENTATION_STYLE_ASSIGNMENT((#484));
#484=SURFACE_STYLE_USAGE(.BOTH.,#485);
#485=SURFACE_SIDE_STYLE('',(#486));
#486=SURFACE_STYLE_FILL_AREA(#487);
#487=FILL_AREA_STYLE('',(#488));
#488=FILL_AREA_STYLE_COLOUR('',#489);
#489=COLOUR_RGB('',0.745098039215686,0.737254901960784,0.729411764705882);
ENDSEC;
END-ISO-10303-21;
