ISO-10303-21;
HEADER;
/* Generated by software containing ST-Developer
 * from STEP Tools, Inc. (www.steptools.com) 
 */

FILE_DESCRIPTION(
/* description */ (''),
/* implementation_level */ '2;1');

FILE_NAME(
/* name */ 'G:\\Flanges + FITTINGS\\NW50KF\\Step files\\FL-50KFUS.stp',

/* time_stamp */ '2018-04-03T13:41:06+01:00',
/* author */ ('paul'),
/* organization */ (''),
/* preprocessor_version */ 'ST-DEVELOPER v17',
/* originating_system */ 'Autodesk Inventor 2018',
/* authorisation */ '');

FILE_SCHEMA (('AUTOMOTIVE_DESIGN { 1 0 10303 214 3 1 1 }'));
ENDSEC;

DATA;
#10=MECHANICAL_DESIGN_GEOMETRIC_PRESENTATION_REPRESENTATION('',(#13),#342);
#11=SHAPE_REPRESENTATION_RELATIONSHIP('SRR','None',#349,#12);
#12=ADVANCED_BREP_SHAPE_REPRESENTATION('',(#14),#341);
#13=STYLED_ITEM('',(#358),#14);
#14=MANIFOLD_SOLID_BREP('Solid1',#176);
#15=CONICAL_SURFACE('',#214,33.7679491924311,1.30899693899575);
#16=FACE_BOUND('',#46,.T.);
#17=FACE_BOUND('',#49,.T.);
#18=FACE_BOUND('',#53,.T.);
#19=LINE('',#298,#24);
#20=LINE('',#306,#25);
#21=LINE('',#320,#26);
#22=LINE('',#326,#27);
#23=LINE('',#337,#28);
#24=VECTOR('',#238,23.25);
#25=VECTOR('',#247,25.6);
#26=VECTOR('',#264,37.5);
#27=VECTOR('',#271,33.7679491924311);
#28=VECTOR('',#284,25.4);
#29=CYLINDRICAL_SURFACE('',#199,23.25);
#30=CYLINDRICAL_SURFACE('',#205,25.6);
#31=CYLINDRICAL_SURFACE('',#211,37.5);
#32=CYLINDRICAL_SURFACE('',#220,25.4);
#33=FACE_OUTER_BOUND('',#43,.T.);
#34=FACE_OUTER_BOUND('',#44,.T.);
#35=FACE_OUTER_BOUND('',#45,.T.);
#36=FACE_OUTER_BOUND('',#47,.T.);
#37=FACE_OUTER_BOUND('',#48,.T.);
#38=FACE_OUTER_BOUND('',#50,.T.);
#39=FACE_OUTER_BOUND('',#51,.T.);
#40=FACE_OUTER_BOUND('',#52,.T.);
#41=FACE_OUTER_BOUND('',#54,.T.);
#42=FACE_OUTER_BOUND('',#55,.T.);
#43=EDGE_LOOP('',(#115,#116));
#44=EDGE_LOOP('',(#117,#118,#119,#120,#121,#122));
#45=EDGE_LOOP('',(#123,#124));
#46=EDGE_LOOP('',(#125,#126));
#47=EDGE_LOOP('',(#127,#128,#129,#130,#131,#132));
#48=EDGE_LOOP('',(#133,#134));
#49=EDGE_LOOP('',(#135,#136));
#50=EDGE_LOOP('',(#137,#138,#139,#140,#141,#142));
#51=EDGE_LOOP('',(#143,#144,#145,#146,#147,#148));
#52=EDGE_LOOP('',(#149,#150));
#53=EDGE_LOOP('',(#151,#152));
#54=EDGE_LOOP('',(#153,#154,#155,#156,#157,#158));
#55=EDGE_LOOP('',(#159,#160));
#56=CIRCLE('',#197,23.25);
#57=CIRCLE('',#198,23.25);
#58=CIRCLE('',#200,23.25);
#59=CIRCLE('',#201,23.25);
#60=CIRCLE('',#203,25.6);
#61=CIRCLE('',#204,25.6);
#62=CIRCLE('',#206,25.6);
#63=CIRCLE('',#207,25.6);
#64=CIRCLE('',#209,37.5);
#65=CIRCLE('',#210,37.5);
#66=CIRCLE('',#212,37.5);
#67=CIRCLE('',#213,37.5);
#68=CIRCLE('',#215,30.0358983848622);
#69=CIRCLE('',#216,30.0358983848622);
#70=CIRCLE('',#218,25.4);
#71=CIRCLE('',#219,25.4);
#72=CIRCLE('',#221,25.4);
#73=CIRCLE('',#222,25.4);
#74=VERTEX_POINT('',#289);
#75=VERTEX_POINT('',#290);
#76=VERTEX_POINT('',#294);
#77=VERTEX_POINT('',#295);
#78=VERTEX_POINT('',#300);
#79=VERTEX_POINT('',#301);
#80=VERTEX_POINT('',#305);
#81=VERTEX_POINT('',#307);
#82=VERTEX_POINT('',#311);
#83=VERTEX_POINT('',#312);
#84=VERTEX_POINT('',#316);
#85=VERTEX_POINT('',#317);
#86=VERTEX_POINT('',#322);
#87=VERTEX_POINT('',#323);
#88=VERTEX_POINT('',#328);
#89=VERTEX_POINT('',#329);
#90=VERTEX_POINT('',#333);
#91=VERTEX_POINT('',#334);
#92=EDGE_CURVE('',#74,#75,#56,.T.);
#93=EDGE_CURVE('',#75,#74,#57,.T.);
#94=EDGE_CURVE('',#76,#77,#58,.T.);
#95=EDGE_CURVE('',#77,#76,#59,.T.);
#96=EDGE_CURVE('',#77,#75,#19,.T.);
#97=EDGE_CURVE('',#78,#79,#60,.T.);
#98=EDGE_CURVE('',#79,#78,#61,.T.);
#99=EDGE_CURVE('',#79,#80,#20,.T.);
#100=EDGE_CURVE('',#81,#80,#62,.T.);
#101=EDGE_CURVE('',#80,#81,#63,.T.);
#102=EDGE_CURVE('',#82,#83,#64,.T.);
#103=EDGE_CURVE('',#83,#82,#65,.T.);
#104=EDGE_CURVE('',#84,#85,#66,.T.);
#105=EDGE_CURVE('',#85,#84,#67,.T.);
#106=EDGE_CURVE('',#85,#83,#21,.T.);
#107=EDGE_CURVE('',#86,#87,#68,.T.);
#108=EDGE_CURVE('',#87,#86,#69,.T.);
#109=EDGE_CURVE('',#87,#85,#22,.T.);
#110=EDGE_CURVE('',#88,#89,#70,.T.);
#111=EDGE_CURVE('',#89,#88,#71,.T.);
#112=EDGE_CURVE('',#90,#91,#72,.T.);
#113=EDGE_CURVE('',#91,#90,#73,.T.);
#114=EDGE_CURVE('',#91,#89,#23,.T.);
#115=ORIENTED_EDGE('',*,*,#92,.F.);
#116=ORIENTED_EDGE('',*,*,#93,.F.);
#117=ORIENTED_EDGE('',*,*,#94,.F.);
#118=ORIENTED_EDGE('',*,*,#95,.F.);
#119=ORIENTED_EDGE('',*,*,#96,.T.);
#120=ORIENTED_EDGE('',*,*,#93,.T.);
#121=ORIENTED_EDGE('',*,*,#92,.T.);
#122=ORIENTED_EDGE('',*,*,#96,.F.);
#123=ORIENTED_EDGE('',*,*,#97,.F.);
#124=ORIENTED_EDGE('',*,*,#98,.F.);
#125=ORIENTED_EDGE('',*,*,#94,.T.);
#126=ORIENTED_EDGE('',*,*,#95,.T.);
#127=ORIENTED_EDGE('',*,*,#97,.T.);
#128=ORIENTED_EDGE('',*,*,#99,.T.);
#129=ORIENTED_EDGE('',*,*,#100,.F.);
#130=ORIENTED_EDGE('',*,*,#101,.F.);
#131=ORIENTED_EDGE('',*,*,#99,.F.);
#132=ORIENTED_EDGE('',*,*,#98,.T.);
#133=ORIENTED_EDGE('',*,*,#102,.F.);
#134=ORIENTED_EDGE('',*,*,#103,.F.);
#135=ORIENTED_EDGE('',*,*,#100,.T.);
#136=ORIENTED_EDGE('',*,*,#101,.T.);
#137=ORIENTED_EDGE('',*,*,#104,.F.);
#138=ORIENTED_EDGE('',*,*,#105,.F.);
#139=ORIENTED_EDGE('',*,*,#106,.T.);
#140=ORIENTED_EDGE('',*,*,#103,.T.);
#141=ORIENTED_EDGE('',*,*,#102,.T.);
#142=ORIENTED_EDGE('',*,*,#106,.F.);
#143=ORIENTED_EDGE('',*,*,#107,.F.);
#144=ORIENTED_EDGE('',*,*,#108,.F.);
#145=ORIENTED_EDGE('',*,*,#109,.T.);
#146=ORIENTED_EDGE('',*,*,#105,.T.);
#147=ORIENTED_EDGE('',*,*,#104,.T.);
#148=ORIENTED_EDGE('',*,*,#109,.F.);
#149=ORIENTED_EDGE('',*,*,#107,.T.);
#150=ORIENTED_EDGE('',*,*,#108,.T.);
#151=ORIENTED_EDGE('',*,*,#110,.F.);
#152=ORIENTED_EDGE('',*,*,#111,.F.);
#153=ORIENTED_EDGE('',*,*,#112,.F.);
#154=ORIENTED_EDGE('',*,*,#113,.F.);
#155=ORIENTED_EDGE('',*,*,#114,.T.);
#156=ORIENTED_EDGE('',*,*,#111,.T.);
#157=ORIENTED_EDGE('',*,*,#110,.T.);
#158=ORIENTED_EDGE('',*,*,#114,.F.);
#159=ORIENTED_EDGE('',*,*,#112,.T.);
#160=ORIENTED_EDGE('',*,*,#113,.T.);
#161=PLANE('',#196);
#162=PLANE('',#202);
#163=PLANE('',#208);
#164=PLANE('',#217);
#165=PLANE('',#223);
#166=ADVANCED_FACE('',(#33),#161,.T.);
#167=ADVANCED_FACE('',(#34),#29,.T.);
#168=ADVANCED_FACE('',(#35,#16),#162,.T.);
#169=ADVANCED_FACE('',(#36),#30,.F.);
#170=ADVANCED_FACE('',(#37,#17),#163,.T.);
#171=ADVANCED_FACE('',(#38),#31,.T.);
#172=ADVANCED_FACE('',(#39),#15,.T.);
#173=ADVANCED_FACE('',(#40,#18),#164,.T.);
#174=ADVANCED_FACE('',(#41),#32,.T.);
#175=ADVANCED_FACE('',(#42),#165,.T.);
#176=CLOSED_SHELL('',(#166,#167,#168,#169,#170,#171,#172,#173,#174,#175));
#177=DERIVED_UNIT_ELEMENT(#179,1.);
#178=DERIVED_UNIT_ELEMENT(#344,3.);
#179=(
MASS_UNIT()
NAMED_UNIT(*)
SI_UNIT($,.GRAM.)
);
#180=DERIVED_UNIT((#177,#178));
#181=MEASURE_REPRESENTATION_ITEM('density measure',
POSITIVE_RATIO_MEASURE(8.),#180);
#182=PROPERTY_DEFINITION_REPRESENTATION(#187,#184);
#183=PROPERTY_DEFINITION_REPRESENTATION(#188,#185);
#184=REPRESENTATION('material name',(#186),#341);
#185=REPRESENTATION('density',(#181),#341);
#186=DESCRIPTIVE_REPRESENTATION_ITEM('Stainless Steel AISI 304',
'Stainless Steel AISI 304');
#187=PROPERTY_DEFINITION('material property','material name',#351);
#188=PROPERTY_DEFINITION('material property','density of part',#351);
#189=DATE_TIME_ROLE('creation_date');
#190=APPLIED_DATE_AND_TIME_ASSIGNMENT(#191,#189,(#351));
#191=DATE_AND_TIME(#192,#193);
#192=CALENDAR_DATE(2014,15,8);
#193=LOCAL_TIME(10,33,6.,#194);
#194=COORDINATED_UNIVERSAL_TIME_OFFSET(0,0,.BEHIND.);
#195=AXIS2_PLACEMENT_3D('placement',#287,#224,#225);
#196=AXIS2_PLACEMENT_3D('',#288,#226,#227);
#197=AXIS2_PLACEMENT_3D('',#291,#228,#229);
#198=AXIS2_PLACEMENT_3D('',#292,#230,#231);
#199=AXIS2_PLACEMENT_3D('',#293,#232,#233);
#200=AXIS2_PLACEMENT_3D('',#296,#234,#235);
#201=AXIS2_PLACEMENT_3D('',#297,#236,#237);
#202=AXIS2_PLACEMENT_3D('',#299,#239,#240);
#203=AXIS2_PLACEMENT_3D('',#302,#241,#242);
#204=AXIS2_PLACEMENT_3D('',#303,#243,#244);
#205=AXIS2_PLACEMENT_3D('',#304,#245,#246);
#206=AXIS2_PLACEMENT_3D('',#308,#248,#249);
#207=AXIS2_PLACEMENT_3D('',#309,#250,#251);
#208=AXIS2_PLACEMENT_3D('',#310,#252,#253);
#209=AXIS2_PLACEMENT_3D('',#313,#254,#255);
#210=AXIS2_PLACEMENT_3D('',#314,#256,#257);
#211=AXIS2_PLACEMENT_3D('',#315,#258,#259);
#212=AXIS2_PLACEMENT_3D('',#318,#260,#261);
#213=AXIS2_PLACEMENT_3D('',#319,#262,#263);
#214=AXIS2_PLACEMENT_3D('',#321,#265,#266);
#215=AXIS2_PLACEMENT_3D('',#324,#267,#268);
#216=AXIS2_PLACEMENT_3D('',#325,#269,#270);
#217=AXIS2_PLACEMENT_3D('',#327,#272,#273);
#218=AXIS2_PLACEMENT_3D('',#330,#274,#275);
#219=AXIS2_PLACEMENT_3D('',#331,#276,#277);
#220=AXIS2_PLACEMENT_3D('',#332,#278,#279);
#221=AXIS2_PLACEMENT_3D('',#335,#280,#281);
#222=AXIS2_PLACEMENT_3D('',#336,#282,#283);
#223=AXIS2_PLACEMENT_3D('',#338,#285,#286);
#224=DIRECTION('axis',(0.,0.,1.));
#225=DIRECTION('refdir',(1.,0.,0.));
#226=DIRECTION('center_axis',(0.,-1.,0.));
#227=DIRECTION('ref_axis',(0.,0.,-1.));
#228=DIRECTION('center_axis',(0.,1.,0.));
#229=DIRECTION('ref_axis',(1.,0.,0.));
#230=DIRECTION('center_axis',(0.,1.,0.));
#231=DIRECTION('ref_axis',(1.,0.,0.));
#232=DIRECTION('center_axis',(0.,1.,0.));
#233=DIRECTION('ref_axis',(-1.,0.,0.));
#234=DIRECTION('center_axis',(0.,1.,0.));
#235=DIRECTION('ref_axis',(1.,0.,0.));
#236=DIRECTION('center_axis',(0.,1.,0.));
#237=DIRECTION('ref_axis',(1.,0.,0.));
#238=DIRECTION('',(0.,-1.,0.));
#239=DIRECTION('center_axis',(0.,-1.,0.));
#240=DIRECTION('ref_axis',(0.,0.,-1.));
#241=DIRECTION('center_axis',(0.,1.,0.));
#242=DIRECTION('ref_axis',(1.,0.,0.));
#243=DIRECTION('center_axis',(0.,1.,0.));
#244=DIRECTION('ref_axis',(1.,0.,0.));
#245=DIRECTION('center_axis',(0.,1.,0.));
#246=DIRECTION('ref_axis',(-1.,0.,0.));
#247=DIRECTION('',(0.,-1.,0.));
#248=DIRECTION('center_axis',(0.,1.,0.));
#249=DIRECTION('ref_axis',(1.,0.,0.));
#250=DIRECTION('center_axis',(0.,1.,0.));
#251=DIRECTION('ref_axis',(1.,0.,0.));
#252=DIRECTION('center_axis',(0.,-1.,0.));
#253=DIRECTION('ref_axis',(0.,0.,-1.));
#254=DIRECTION('center_axis',(0.,1.,0.));
#255=DIRECTION('ref_axis',(1.,0.,0.));
#256=DIRECTION('center_axis',(0.,1.,0.));
#257=DIRECTION('ref_axis',(1.,0.,0.));
#258=DIRECTION('center_axis',(0.,1.,0.));
#259=DIRECTION('ref_axis',(-1.,0.,0.));
#260=DIRECTION('center_axis',(0.,1.,0.));
#261=DIRECTION('ref_axis',(1.,0.,0.));
#262=DIRECTION('center_axis',(0.,1.,0.));
#263=DIRECTION('ref_axis',(1.,0.,0.));
#264=DIRECTION('',(0.,-1.,0.));
#265=DIRECTION('center_axis',(0.,-1.,0.));
#266=DIRECTION('ref_axis',(-1.,0.,0.));
#267=DIRECTION('center_axis',(0.,1.,0.));
#268=DIRECTION('ref_axis',(1.,0.,0.));
#269=DIRECTION('center_axis',(0.,1.,0.));
#270=DIRECTION('ref_axis',(1.,0.,0.));
#271=DIRECTION('',(0.965925826289069,-0.258819045102519,-1.18291797137867E-16));
#272=DIRECTION('center_axis',(0.,1.,0.));
#273=DIRECTION('ref_axis',(0.,0.,1.));
#274=DIRECTION('center_axis',(0.,1.,0.));
#275=DIRECTION('ref_axis',(1.,0.,0.));
#276=DIRECTION('center_axis',(0.,1.,0.));
#277=DIRECTION('ref_axis',(1.,0.,0.));
#278=DIRECTION('center_axis',(0.,1.,0.));
#279=DIRECTION('ref_axis',(-1.,0.,0.));
#280=DIRECTION('center_axis',(0.,1.,0.));
#281=DIRECTION('ref_axis',(1.,0.,0.));
#282=DIRECTION('center_axis',(0.,1.,0.));
#283=DIRECTION('ref_axis',(1.,0.,0.));
#284=DIRECTION('',(0.,-1.,0.));
#285=DIRECTION('center_axis',(0.,1.,0.));
#286=DIRECTION('ref_axis',(0.,0.,1.));
#287=CARTESIAN_POINT('',(0.,0.,0.));
#288=CARTESIAN_POINT('Origin',(-23.25,0.,0.));
#289=CARTESIAN_POINT('',(-23.25,0.,0.));
#290=CARTESIAN_POINT('',(23.25,0.,-2.8473038080176E-15));
#291=CARTESIAN_POINT('Origin',(0.,0.,0.));
#292=CARTESIAN_POINT('Origin',(0.,0.,0.));
#293=CARTESIAN_POINT('Origin',(0.,1.25000000000001,0.));
#294=CARTESIAN_POINT('',(-23.25,2.50000000000002,0.));
#295=CARTESIAN_POINT('',(23.25,2.50000000000002,-2.8473038080176E-15));
#296=CARTESIAN_POINT('Origin',(0.,2.50000000000002,0.));
#297=CARTESIAN_POINT('Origin',(0.,2.50000000000002,0.));
#298=CARTESIAN_POINT('',(23.25,1.25000000000001,-2.8473038080176E-15));
#299=CARTESIAN_POINT('Origin',(-25.6,2.5,0.));
#300=CARTESIAN_POINT('',(-25.6,2.5,0.));
#301=CARTESIAN_POINT('',(25.6,2.5,-3.13509580581722E-15));
#302=CARTESIAN_POINT('Origin',(0.,2.5,0.));
#303=CARTESIAN_POINT('Origin',(0.,2.5,0.));
#304=CARTESIAN_POINT('Origin',(0.,1.25,0.));
#305=CARTESIAN_POINT('',(25.6,0.,-3.13509580581722E-15));
#306=CARTESIAN_POINT('',(25.6,1.25,-3.13509580581722E-15));
#307=CARTESIAN_POINT('',(-25.6,0.,0.));
#308=CARTESIAN_POINT('Origin',(0.,0.,0.));
#309=CARTESIAN_POINT('Origin',(0.,0.,0.));
#310=CARTESIAN_POINT('Origin',(-37.5,0.,0.));
#311=CARTESIAN_POINT('',(-37.5,0.,0.));
#312=CARTESIAN_POINT('',(37.5,0.,-4.59242549680258E-15));
#313=CARTESIAN_POINT('Origin',(0.,0.,0.));
#314=CARTESIAN_POINT('Origin',(0.,0.,0.));
#315=CARTESIAN_POINT('Origin',(0.,1.5,0.));
#316=CARTESIAN_POINT('',(-37.5,3.,0.));
#317=CARTESIAN_POINT('',(37.5,3.,-4.59242549680258E-15));
#318=CARTESIAN_POINT('Origin',(0.,3.,0.));
#319=CARTESIAN_POINT('Origin',(0.,3.,0.));
#320=CARTESIAN_POINT('',(37.5,1.5,-4.59242549680258E-15));
#321=CARTESIAN_POINT('Origin',(0.,4.,0.));
#322=CARTESIAN_POINT('',(-30.0358983848622,5.,0.));
#323=CARTESIAN_POINT('',(30.0358983848622,5.,-3.67833668165366E-15));
#324=CARTESIAN_POINT('Origin',(0.,5.,0.));
#325=CARTESIAN_POINT('Origin',(0.,5.,0.));
#326=CARTESIAN_POINT('',(33.7679491924311,4.,-4.13538108922812E-15));
#327=CARTESIAN_POINT('Origin',(-25.4,5.,0.));
#328=CARTESIAN_POINT('',(-25.4,5.,0.));
#329=CARTESIAN_POINT('',(25.4,5.,-3.11060286983428E-15));
#330=CARTESIAN_POINT('Origin',(0.,5.,0.));
#331=CARTESIAN_POINT('Origin',(0.,5.,0.));
#332=CARTESIAN_POINT('Origin',(0.,15.2,0.));
#333=CARTESIAN_POINT('',(-25.4,25.4,0.));
#334=CARTESIAN_POINT('',(25.4,25.4,-3.11060286983428E-15));
#335=CARTESIAN_POINT('Origin',(0.,25.4,0.));
#336=CARTESIAN_POINT('Origin',(0.,25.4,0.));
#337=CARTESIAN_POINT('',(25.4,15.2,-3.11060286983428E-15));
#338=CARTESIAN_POINT('Origin',(0.,25.4,0.));
#339=UNCERTAINTY_MEASURE_WITH_UNIT(LENGTH_MEASURE(0.01),#343,
'DISTANCE_ACCURACY_VALUE',
'Maximum model space distance between geometric entities at asserted c
onnectivities');
#340=UNCERTAINTY_MEASURE_WITH_UNIT(LENGTH_MEASURE(0.01),#343,
'DISTANCE_ACCURACY_VALUE',
'Maximum model space distance between geometric entities at asserted c
onnectivities');
#341=(
GEOMETRIC_REPRESENTATION_CONTEXT(3)
GLOBAL_UNCERTAINTY_ASSIGNED_CONTEXT((#339))
GLOBAL_UNIT_ASSIGNED_CONTEXT((#343,#346,#345))
REPRESENTATION_CONTEXT('','3D')
);
#342=(
GEOMETRIC_REPRESENTATION_CONTEXT(3)
GLOBAL_UNCERTAINTY_ASSIGNED_CONTEXT((#340))
GLOBAL_UNIT_ASSIGNED_CONTEXT((#343,#346,#345))
REPRESENTATION_CONTEXT('','3D')
);
#343=(
LENGTH_UNIT()
NAMED_UNIT(*)
SI_UNIT(.MILLI.,.METRE.)
);
#344=(
LENGTH_UNIT()
NAMED_UNIT(*)
SI_UNIT(.CENTI.,.METRE.)
);
#345=(
NAMED_UNIT(*)
SI_UNIT($,.STERADIAN.)
SOLID_ANGLE_UNIT()
);
#346=(
NAMED_UNIT(*)
PLANE_ANGLE_UNIT()
SI_UNIT($,.RADIAN.)
);
#347=SHAPE_DEFINITION_REPRESENTATION(#348,#349);
#348=PRODUCT_DEFINITION_SHAPE('',$,#351);
#349=SHAPE_REPRESENTATION('',(#195),#341);
#350=PRODUCT_DEFINITION_CONTEXT('part definition',#355,'design');
#351=PRODUCT_DEFINITION('FL-50KFUS','FL-50KFUS',#352,#350);
#352=PRODUCT_DEFINITION_FORMATION('',$,#357);
#353=PRODUCT_RELATED_PRODUCT_CATEGORY('FL-50KFUS','FL-50KFUS',(#357));
#354=APPLICATION_PROTOCOL_DEFINITION('international standard',
'automotive_design',2009,#355);
#355=APPLICATION_CONTEXT(
'Core Data for Automotive Mechanical Design Process');
#356=PRODUCT_CONTEXT('part definition',#355,'mechanical');
#357=PRODUCT('FL-50KFUS','FL-50KFUS',$,(#356));
#358=PRESENTATION_STYLE_ASSIGNMENT((#359));
#359=SURFACE_STYLE_USAGE(.BOTH.,#360);
#360=SURFACE_SIDE_STYLE('',(#361));
#361=SURFACE_STYLE_FILL_AREA(#362);
#362=FILL_AREA_STYLE('',(#363));
#363=FILL_AREA_STYLE_COLOUR('',#364);
#364=COLOUR_RGB('',0.745098039215686,0.737254901960784,0.729411764705882);
ENDSEC;
END-ISO-10303-21;
