ISO-10303-21;
HEADER;
/* Generated by software containing ST-Developer
 * from STEP Tools, Inc. (www.steptools.com) 
 */

FILE_DESCRIPTION(
/* description */ (''),
/* implementation_level */ '2;1');

FILE_NAME(
/* name */ 'G:\\Flanges + FITTINGS\\NW50KF\\Step files\\FL-50KF-51SW.s
tp',
/* time_stamp */ '2018-04-03T13:59:04+01:00',
/* author */ ('paul'),
/* organization */ (''),
/* preprocessor_version */ 'ST-DEVELOPER v17',
/* originating_system */ 'Autodesk Inventor 2018',
/* authorisation */ '');

FILE_SCHEMA (('AUTOMOTIVE_DESIGN { 1 0 10303 214 3 1 1 }'));
ENDSEC;

DATA;
#10=MECHANICAL_DESIGN_GEOMETRIC_PRESENTATION_REPRESENTATION('',(#13),#401);
#11=SHAPE_REPRESENTATION_RELATIONSHIP('SRR','None',#408,#12);
#12=ADVANCED_BREP_SHAPE_REPRESENTATION('',(#14),#400);
#13=STYLED_ITEM('',(#417),#14);
#14=MANIFOLD_SOLID_BREP('Solid1',#209);
#15=CONICAL_SURFACE('',#237,33.7679491924311,1.30899693899575);
#16=LINE('',#351,#22);
#17=LINE('',#357,#23);
#18=LINE('',#368,#24);
#19=LINE('',#376,#25);
#20=LINE('',#387,#26);
#21=LINE('',#397,#27);
#22=VECTOR('',#280,37.5);
#23=VECTOR('',#287,33.7679491924311);
#24=VECTOR('',#300,28.75);
#25=VECTOR('',#309,25.5);
#26=VECTOR('',#322,24.5);
#27=VECTOR('',#335,25.6);
#28=CYLINDRICAL_SURFACE('',#234,37.5);
#29=CYLINDRICAL_SURFACE('',#243,28.75);
#30=CYLINDRICAL_SURFACE('',#249,25.5);
#31=CYLINDRICAL_SURFACE('',#255,24.5);
#32=CYLINDRICAL_SURFACE('',#261,25.6);
#33=FACE_BOUND('',#50,.T.);
#34=FACE_BOUND('',#54,.T.);
#35=FACE_BOUND('',#57,.T.);
#36=FACE_BOUND('',#60,.T.);
#37=FACE_BOUND('',#63,.T.);
#38=FACE_OUTER_BOUND('',#49,.T.);
#39=FACE_OUTER_BOUND('',#51,.T.);
#40=FACE_OUTER_BOUND('',#52,.T.);
#41=FACE_OUTER_BOUND('',#53,.T.);
#42=FACE_OUTER_BOUND('',#55,.T.);
#43=FACE_OUTER_BOUND('',#56,.T.);
#44=FACE_OUTER_BOUND('',#58,.T.);
#45=FACE_OUTER_BOUND('',#59,.T.);
#46=FACE_OUTER_BOUND('',#61,.T.);
#47=FACE_OUTER_BOUND('',#62,.T.);
#48=FACE_OUTER_BOUND('',#64,.T.);
#49=EDGE_LOOP('',(#137,#138));
#50=EDGE_LOOP('',(#139,#140));
#51=EDGE_LOOP('',(#141,#142,#143,#144,#145,#146));
#52=EDGE_LOOP('',(#147,#148,#149,#150,#151,#152));
#53=EDGE_LOOP('',(#153,#154));
#54=EDGE_LOOP('',(#155,#156));
#55=EDGE_LOOP('',(#157,#158,#159,#160,#161,#162));
#56=EDGE_LOOP('',(#163,#164));
#57=EDGE_LOOP('',(#165,#166));
#58=EDGE_LOOP('',(#167,#168,#169,#170,#171,#172));
#59=EDGE_LOOP('',(#173,#174));
#60=EDGE_LOOP('',(#175,#176));
#61=EDGE_LOOP('',(#177,#178,#179,#180,#181,#182));
#62=EDGE_LOOP('',(#183,#184));
#63=EDGE_LOOP('',(#185,#186));
#64=EDGE_LOOP('',(#187,#188,#189,#190,#191,#192));
#65=CIRCLE('',#230,37.5);
#66=CIRCLE('',#231,37.5);
#67=CIRCLE('',#232,25.6);
#68=CIRCLE('',#233,25.6);
#69=CIRCLE('',#235,37.5);
#70=CIRCLE('',#236,37.5);
#71=CIRCLE('',#238,30.0358983848622);
#72=CIRCLE('',#239,30.0358983848622);
#73=CIRCLE('',#241,28.75);
#74=CIRCLE('',#242,28.75);
#75=CIRCLE('',#244,28.75);
#76=CIRCLE('',#245,28.75);
#77=CIRCLE('',#247,25.5);
#78=CIRCLE('',#248,25.5);
#79=CIRCLE('',#250,25.5);
#80=CIRCLE('',#251,25.5);
#81=CIRCLE('',#253,24.5);
#82=CIRCLE('',#254,24.5);
#83=CIRCLE('',#256,24.5);
#84=CIRCLE('',#257,24.5);
#85=CIRCLE('',#259,25.6);
#86=CIRCLE('',#260,25.6);
#87=VERTEX_POINT('',#338);
#88=VERTEX_POINT('',#339);
#89=VERTEX_POINT('',#342);
#90=VERTEX_POINT('',#343);
#91=VERTEX_POINT('',#347);
#92=VERTEX_POINT('',#348);
#93=VERTEX_POINT('',#353);
#94=VERTEX_POINT('',#354);
#95=VERTEX_POINT('',#359);
#96=VERTEX_POINT('',#360);
#97=VERTEX_POINT('',#364);
#98=VERTEX_POINT('',#365);
#99=VERTEX_POINT('',#370);
#100=VERTEX_POINT('',#371);
#101=VERTEX_POINT('',#375);
#102=VERTEX_POINT('',#377);
#103=VERTEX_POINT('',#381);
#104=VERTEX_POINT('',#382);
#105=VERTEX_POINT('',#386);
#106=VERTEX_POINT('',#388);
#107=VERTEX_POINT('',#392);
#108=VERTEX_POINT('',#393);
#109=EDGE_CURVE('',#87,#88,#65,.T.);
#110=EDGE_CURVE('',#88,#87,#66,.T.);
#111=EDGE_CURVE('',#89,#90,#67,.T.);
#112=EDGE_CURVE('',#90,#89,#68,.T.);
#113=EDGE_CURVE('',#91,#92,#69,.T.);
#114=EDGE_CURVE('',#92,#91,#70,.T.);
#115=EDGE_CURVE('',#92,#88,#16,.T.);
#116=EDGE_CURVE('',#93,#94,#71,.T.);
#117=EDGE_CURVE('',#94,#93,#72,.T.);
#118=EDGE_CURVE('',#94,#92,#17,.T.);
#119=EDGE_CURVE('',#95,#96,#73,.T.);
#120=EDGE_CURVE('',#96,#95,#74,.T.);
#121=EDGE_CURVE('',#97,#98,#75,.T.);
#122=EDGE_CURVE('',#98,#97,#76,.T.);
#123=EDGE_CURVE('',#98,#96,#18,.T.);
#124=EDGE_CURVE('',#99,#100,#77,.T.);
#125=EDGE_CURVE('',#100,#99,#78,.T.);
#126=EDGE_CURVE('',#100,#101,#19,.T.);
#127=EDGE_CURVE('',#102,#101,#79,.T.);
#128=EDGE_CURVE('',#101,#102,#80,.T.);
#129=EDGE_CURVE('',#103,#104,#81,.T.);
#130=EDGE_CURVE('',#104,#103,#82,.T.);
#131=EDGE_CURVE('',#104,#105,#20,.T.);
#132=EDGE_CURVE('',#106,#105,#83,.T.);
#133=EDGE_CURVE('',#105,#106,#84,.T.);
#134=EDGE_CURVE('',#107,#108,#85,.T.);
#135=EDGE_CURVE('',#108,#107,#86,.T.);
#136=EDGE_CURVE('',#108,#90,#21,.T.);
#137=ORIENTED_EDGE('',*,*,#109,.F.);
#138=ORIENTED_EDGE('',*,*,#110,.F.);
#139=ORIENTED_EDGE('',*,*,#111,.T.);
#140=ORIENTED_EDGE('',*,*,#112,.T.);
#141=ORIENTED_EDGE('',*,*,#113,.F.);
#142=ORIENTED_EDGE('',*,*,#114,.F.);
#143=ORIENTED_EDGE('',*,*,#115,.T.);
#144=ORIENTED_EDGE('',*,*,#110,.T.);
#145=ORIENTED_EDGE('',*,*,#109,.T.);
#146=ORIENTED_EDGE('',*,*,#115,.F.);
#147=ORIENTED_EDGE('',*,*,#116,.F.);
#148=ORIENTED_EDGE('',*,*,#117,.F.);
#149=ORIENTED_EDGE('',*,*,#118,.T.);
#150=ORIENTED_EDGE('',*,*,#114,.T.);
#151=ORIENTED_EDGE('',*,*,#113,.T.);
#152=ORIENTED_EDGE('',*,*,#118,.F.);
#153=ORIENTED_EDGE('',*,*,#116,.T.);
#154=ORIENTED_EDGE('',*,*,#117,.T.);
#155=ORIENTED_EDGE('',*,*,#119,.F.);
#156=ORIENTED_EDGE('',*,*,#120,.F.);
#157=ORIENTED_EDGE('',*,*,#121,.F.);
#158=ORIENTED_EDGE('',*,*,#122,.F.);
#159=ORIENTED_EDGE('',*,*,#123,.T.);
#160=ORIENTED_EDGE('',*,*,#120,.T.);
#161=ORIENTED_EDGE('',*,*,#119,.T.);
#162=ORIENTED_EDGE('',*,*,#123,.F.);
#163=ORIENTED_EDGE('',*,*,#121,.T.);
#164=ORIENTED_EDGE('',*,*,#122,.T.);
#165=ORIENTED_EDGE('',*,*,#124,.F.);
#166=ORIENTED_EDGE('',*,*,#125,.F.);
#167=ORIENTED_EDGE('',*,*,#124,.T.);
#168=ORIENTED_EDGE('',*,*,#126,.T.);
#169=ORIENTED_EDGE('',*,*,#127,.F.);
#170=ORIENTED_EDGE('',*,*,#128,.F.);
#171=ORIENTED_EDGE('',*,*,#126,.F.);
#172=ORIENTED_EDGE('',*,*,#125,.T.);
#173=ORIENTED_EDGE('',*,*,#127,.T.);
#174=ORIENTED_EDGE('',*,*,#128,.T.);
#175=ORIENTED_EDGE('',*,*,#129,.F.);
#176=ORIENTED_EDGE('',*,*,#130,.F.);
#177=ORIENTED_EDGE('',*,*,#129,.T.);
#178=ORIENTED_EDGE('',*,*,#131,.T.);
#179=ORIENTED_EDGE('',*,*,#132,.F.);
#180=ORIENTED_EDGE('',*,*,#133,.F.);
#181=ORIENTED_EDGE('',*,*,#131,.F.);
#182=ORIENTED_EDGE('',*,*,#130,.T.);
#183=ORIENTED_EDGE('',*,*,#134,.F.);
#184=ORIENTED_EDGE('',*,*,#135,.F.);
#185=ORIENTED_EDGE('',*,*,#132,.T.);
#186=ORIENTED_EDGE('',*,*,#133,.T.);
#187=ORIENTED_EDGE('',*,*,#134,.T.);
#188=ORIENTED_EDGE('',*,*,#136,.T.);
#189=ORIENTED_EDGE('',*,*,#111,.F.);
#190=ORIENTED_EDGE('',*,*,#112,.F.);
#191=ORIENTED_EDGE('',*,*,#136,.F.);
#192=ORIENTED_EDGE('',*,*,#135,.T.);
#193=PLANE('',#229);
#194=PLANE('',#240);
#195=PLANE('',#246);
#196=PLANE('',#252);
#197=PLANE('',#258);
#198=ADVANCED_FACE('',(#38,#33),#193,.T.);
#199=ADVANCED_FACE('',(#39),#28,.T.);
#200=ADVANCED_FACE('',(#40),#15,.T.);
#201=ADVANCED_FACE('',(#41,#34),#194,.T.);
#202=ADVANCED_FACE('',(#42),#29,.T.);
#203=ADVANCED_FACE('',(#43,#35),#195,.T.);
#204=ADVANCED_FACE('',(#44),#30,.F.);
#205=ADVANCED_FACE('',(#45,#36),#196,.T.);
#206=ADVANCED_FACE('',(#46),#31,.F.);
#207=ADVANCED_FACE('',(#47,#37),#197,.T.);
#208=ADVANCED_FACE('',(#48),#32,.F.);
#209=CLOSED_SHELL('',(#198,#199,#200,#201,#202,#203,#204,#205,#206,#207,
#208));
#210=DERIVED_UNIT_ELEMENT(#212,1.);
#211=DERIVED_UNIT_ELEMENT(#403,3.);
#212=(
MASS_UNIT()
NAMED_UNIT(*)
SI_UNIT($,.GRAM.)
);
#213=DERIVED_UNIT((#210,#211));
#214=MEASURE_REPRESENTATION_ITEM('density measure',
POSITIVE_RATIO_MEASURE(8.),#213);
#215=PROPERTY_DEFINITION_REPRESENTATION(#220,#217);
#216=PROPERTY_DEFINITION_REPRESENTATION(#221,#218);
#217=REPRESENTATION('material name',(#219),#400);
#218=REPRESENTATION('density',(#214),#400);
#219=DESCRIPTIVE_REPRESENTATION_ITEM('Stainless Steel AISI 304',
'Stainless Steel AISI 304');
#220=PROPERTY_DEFINITION('material property','material name',#410);
#221=PROPERTY_DEFINITION('material property','density of part',#410);
#222=DATE_TIME_ROLE('creation_date');
#223=APPLIED_DATE_AND_TIME_ASSIGNMENT(#224,#222,(#410));
#224=DATE_AND_TIME(#225,#226);
#225=CALENDAR_DATE(2014,15,8);
#226=LOCAL_TIME(10,33,6.,#227);
#227=COORDINATED_UNIVERSAL_TIME_OFFSET(0,0,.BEHIND.);
#228=AXIS2_PLACEMENT_3D('placement',#336,#262,#263);
#229=AXIS2_PLACEMENT_3D('',#337,#264,#265);
#230=AXIS2_PLACEMENT_3D('',#340,#266,#267);
#231=AXIS2_PLACEMENT_3D('',#341,#268,#269);
#232=AXIS2_PLACEMENT_3D('',#344,#270,#271);
#233=AXIS2_PLACEMENT_3D('',#345,#272,#273);
#234=AXIS2_PLACEMENT_3D('',#346,#274,#275);
#235=AXIS2_PLACEMENT_3D('',#349,#276,#277);
#236=AXIS2_PLACEMENT_3D('',#350,#278,#279);
#237=AXIS2_PLACEMENT_3D('',#352,#281,#282);
#238=AXIS2_PLACEMENT_3D('',#355,#283,#284);
#239=AXIS2_PLACEMENT_3D('',#356,#285,#286);
#240=AXIS2_PLACEMENT_3D('',#358,#288,#289);
#241=AXIS2_PLACEMENT_3D('',#361,#290,#291);
#242=AXIS2_PLACEMENT_3D('',#362,#292,#293);
#243=AXIS2_PLACEMENT_3D('',#363,#294,#295);
#244=AXIS2_PLACEMENT_3D('',#366,#296,#297);
#245=AXIS2_PLACEMENT_3D('',#367,#298,#299);
#246=AXIS2_PLACEMENT_3D('',#369,#301,#302);
#247=AXIS2_PLACEMENT_3D('',#372,#303,#304);
#248=AXIS2_PLACEMENT_3D('',#373,#305,#306);
#249=AXIS2_PLACEMENT_3D('',#374,#307,#308);
#250=AXIS2_PLACEMENT_3D('',#378,#310,#311);
#251=AXIS2_PLACEMENT_3D('',#379,#312,#313);
#252=AXIS2_PLACEMENT_3D('',#380,#314,#315);
#253=AXIS2_PLACEMENT_3D('',#383,#316,#317);
#254=AXIS2_PLACEMENT_3D('',#384,#318,#319);
#255=AXIS2_PLACEMENT_3D('',#385,#320,#321);
#256=AXIS2_PLACEMENT_3D('',#389,#323,#324);
#257=AXIS2_PLACEMENT_3D('',#390,#325,#326);
#258=AXIS2_PLACEMENT_3D('',#391,#327,#328);
#259=AXIS2_PLACEMENT_3D('',#394,#329,#330);
#260=AXIS2_PLACEMENT_3D('',#395,#331,#332);
#261=AXIS2_PLACEMENT_3D('',#396,#333,#334);
#262=DIRECTION('axis',(0.,0.,1.));
#263=DIRECTION('refdir',(1.,0.,0.));
#264=DIRECTION('center_axis',(0.,-1.,0.));
#265=DIRECTION('ref_axis',(0.,0.,-1.));
#266=DIRECTION('center_axis',(0.,1.,0.));
#267=DIRECTION('ref_axis',(1.,0.,0.));
#268=DIRECTION('center_axis',(0.,1.,0.));
#269=DIRECTION('ref_axis',(1.,0.,0.));
#270=DIRECTION('center_axis',(0.,1.,0.));
#271=DIRECTION('ref_axis',(1.,0.,0.));
#272=DIRECTION('center_axis',(0.,1.,0.));
#273=DIRECTION('ref_axis',(1.,0.,0.));
#274=DIRECTION('center_axis',(0.,1.,0.));
#275=DIRECTION('ref_axis',(-1.,0.,0.));
#276=DIRECTION('center_axis',(0.,1.,0.));
#277=DIRECTION('ref_axis',(1.,0.,0.));
#278=DIRECTION('center_axis',(0.,1.,0.));
#279=DIRECTION('ref_axis',(1.,0.,0.));
#280=DIRECTION('',(0.,-1.,0.));
#281=DIRECTION('center_axis',(0.,-1.,0.));
#282=DIRECTION('ref_axis',(-1.,0.,0.));
#283=DIRECTION('center_axis',(0.,1.,0.));
#284=DIRECTION('ref_axis',(1.,0.,0.));
#285=DIRECTION('center_axis',(0.,1.,0.));
#286=DIRECTION('ref_axis',(1.,0.,0.));
#287=DIRECTION('',(0.965925826289069,-0.258819045102519,-1.18291797137867E-16));
#288=DIRECTION('center_axis',(0.,1.,0.));
#289=DIRECTION('ref_axis',(0.,0.,1.));
#290=DIRECTION('center_axis',(0.,1.,0.));
#291=DIRECTION('ref_axis',(1.,0.,0.));
#292=DIRECTION('center_axis',(0.,1.,0.));
#293=DIRECTION('ref_axis',(1.,0.,0.));
#294=DIRECTION('center_axis',(0.,1.,0.));
#295=DIRECTION('ref_axis',(-1.,0.,0.));
#296=DIRECTION('center_axis',(0.,1.,0.));
#297=DIRECTION('ref_axis',(1.,0.,0.));
#298=DIRECTION('center_axis',(0.,1.,0.));
#299=DIRECTION('ref_axis',(1.,0.,0.));
#300=DIRECTION('',(0.,-1.,0.));
#301=DIRECTION('center_axis',(0.,1.,0.));
#302=DIRECTION('ref_axis',(0.,0.,1.));
#303=DIRECTION('center_axis',(0.,1.,0.));
#304=DIRECTION('ref_axis',(1.,0.,0.));
#305=DIRECTION('center_axis',(0.,1.,0.));
#306=DIRECTION('ref_axis',(1.,0.,0.));
#307=DIRECTION('center_axis',(0.,1.,0.));
#308=DIRECTION('ref_axis',(-1.,0.,0.));
#309=DIRECTION('',(0.,-1.,0.));
#310=DIRECTION('center_axis',(0.,1.,0.));
#311=DIRECTION('ref_axis',(1.,0.,0.));
#312=DIRECTION('center_axis',(0.,1.,0.));
#313=DIRECTION('ref_axis',(1.,0.,0.));
#314=DIRECTION('center_axis',(0.,1.,0.));
#315=DIRECTION('ref_axis',(0.,0.,1.));
#316=DIRECTION('center_axis',(0.,1.,0.));
#317=DIRECTION('ref_axis',(1.,0.,0.));
#318=DIRECTION('center_axis',(0.,1.,0.));
#319=DIRECTION('ref_axis',(1.,0.,0.));
#320=DIRECTION('center_axis',(0.,1.,0.));
#321=DIRECTION('ref_axis',(-1.,0.,0.));
#322=DIRECTION('',(0.,-1.,0.));
#323=DIRECTION('center_axis',(0.,1.,0.));
#324=DIRECTION('ref_axis',(1.,0.,0.));
#325=DIRECTION('center_axis',(0.,1.,0.));
#326=DIRECTION('ref_axis',(1.,0.,0.));
#327=DIRECTION('center_axis',(0.,-1.,0.));
#328=DIRECTION('ref_axis',(0.,0.,-1.));
#329=DIRECTION('center_axis',(0.,1.,0.));
#330=DIRECTION('ref_axis',(1.,0.,0.));
#331=DIRECTION('center_axis',(0.,1.,0.));
#332=DIRECTION('ref_axis',(1.,0.,0.));
#333=DIRECTION('center_axis',(0.,1.,0.));
#334=DIRECTION('ref_axis',(-1.,0.,0.));
#335=DIRECTION('',(0.,-1.,0.));
#336=CARTESIAN_POINT('',(0.,0.,0.));
#337=CARTESIAN_POINT('Origin',(-37.5,0.,0.));
#338=CARTESIAN_POINT('',(-37.5,0.,0.));
#339=CARTESIAN_POINT('',(37.5,0.,-4.59242549680258E-15));
#340=CARTESIAN_POINT('Origin',(0.,0.,0.));
#341=CARTESIAN_POINT('Origin',(0.,0.,0.));
#342=CARTESIAN_POINT('',(-25.6,0.,0.));
#343=CARTESIAN_POINT('',(25.6,0.,-3.13509580581722E-15));
#344=CARTESIAN_POINT('Origin',(0.,0.,0.));
#345=CARTESIAN_POINT('Origin',(0.,0.,0.));
#346=CARTESIAN_POINT('Origin',(0.,1.5,0.));
#347=CARTESIAN_POINT('',(-37.5,3.,0.));
#348=CARTESIAN_POINT('',(37.5,3.,-4.59242549680258E-15));
#349=CARTESIAN_POINT('Origin',(0.,3.,0.));
#350=CARTESIAN_POINT('Origin',(0.,3.,0.));
#351=CARTESIAN_POINT('',(37.5,1.5,-4.59242549680258E-15));
#352=CARTESIAN_POINT('Origin',(0.,4.,0.));
#353=CARTESIAN_POINT('',(-30.0358983848622,5.,0.));
#354=CARTESIAN_POINT('',(30.0358983848622,5.,-3.67833668165366E-15));
#355=CARTESIAN_POINT('Origin',(0.,5.,0.));
#356=CARTESIAN_POINT('Origin',(0.,5.,0.));
#357=CARTESIAN_POINT('',(33.7679491924311,4.,-4.13538108922812E-15));
#358=CARTESIAN_POINT('Origin',(-28.75,5.,0.));
#359=CARTESIAN_POINT('',(-28.75,5.,0.));
#360=CARTESIAN_POINT('',(28.75,5.,-3.52085954754864E-15));
#361=CARTESIAN_POINT('Origin',(0.,5.,0.));
#362=CARTESIAN_POINT('Origin',(0.,5.,0.));
#363=CARTESIAN_POINT('Origin',(0.,8.85,0.));
#364=CARTESIAN_POINT('',(-28.75,12.7,0.));
#365=CARTESIAN_POINT('',(28.75,12.7,-3.52085954754864E-15));
#366=CARTESIAN_POINT('Origin',(0.,12.7,0.));
#367=CARTESIAN_POINT('Origin',(0.,12.7,0.));
#368=CARTESIAN_POINT('',(28.75,8.85,-3.52085954754864E-15));
#369=CARTESIAN_POINT('Origin',(-25.5,12.7,0.));
#370=CARTESIAN_POINT('',(-25.5,12.7,0.));
#371=CARTESIAN_POINT('',(25.5,12.7,-3.12284933782575E-15));
#372=CARTESIAN_POINT('Origin',(0.,12.7,0.));
#373=CARTESIAN_POINT('Origin',(0.,12.7,0.));
#374=CARTESIAN_POINT('Origin',(0.,8.25,0.));
#375=CARTESIAN_POINT('',(25.5,3.8,-3.12284933782575E-15));
#376=CARTESIAN_POINT('',(25.5,8.25,-3.12284933782575E-15));
#377=CARTESIAN_POINT('',(-25.5,3.8,0.));
#378=CARTESIAN_POINT('Origin',(0.,3.8,0.));
#379=CARTESIAN_POINT('Origin',(0.,3.8,0.));
#380=CARTESIAN_POINT('Origin',(-24.5,3.8,0.));
#381=CARTESIAN_POINT('',(-24.5,3.8,0.));
#382=CARTESIAN_POINT('',(24.5,3.8,-3.00038465791102E-15));
#383=CARTESIAN_POINT('Origin',(0.,3.8,0.));
#384=CARTESIAN_POINT('Origin',(0.,3.8,0.));
#385=CARTESIAN_POINT('Origin',(0.,3.15,0.));
#386=CARTESIAN_POINT('',(24.5,2.5,-3.00038465791102E-15));
#387=CARTESIAN_POINT('',(24.5,3.15,-3.00038465791102E-15));
#388=CARTESIAN_POINT('',(-24.5,2.5,0.));
#389=CARTESIAN_POINT('Origin',(0.,2.5,0.));
#390=CARTESIAN_POINT('Origin',(0.,2.5,0.));
#391=CARTESIAN_POINT('Origin',(-25.6,2.5,0.));
#392=CARTESIAN_POINT('',(-25.6,2.5,0.));
#393=CARTESIAN_POINT('',(25.6,2.5,-3.13509580581722E-15));
#394=CARTESIAN_POINT('Origin',(0.,2.5,0.));
#395=CARTESIAN_POINT('Origin',(0.,2.5,0.));
#396=CARTESIAN_POINT('Origin',(0.,1.25,0.));
#397=CARTESIAN_POINT('',(25.6,1.25,-3.13509580581722E-15));
#398=UNCERTAINTY_MEASURE_WITH_UNIT(LENGTH_MEASURE(0.01),#402,
'DISTANCE_ACCURACY_VALUE',
'Maximum model space distance between geometric entities at asserted c
onnectivities');
#399=UNCERTAINTY_MEASURE_WITH_UNIT(LENGTH_MEASURE(0.01),#402,
'DISTANCE_ACCURACY_VALUE',
'Maximum model space distance between geometric entities at asserted c
onnectivities');
#400=(
GEOMETRIC_REPRESENTATION_CONTEXT(3)
GLOBAL_UNCERTAINTY_ASSIGNED_CONTEXT((#398))
GLOBAL_UNIT_ASSIGNED_CONTEXT((#402,#405,#404))
REPRESENTATION_CONTEXT('','3D')
);
#401=(
GEOMETRIC_REPRESENTATION_CONTEXT(3)
GLOBAL_UNCERTAINTY_ASSIGNED_CONTEXT((#399))
GLOBAL_UNIT_ASSIGNED_CONTEXT((#402,#405,#404))
REPRESENTATION_CONTEXT('','3D')
);
#402=(
LENGTH_UNIT()
NAMED_UNIT(*)
SI_UNIT(.MILLI.,.METRE.)
);
#403=(
LENGTH_UNIT()
NAMED_UNIT(*)
SI_UNIT(.CENTI.,.METRE.)
);
#404=(
NAMED_UNIT(*)
SI_UNIT($,.STERADIAN.)
SOLID_ANGLE_UNIT()
);
#405=(
NAMED_UNIT(*)
PLANE_ANGLE_UNIT()
SI_UNIT($,.RADIAN.)
);
#406=SHAPE_DEFINITION_REPRESENTATION(#407,#408);
#407=PRODUCT_DEFINITION_SHAPE('',$,#410);
#408=SHAPE_REPRESENTATION('',(#228),#400);
#409=PRODUCT_DEFINITION_CONTEXT('part definition',#414,'design');
#410=PRODUCT_DEFINITION('FL-50KF-51SW','FL-50KF-51SW',#411,#409);
#411=PRODUCT_DEFINITION_FORMATION('',$,#416);
#412=PRODUCT_RELATED_PRODUCT_CATEGORY('FL-50KF-51SW','FL-50KF-51SW',(#416));
#413=APPLICATION_PROTOCOL_DEFINITION('international standard',
'automotive_design',2009,#414);
#414=APPLICATION_CONTEXT(
'Core Data for Automotive Mechanical Design Process');
#415=PRODUCT_CONTEXT('part definition',#414,'mechanical');
#416=PRODUCT('FL-50KF-51SW','FL-50KF-51SW',$,(#415));
#417=PRESENTATION_STYLE_ASSIGNMENT((#418));
#418=SURFACE_STYLE_USAGE(.BOTH.,#419);
#419=SURFACE_SIDE_STYLE('',(#420));
#420=SURFACE_STYLE_FILL_AREA(#421);
#421=FILL_AREA_STYLE('',(#422));
#422=FILL_AREA_STYLE_COLOUR('',#423);
#423=COLOUR_RGB('',0.745098039215686,0.737254901960784,0.729411764705882);
ENDSEC;
END-ISO-10303-21;
