ISO-10303-21;
HEADER;
/* Generated by software containing ST-Developer
 * from STEP Tools, Inc. (www.steptools.com) 
 */

FILE_DESCRIPTION(
/* description */ (''),
/* implementation_level */ '2;1');

FILE_NAME(
/* name */ 'G:\\Flanges + FITTINGS\\NW50KF\\Step files\\FL-50KF-19W.st
p',
/* time_stamp */ '2018-04-03T13:52:53+01:00',
/* author */ ('paul'),
/* organization */ (''),
/* preprocessor_version */ 'ST-DEVELOPER v17',
/* originating_system */ 'Autodesk Inventor 2018',
/* authorisation */ '');

FILE_SCHEMA (('AUTOMOTIVE_DESIGN { 1 0 10303 214 3 1 1 }'));
ENDSEC;

DATA;
#10=MECHANICAL_DESIGN_GEOMETRIC_PRESENTATION_REPRESENTATION('',(#13),#336);
#11=SHAPE_REPRESENTATION_RELATIONSHIP('SRR','None',#343,#12);
#12=ADVANCED_BREP_SHAPE_REPRESENTATION('',(#14),#335);
#13=STYLED_ITEM('',(#352),#14);
#14=MANIFOLD_SOLID_BREP('Solid1',#174);
#15=CONICAL_SURFACE('',#202,33.7679491924311,1.30899693899575);
#16=LINE('',#297,#21);
#17=LINE('',#303,#22);
#18=LINE('',#311,#23);
#19=LINE('',#322,#24);
#20=LINE('',#332,#25);
#21=VECTOR('',#239,37.5);
#22=VECTOR('',#246,33.7679491924311);
#23=VECTOR('',#255,10.6);
#24=VECTOR('',#268,9.65);
#25=VECTOR('',#281,25.6);
#26=CYLINDRICAL_SURFACE('',#199,37.5);
#27=CYLINDRICAL_SURFACE('',#208,10.6);
#28=CYLINDRICAL_SURFACE('',#214,9.65);
#29=CYLINDRICAL_SURFACE('',#220,25.6);
#30=FACE_BOUND('',#44,.T.);
#31=FACE_BOUND('',#48,.T.);
#32=FACE_BOUND('',#51,.T.);
#33=FACE_BOUND('',#54,.T.);
#34=FACE_OUTER_BOUND('',#43,.T.);
#35=FACE_OUTER_BOUND('',#45,.T.);
#36=FACE_OUTER_BOUND('',#46,.T.);
#37=FACE_OUTER_BOUND('',#47,.T.);
#38=FACE_OUTER_BOUND('',#49,.T.);
#39=FACE_OUTER_BOUND('',#50,.T.);
#40=FACE_OUTER_BOUND('',#52,.T.);
#41=FACE_OUTER_BOUND('',#53,.T.);
#42=FACE_OUTER_BOUND('',#55,.T.);
#43=EDGE_LOOP('',(#115,#116));
#44=EDGE_LOOP('',(#117,#118));
#45=EDGE_LOOP('',(#119,#120,#121,#122,#123,#124));
#46=EDGE_LOOP('',(#125,#126,#127,#128,#129,#130));
#47=EDGE_LOOP('',(#131,#132));
#48=EDGE_LOOP('',(#133,#134));
#49=EDGE_LOOP('',(#135,#136,#137,#138,#139,#140));
#50=EDGE_LOOP('',(#141,#142));
#51=EDGE_LOOP('',(#143,#144));
#52=EDGE_LOOP('',(#145,#146,#147,#148,#149,#150));
#53=EDGE_LOOP('',(#151,#152));
#54=EDGE_LOOP('',(#153,#154));
#55=EDGE_LOOP('',(#155,#156,#157,#158,#159,#160));
#56=CIRCLE('',#195,37.5);
#57=CIRCLE('',#196,37.5);
#58=CIRCLE('',#197,25.6);
#59=CIRCLE('',#198,25.6);
#60=CIRCLE('',#200,37.5);
#61=CIRCLE('',#201,37.5);
#62=CIRCLE('',#203,30.0358983848622);
#63=CIRCLE('',#204,30.0358983848622);
#64=CIRCLE('',#206,10.6);
#65=CIRCLE('',#207,10.6);
#66=CIRCLE('',#209,10.6);
#67=CIRCLE('',#210,10.6);
#68=CIRCLE('',#212,9.65);
#69=CIRCLE('',#213,9.65);
#70=CIRCLE('',#215,9.65);
#71=CIRCLE('',#216,9.65);
#72=CIRCLE('',#218,25.6);
#73=CIRCLE('',#219,25.6);
#74=VERTEX_POINT('',#284);
#75=VERTEX_POINT('',#285);
#76=VERTEX_POINT('',#288);
#77=VERTEX_POINT('',#289);
#78=VERTEX_POINT('',#293);
#79=VERTEX_POINT('',#294);
#80=VERTEX_POINT('',#299);
#81=VERTEX_POINT('',#300);
#82=VERTEX_POINT('',#305);
#83=VERTEX_POINT('',#306);
#84=VERTEX_POINT('',#310);
#85=VERTEX_POINT('',#312);
#86=VERTEX_POINT('',#316);
#87=VERTEX_POINT('',#317);
#88=VERTEX_POINT('',#321);
#89=VERTEX_POINT('',#323);
#90=VERTEX_POINT('',#327);
#91=VERTEX_POINT('',#328);
#92=EDGE_CURVE('',#74,#75,#56,.T.);
#93=EDGE_CURVE('',#75,#74,#57,.T.);
#94=EDGE_CURVE('',#76,#77,#58,.T.);
#95=EDGE_CURVE('',#77,#76,#59,.T.);
#96=EDGE_CURVE('',#78,#79,#60,.T.);
#97=EDGE_CURVE('',#79,#78,#61,.T.);
#98=EDGE_CURVE('',#79,#75,#16,.T.);
#99=EDGE_CURVE('',#80,#81,#62,.T.);
#100=EDGE_CURVE('',#81,#80,#63,.T.);
#101=EDGE_CURVE('',#81,#79,#17,.T.);
#102=EDGE_CURVE('',#82,#83,#64,.T.);
#103=EDGE_CURVE('',#83,#82,#65,.T.);
#104=EDGE_CURVE('',#83,#84,#18,.T.);
#105=EDGE_CURVE('',#85,#84,#66,.T.);
#106=EDGE_CURVE('',#84,#85,#67,.T.);
#107=EDGE_CURVE('',#86,#87,#68,.T.);
#108=EDGE_CURVE('',#87,#86,#69,.T.);
#109=EDGE_CURVE('',#87,#88,#19,.T.);
#110=EDGE_CURVE('',#89,#88,#70,.T.);
#111=EDGE_CURVE('',#88,#89,#71,.T.);
#112=EDGE_CURVE('',#90,#91,#72,.T.);
#113=EDGE_CURVE('',#91,#90,#73,.T.);
#114=EDGE_CURVE('',#91,#77,#20,.T.);
#115=ORIENTED_EDGE('',*,*,#92,.F.);
#116=ORIENTED_EDGE('',*,*,#93,.F.);
#117=ORIENTED_EDGE('',*,*,#94,.T.);
#118=ORIENTED_EDGE('',*,*,#95,.T.);
#119=ORIENTED_EDGE('',*,*,#96,.F.);
#120=ORIENTED_EDGE('',*,*,#97,.F.);
#121=ORIENTED_EDGE('',*,*,#98,.T.);
#122=ORIENTED_EDGE('',*,*,#93,.T.);
#123=ORIENTED_EDGE('',*,*,#92,.T.);
#124=ORIENTED_EDGE('',*,*,#98,.F.);
#125=ORIENTED_EDGE('',*,*,#99,.F.);
#126=ORIENTED_EDGE('',*,*,#100,.F.);
#127=ORIENTED_EDGE('',*,*,#101,.T.);
#128=ORIENTED_EDGE('',*,*,#97,.T.);
#129=ORIENTED_EDGE('',*,*,#96,.T.);
#130=ORIENTED_EDGE('',*,*,#101,.F.);
#131=ORIENTED_EDGE('',*,*,#99,.T.);
#132=ORIENTED_EDGE('',*,*,#100,.T.);
#133=ORIENTED_EDGE('',*,*,#102,.F.);
#134=ORIENTED_EDGE('',*,*,#103,.F.);
#135=ORIENTED_EDGE('',*,*,#102,.T.);
#136=ORIENTED_EDGE('',*,*,#104,.T.);
#137=ORIENTED_EDGE('',*,*,#105,.F.);
#138=ORIENTED_EDGE('',*,*,#106,.F.);
#139=ORIENTED_EDGE('',*,*,#104,.F.);
#140=ORIENTED_EDGE('',*,*,#103,.T.);
#141=ORIENTED_EDGE('',*,*,#105,.T.);
#142=ORIENTED_EDGE('',*,*,#106,.T.);
#143=ORIENTED_EDGE('',*,*,#107,.F.);
#144=ORIENTED_EDGE('',*,*,#108,.F.);
#145=ORIENTED_EDGE('',*,*,#107,.T.);
#146=ORIENTED_EDGE('',*,*,#109,.T.);
#147=ORIENTED_EDGE('',*,*,#110,.F.);
#148=ORIENTED_EDGE('',*,*,#111,.F.);
#149=ORIENTED_EDGE('',*,*,#109,.F.);
#150=ORIENTED_EDGE('',*,*,#108,.T.);
#151=ORIENTED_EDGE('',*,*,#112,.F.);
#152=ORIENTED_EDGE('',*,*,#113,.F.);
#153=ORIENTED_EDGE('',*,*,#110,.T.);
#154=ORIENTED_EDGE('',*,*,#111,.T.);
#155=ORIENTED_EDGE('',*,*,#112,.T.);
#156=ORIENTED_EDGE('',*,*,#114,.T.);
#157=ORIENTED_EDGE('',*,*,#94,.F.);
#158=ORIENTED_EDGE('',*,*,#95,.F.);
#159=ORIENTED_EDGE('',*,*,#114,.F.);
#160=ORIENTED_EDGE('',*,*,#113,.T.);
#161=PLANE('',#194);
#162=PLANE('',#205);
#163=PLANE('',#211);
#164=PLANE('',#217);
#165=ADVANCED_FACE('',(#34,#30),#161,.T.);
#166=ADVANCED_FACE('',(#35),#26,.T.);
#167=ADVANCED_FACE('',(#36),#15,.T.);
#168=ADVANCED_FACE('',(#37,#31),#162,.T.);
#169=ADVANCED_FACE('',(#38),#27,.F.);
#170=ADVANCED_FACE('',(#39,#32),#163,.T.);
#171=ADVANCED_FACE('',(#40),#28,.F.);
#172=ADVANCED_FACE('',(#41,#33),#164,.T.);
#173=ADVANCED_FACE('',(#42),#29,.F.);
#174=CLOSED_SHELL('',(#165,#166,#167,#168,#169,#170,#171,#172,#173));
#175=DERIVED_UNIT_ELEMENT(#177,1.);
#176=DERIVED_UNIT_ELEMENT(#338,3.);
#177=(
MASS_UNIT()
NAMED_UNIT(*)
SI_UNIT($,.GRAM.)
);
#178=DERIVED_UNIT((#175,#176));
#179=MEASURE_REPRESENTATION_ITEM('density measure',
POSITIVE_RATIO_MEASURE(8.),#178);
#180=PROPERTY_DEFINITION_REPRESENTATION(#185,#182);
#181=PROPERTY_DEFINITION_REPRESENTATION(#186,#183);
#182=REPRESENTATION('material name',(#184),#335);
#183=REPRESENTATION('density',(#179),#335);
#184=DESCRIPTIVE_REPRESENTATION_ITEM('Stainless Steel AISI 304',
'Stainless Steel AISI 304');
#185=PROPERTY_DEFINITION('material property','material name',#345);
#186=PROPERTY_DEFINITION('material property','density of part',#345);
#187=DATE_TIME_ROLE('creation_date');
#188=APPLIED_DATE_AND_TIME_ASSIGNMENT(#189,#187,(#345));
#189=DATE_AND_TIME(#190,#191);
#190=CALENDAR_DATE(2014,15,8);
#191=LOCAL_TIME(10,33,6.,#192);
#192=COORDINATED_UNIVERSAL_TIME_OFFSET(0,0,.BEHIND.);
#193=AXIS2_PLACEMENT_3D('placement',#282,#221,#222);
#194=AXIS2_PLACEMENT_3D('',#283,#223,#224);
#195=AXIS2_PLACEMENT_3D('',#286,#225,#226);
#196=AXIS2_PLACEMENT_3D('',#287,#227,#228);
#197=AXIS2_PLACEMENT_3D('',#290,#229,#230);
#198=AXIS2_PLACEMENT_3D('',#291,#231,#232);
#199=AXIS2_PLACEMENT_3D('',#292,#233,#234);
#200=AXIS2_PLACEMENT_3D('',#295,#235,#236);
#201=AXIS2_PLACEMENT_3D('',#296,#237,#238);
#202=AXIS2_PLACEMENT_3D('',#298,#240,#241);
#203=AXIS2_PLACEMENT_3D('',#301,#242,#243);
#204=AXIS2_PLACEMENT_3D('',#302,#244,#245);
#205=AXIS2_PLACEMENT_3D('',#304,#247,#248);
#206=AXIS2_PLACEMENT_3D('',#307,#249,#250);
#207=AXIS2_PLACEMENT_3D('',#308,#251,#252);
#208=AXIS2_PLACEMENT_3D('',#309,#253,#254);
#209=AXIS2_PLACEMENT_3D('',#313,#256,#257);
#210=AXIS2_PLACEMENT_3D('',#314,#258,#259);
#211=AXIS2_PLACEMENT_3D('',#315,#260,#261);
#212=AXIS2_PLACEMENT_3D('',#318,#262,#263);
#213=AXIS2_PLACEMENT_3D('',#319,#264,#265);
#214=AXIS2_PLACEMENT_3D('',#320,#266,#267);
#215=AXIS2_PLACEMENT_3D('',#324,#269,#270);
#216=AXIS2_PLACEMENT_3D('',#325,#271,#272);
#217=AXIS2_PLACEMENT_3D('',#326,#273,#274);
#218=AXIS2_PLACEMENT_3D('',#329,#275,#276);
#219=AXIS2_PLACEMENT_3D('',#330,#277,#278);
#220=AXIS2_PLACEMENT_3D('',#331,#279,#280);
#221=DIRECTION('axis',(0.,0.,1.));
#222=DIRECTION('refdir',(1.,0.,0.));
#223=DIRECTION('center_axis',(0.,-1.,0.));
#224=DIRECTION('ref_axis',(0.,0.,-1.));
#225=DIRECTION('center_axis',(0.,1.,0.));
#226=DIRECTION('ref_axis',(1.,0.,0.));
#227=DIRECTION('center_axis',(0.,1.,0.));
#228=DIRECTION('ref_axis',(1.,0.,0.));
#229=DIRECTION('center_axis',(0.,1.,0.));
#230=DIRECTION('ref_axis',(1.,0.,0.));
#231=DIRECTION('center_axis',(0.,1.,0.));
#232=DIRECTION('ref_axis',(1.,0.,0.));
#233=DIRECTION('center_axis',(0.,1.,0.));
#234=DIRECTION('ref_axis',(-1.,0.,0.));
#235=DIRECTION('center_axis',(0.,1.,0.));
#236=DIRECTION('ref_axis',(1.,0.,0.));
#237=DIRECTION('center_axis',(0.,1.,0.));
#238=DIRECTION('ref_axis',(1.,0.,0.));
#239=DIRECTION('',(0.,-1.,0.));
#240=DIRECTION('center_axis',(0.,-1.,0.));
#241=DIRECTION('ref_axis',(-1.,0.,0.));
#242=DIRECTION('center_axis',(0.,1.,0.));
#243=DIRECTION('ref_axis',(1.,0.,0.));
#244=DIRECTION('center_axis',(0.,1.,0.));
#245=DIRECTION('ref_axis',(1.,0.,0.));
#246=DIRECTION('',(0.965925826289069,-0.258819045102519,-1.18291797137867E-16));
#247=DIRECTION('center_axis',(0.,1.,0.));
#248=DIRECTION('ref_axis',(0.,0.,1.));
#249=DIRECTION('center_axis',(0.,1.,0.));
#250=DIRECTION('ref_axis',(1.,0.,0.));
#251=DIRECTION('center_axis',(0.,1.,0.));
#252=DIRECTION('ref_axis',(1.,0.,0.));
#253=DIRECTION('center_axis',(0.,1.,0.));
#254=DIRECTION('ref_axis',(-1.,0.,0.));
#255=DIRECTION('',(0.,-1.,0.));
#256=DIRECTION('center_axis',(0.,1.,0.));
#257=DIRECTION('ref_axis',(1.,0.,0.));
#258=DIRECTION('center_axis',(0.,1.,0.));
#259=DIRECTION('ref_axis',(1.,0.,0.));
#260=DIRECTION('center_axis',(0.,1.,0.));
#261=DIRECTION('ref_axis',(0.,0.,1.));
#262=DIRECTION('center_axis',(0.,1.,0.));
#263=DIRECTION('ref_axis',(1.,0.,0.));
#264=DIRECTION('center_axis',(0.,1.,0.));
#265=DIRECTION('ref_axis',(1.,0.,0.));
#266=DIRECTION('center_axis',(0.,1.,0.));
#267=DIRECTION('ref_axis',(-1.,0.,0.));
#268=DIRECTION('',(0.,-1.,0.));
#269=DIRECTION('center_axis',(0.,1.,0.));
#270=DIRECTION('ref_axis',(1.,0.,0.));
#271=DIRECTION('center_axis',(0.,1.,0.));
#272=DIRECTION('ref_axis',(1.,0.,0.));
#273=DIRECTION('center_axis',(0.,-1.,0.));
#274=DIRECTION('ref_axis',(0.,0.,-1.));
#275=DIRECTION('center_axis',(0.,1.,0.));
#276=DIRECTION('ref_axis',(1.,0.,0.));
#277=DIRECTION('center_axis',(0.,1.,0.));
#278=DIRECTION('ref_axis',(1.,0.,0.));
#279=DIRECTION('center_axis',(0.,1.,0.));
#280=DIRECTION('ref_axis',(-1.,0.,0.));
#281=DIRECTION('',(0.,-1.,0.));
#282=CARTESIAN_POINT('',(0.,0.,0.));
#283=CARTESIAN_POINT('Origin',(-37.5,0.,0.));
#284=CARTESIAN_POINT('',(-37.5,0.,0.));
#285=CARTESIAN_POINT('',(37.5,0.,-4.59242549680258E-15));
#286=CARTESIAN_POINT('Origin',(0.,0.,0.));
#287=CARTESIAN_POINT('Origin',(0.,0.,0.));
#288=CARTESIAN_POINT('',(-25.6,0.,0.));
#289=CARTESIAN_POINT('',(25.6,0.,-3.13509580581722E-15));
#290=CARTESIAN_POINT('Origin',(0.,0.,0.));
#291=CARTESIAN_POINT('Origin',(0.,0.,0.));
#292=CARTESIAN_POINT('Origin',(0.,1.5,0.));
#293=CARTESIAN_POINT('',(-37.5,3.,0.));
#294=CARTESIAN_POINT('',(37.5,3.,-4.59242549680258E-15));
#295=CARTESIAN_POINT('Origin',(0.,3.,0.));
#296=CARTESIAN_POINT('Origin',(0.,3.,0.));
#297=CARTESIAN_POINT('',(37.5,1.5,-4.59242549680258E-15));
#298=CARTESIAN_POINT('Origin',(0.,4.,0.));
#299=CARTESIAN_POINT('',(-30.0358983848622,5.,0.));
#300=CARTESIAN_POINT('',(30.0358983848622,5.,-3.67833668165366E-15));
#301=CARTESIAN_POINT('Origin',(0.,5.,0.));
#302=CARTESIAN_POINT('Origin',(0.,5.,0.));
#303=CARTESIAN_POINT('',(33.7679491924311,4.,-4.13538108922812E-15));
#304=CARTESIAN_POINT('Origin',(-10.6,5.,0.));
#305=CARTESIAN_POINT('',(-10.6,5.,0.));
#306=CARTESIAN_POINT('',(10.6,5.,-1.29812560709619E-15));
#307=CARTESIAN_POINT('Origin',(0.,5.,0.));
#308=CARTESIAN_POINT('Origin',(0.,5.,0.));
#309=CARTESIAN_POINT('Origin',(0.,4.4,0.));
#310=CARTESIAN_POINT('',(10.6,3.8,-1.29812560709619E-15));
#311=CARTESIAN_POINT('',(10.6,4.4,-1.29812560709619E-15));
#312=CARTESIAN_POINT('',(-10.6,3.8,0.));
#313=CARTESIAN_POINT('Origin',(0.,3.8,0.));
#314=CARTESIAN_POINT('Origin',(0.,3.8,0.));
#315=CARTESIAN_POINT('Origin',(-9.65,3.8,0.));
#316=CARTESIAN_POINT('',(-9.65,3.8,0.));
#317=CARTESIAN_POINT('',(9.65,3.8,-1.1817841611772E-15));
#318=CARTESIAN_POINT('Origin',(0.,3.8,0.));
#319=CARTESIAN_POINT('Origin',(0.,3.8,0.));
#320=CARTESIAN_POINT('Origin',(0.,3.15,0.));
#321=CARTESIAN_POINT('',(9.65,2.5,-1.1817841611772E-15));
#322=CARTESIAN_POINT('',(9.65,3.15,-1.1817841611772E-15));
#323=CARTESIAN_POINT('',(-9.65,2.5,0.));
#324=CARTESIAN_POINT('Origin',(0.,2.5,0.));
#325=CARTESIAN_POINT('Origin',(0.,2.5,0.));
#326=CARTESIAN_POINT('Origin',(-25.6,2.5,0.));
#327=CARTESIAN_POINT('',(-25.6,2.5,0.));
#328=CARTESIAN_POINT('',(25.6,2.5,-3.13509580581722E-15));
#329=CARTESIAN_POINT('Origin',(0.,2.5,0.));
#330=CARTESIAN_POINT('Origin',(0.,2.5,0.));
#331=CARTESIAN_POINT('Origin',(0.,1.25,0.));
#332=CARTESIAN_POINT('',(25.6,1.25,-3.13509580581722E-15));
#333=UNCERTAINTY_MEASURE_WITH_UNIT(LENGTH_MEASURE(0.01),#337,
'DISTANCE_ACCURACY_VALUE',
'Maximum model space distance between geometric entities at asserted c
onnectivities');
#334=UNCERTAINTY_MEASURE_WITH_UNIT(LENGTH_MEASURE(0.01),#337,
'DISTANCE_ACCURACY_VALUE',
'Maximum model space distance between geometric entities at asserted c
onnectivities');
#335=(
GEOMETRIC_REPRESENTATION_CONTEXT(3)
GLOBAL_UNCERTAINTY_ASSIGNED_CONTEXT((#333))
GLOBAL_UNIT_ASSIGNED_CONTEXT((#337,#340,#339))
REPRESENTATION_CONTEXT('','3D')
);
#336=(
GEOMETRIC_REPRESENTATION_CONTEXT(3)
GLOBAL_UNCERTAINTY_ASSIGNED_CONTEXT((#334))
GLOBAL_UNIT_ASSIGNED_CONTEXT((#337,#340,#339))
REPRESENTATION_CONTEXT('','3D')
);
#337=(
LENGTH_UNIT()
NAMED_UNIT(*)
SI_UNIT(.MILLI.,.METRE.)
);
#338=(
LENGTH_UNIT()
NAMED_UNIT(*)
SI_UNIT(.CENTI.,.METRE.)
);
#339=(
NAMED_UNIT(*)
SI_UNIT($,.STERADIAN.)
SOLID_ANGLE_UNIT()
);
#340=(
NAMED_UNIT(*)
PLANE_ANGLE_UNIT()
SI_UNIT($,.RADIAN.)
);
#341=SHAPE_DEFINITION_REPRESENTATION(#342,#343);
#342=PRODUCT_DEFINITION_SHAPE('',$,#345);
#343=SHAPE_REPRESENTATION('',(#193),#335);
#344=PRODUCT_DEFINITION_CONTEXT('part definition',#349,'design');
#345=PRODUCT_DEFINITION('FL-50KF-19W','FL-50KF-19W',#346,#344);
#346=PRODUCT_DEFINITION_FORMATION('',$,#351);
#347=PRODUCT_RELATED_PRODUCT_CATEGORY('FL-50KF-19W','FL-50KF-19W',(#351));
#348=APPLICATION_PROTOCOL_DEFINITION('international standard',
'automotive_design',2009,#349);
#349=APPLICATION_CONTEXT(
'Core Data for Automotive Mechanical Design Process');
#350=PRODUCT_CONTEXT('part definition',#349,'mechanical');
#351=PRODUCT('FL-50KF-19W','FL-50KF-19W',$,(#350));
#352=PRESENTATION_STYLE_ASSIGNMENT((#353));
#353=SURFACE_STYLE_USAGE(.BOTH.,#354);
#354=SURFACE_SIDE_STYLE('',(#355));
#355=SURFACE_STYLE_FILL_AREA(#356);
#356=FILL_AREA_STYLE('',(#357));
#357=FILL_AREA_STYLE_COLOUR('',#358);
#358=COLOUR_RGB('',0.745098039215686,0.737254901960784,0.729411764705882);
ENDSEC;
END-ISO-10303-21;
