ISO-10303-21;
HEADER;
/* Generated by software containing ST-Developer
 * from STEP Tools, Inc. (www.steptools.com) 
 */

FILE_DESCRIPTION(
/* description */ (''),
/* implementation_level */ '2;1');

FILE_NAME(
/* name */ 'G:\\Flanges + FITTINGS\\NW50KF\\Step files\\FL-50KF-10W.st
p',
/* time_stamp */ '2018-04-03T13:46:45+01:00',
/* author */ ('paul'),
/* organization */ (''),
/* preprocessor_version */ 'ST-DEVELOPER v17',
/* originating_system */ 'Autodesk Inventor 2018',
/* authorisation */ '');

FILE_SCHEMA (('AUTOMOTIVE_DESIGN { 1 0 10303 214 3 1 1 }'));
ENDSEC;

DATA;
#10=MECHANICAL_DESIGN_GEOMETRIC_PRESENTATION_REPRESENTATION('',(#13),#271);
#11=SHAPE_REPRESENTATION_RELATIONSHIP('SRR','None',#278,#12);
#12=ADVANCED_BREP_SHAPE_REPRESENTATION('',(#14),#270);
#13=STYLED_ITEM('',(#287),#14);
#14=MANIFOLD_SOLID_BREP('Solid1',#139);
#15=CONICAL_SURFACE('',#167,33.7679491924311,1.30899693899575);
#16=LINE('',#243,#20);
#17=LINE('',#249,#21);
#18=LINE('',#257,#22);
#19=LINE('',#267,#23);
#20=VECTOR('',#198,37.5);
#21=VECTOR('',#205,33.7679491924311);
#22=VECTOR('',#214,4.85);
#23=VECTOR('',#227,25.6);
#24=CYLINDRICAL_SURFACE('',#164,37.5);
#25=CYLINDRICAL_SURFACE('',#173,4.85);
#26=CYLINDRICAL_SURFACE('',#179,25.6);
#27=FACE_BOUND('',#38,.T.);
#28=FACE_BOUND('',#42,.T.);
#29=FACE_BOUND('',#45,.T.);
#30=FACE_OUTER_BOUND('',#37,.T.);
#31=FACE_OUTER_BOUND('',#39,.T.);
#32=FACE_OUTER_BOUND('',#40,.T.);
#33=FACE_OUTER_BOUND('',#41,.T.);
#34=FACE_OUTER_BOUND('',#43,.T.);
#35=FACE_OUTER_BOUND('',#44,.T.);
#36=FACE_OUTER_BOUND('',#46,.T.);
#37=EDGE_LOOP('',(#93,#94));
#38=EDGE_LOOP('',(#95,#96));
#39=EDGE_LOOP('',(#97,#98,#99,#100,#101,#102));
#40=EDGE_LOOP('',(#103,#104,#105,#106,#107,#108));
#41=EDGE_LOOP('',(#109,#110));
#42=EDGE_LOOP('',(#111,#112));
#43=EDGE_LOOP('',(#113,#114,#115,#116,#117,#118));
#44=EDGE_LOOP('',(#119,#120));
#45=EDGE_LOOP('',(#121,#122));
#46=EDGE_LOOP('',(#123,#124,#125,#126,#127,#128));
#47=CIRCLE('',#160,37.5);
#48=CIRCLE('',#161,37.5);
#49=CIRCLE('',#162,25.6);
#50=CIRCLE('',#163,25.6);
#51=CIRCLE('',#165,37.5);
#52=CIRCLE('',#166,37.5);
#53=CIRCLE('',#168,30.0358983848622);
#54=CIRCLE('',#169,30.0358983848622);
#55=CIRCLE('',#171,4.85);
#56=CIRCLE('',#172,4.85);
#57=CIRCLE('',#174,4.85);
#58=CIRCLE('',#175,4.85);
#59=CIRCLE('',#177,25.6);
#60=CIRCLE('',#178,25.6);
#61=VERTEX_POINT('',#230);
#62=VERTEX_POINT('',#231);
#63=VERTEX_POINT('',#234);
#64=VERTEX_POINT('',#235);
#65=VERTEX_POINT('',#239);
#66=VERTEX_POINT('',#240);
#67=VERTEX_POINT('',#245);
#68=VERTEX_POINT('',#246);
#69=VERTEX_POINT('',#251);
#70=VERTEX_POINT('',#252);
#71=VERTEX_POINT('',#256);
#72=VERTEX_POINT('',#258);
#73=VERTEX_POINT('',#262);
#74=VERTEX_POINT('',#263);
#75=EDGE_CURVE('',#61,#62,#47,.T.);
#76=EDGE_CURVE('',#62,#61,#48,.T.);
#77=EDGE_CURVE('',#63,#64,#49,.T.);
#78=EDGE_CURVE('',#64,#63,#50,.T.);
#79=EDGE_CURVE('',#65,#66,#51,.T.);
#80=EDGE_CURVE('',#66,#65,#52,.T.);
#81=EDGE_CURVE('',#66,#62,#16,.T.);
#82=EDGE_CURVE('',#67,#68,#53,.T.);
#83=EDGE_CURVE('',#68,#67,#54,.T.);
#84=EDGE_CURVE('',#68,#66,#17,.T.);
#85=EDGE_CURVE('',#69,#70,#55,.T.);
#86=EDGE_CURVE('',#70,#69,#56,.T.);
#87=EDGE_CURVE('',#70,#71,#18,.T.);
#88=EDGE_CURVE('',#72,#71,#57,.T.);
#89=EDGE_CURVE('',#71,#72,#58,.T.);
#90=EDGE_CURVE('',#73,#74,#59,.T.);
#91=EDGE_CURVE('',#74,#73,#60,.T.);
#92=EDGE_CURVE('',#74,#64,#19,.T.);
#93=ORIENTED_EDGE('',*,*,#75,.F.);
#94=ORIENTED_EDGE('',*,*,#76,.F.);
#95=ORIENTED_EDGE('',*,*,#77,.T.);
#96=ORIENTED_EDGE('',*,*,#78,.T.);
#97=ORIENTED_EDGE('',*,*,#79,.F.);
#98=ORIENTED_EDGE('',*,*,#80,.F.);
#99=ORIENTED_EDGE('',*,*,#81,.T.);
#100=ORIENTED_EDGE('',*,*,#76,.T.);
#101=ORIENTED_EDGE('',*,*,#75,.T.);
#102=ORIENTED_EDGE('',*,*,#81,.F.);
#103=ORIENTED_EDGE('',*,*,#82,.F.);
#104=ORIENTED_EDGE('',*,*,#83,.F.);
#105=ORIENTED_EDGE('',*,*,#84,.T.);
#106=ORIENTED_EDGE('',*,*,#80,.T.);
#107=ORIENTED_EDGE('',*,*,#79,.T.);
#108=ORIENTED_EDGE('',*,*,#84,.F.);
#109=ORIENTED_EDGE('',*,*,#82,.T.);
#110=ORIENTED_EDGE('',*,*,#83,.T.);
#111=ORIENTED_EDGE('',*,*,#85,.F.);
#112=ORIENTED_EDGE('',*,*,#86,.F.);
#113=ORIENTED_EDGE('',*,*,#85,.T.);
#114=ORIENTED_EDGE('',*,*,#87,.T.);
#115=ORIENTED_EDGE('',*,*,#88,.F.);
#116=ORIENTED_EDGE('',*,*,#89,.F.);
#117=ORIENTED_EDGE('',*,*,#87,.F.);
#118=ORIENTED_EDGE('',*,*,#86,.T.);
#119=ORIENTED_EDGE('',*,*,#90,.F.);
#120=ORIENTED_EDGE('',*,*,#91,.F.);
#121=ORIENTED_EDGE('',*,*,#88,.T.);
#122=ORIENTED_EDGE('',*,*,#89,.T.);
#123=ORIENTED_EDGE('',*,*,#90,.T.);
#124=ORIENTED_EDGE('',*,*,#92,.T.);
#125=ORIENTED_EDGE('',*,*,#77,.F.);
#126=ORIENTED_EDGE('',*,*,#78,.F.);
#127=ORIENTED_EDGE('',*,*,#92,.F.);
#128=ORIENTED_EDGE('',*,*,#91,.T.);
#129=PLANE('',#159);
#130=PLANE('',#170);
#131=PLANE('',#176);
#132=ADVANCED_FACE('',(#30,#27),#129,.T.);
#133=ADVANCED_FACE('',(#31),#24,.T.);
#134=ADVANCED_FACE('',(#32),#15,.T.);
#135=ADVANCED_FACE('',(#33,#28),#130,.T.);
#136=ADVANCED_FACE('',(#34),#25,.F.);
#137=ADVANCED_FACE('',(#35,#29),#131,.T.);
#138=ADVANCED_FACE('',(#36),#26,.F.);
#139=CLOSED_SHELL('',(#132,#133,#134,#135,#136,#137,#138));
#140=DERIVED_UNIT_ELEMENT(#142,1.);
#141=DERIVED_UNIT_ELEMENT(#273,3.);
#142=(
MASS_UNIT()
NAMED_UNIT(*)
SI_UNIT($,.GRAM.)
);
#143=DERIVED_UNIT((#140,#141));
#144=MEASURE_REPRESENTATION_ITEM('density measure',
POSITIVE_RATIO_MEASURE(8.),#143);
#145=PROPERTY_DEFINITION_REPRESENTATION(#150,#147);
#146=PROPERTY_DEFINITION_REPRESENTATION(#151,#148);
#147=REPRESENTATION('material name',(#149),#270);
#148=REPRESENTATION('density',(#144),#270);
#149=DESCRIPTIVE_REPRESENTATION_ITEM('Stainless Steel AISI 304',
'Stainless Steel AISI 304');
#150=PROPERTY_DEFINITION('material property','material name',#280);
#151=PROPERTY_DEFINITION('material property','density of part',#280);
#152=DATE_TIME_ROLE('creation_date');
#153=APPLIED_DATE_AND_TIME_ASSIGNMENT(#154,#152,(#280));
#154=DATE_AND_TIME(#155,#156);
#155=CALENDAR_DATE(2014,15,8);
#156=LOCAL_TIME(10,33,6.,#157);
#157=COORDINATED_UNIVERSAL_TIME_OFFSET(0,0,.BEHIND.);
#158=AXIS2_PLACEMENT_3D('placement',#228,#180,#181);
#159=AXIS2_PLACEMENT_3D('',#229,#182,#183);
#160=AXIS2_PLACEMENT_3D('',#232,#184,#185);
#161=AXIS2_PLACEMENT_3D('',#233,#186,#187);
#162=AXIS2_PLACEMENT_3D('',#236,#188,#189);
#163=AXIS2_PLACEMENT_3D('',#237,#190,#191);
#164=AXIS2_PLACEMENT_3D('',#238,#192,#193);
#165=AXIS2_PLACEMENT_3D('',#241,#194,#195);
#166=AXIS2_PLACEMENT_3D('',#242,#196,#197);
#167=AXIS2_PLACEMENT_3D('',#244,#199,#200);
#168=AXIS2_PLACEMENT_3D('',#247,#201,#202);
#169=AXIS2_PLACEMENT_3D('',#248,#203,#204);
#170=AXIS2_PLACEMENT_3D('',#250,#206,#207);
#171=AXIS2_PLACEMENT_3D('',#253,#208,#209);
#172=AXIS2_PLACEMENT_3D('',#254,#210,#211);
#173=AXIS2_PLACEMENT_3D('',#255,#212,#213);
#174=AXIS2_PLACEMENT_3D('',#259,#215,#216);
#175=AXIS2_PLACEMENT_3D('',#260,#217,#218);
#176=AXIS2_PLACEMENT_3D('',#261,#219,#220);
#177=AXIS2_PLACEMENT_3D('',#264,#221,#222);
#178=AXIS2_PLACEMENT_3D('',#265,#223,#224);
#179=AXIS2_PLACEMENT_3D('',#266,#225,#226);
#180=DIRECTION('axis',(0.,0.,1.));
#181=DIRECTION('refdir',(1.,0.,0.));
#182=DIRECTION('center_axis',(0.,-1.,0.));
#183=DIRECTION('ref_axis',(0.,0.,-1.));
#184=DIRECTION('center_axis',(0.,1.,0.));
#185=DIRECTION('ref_axis',(1.,0.,0.));
#186=DIRECTION('center_axis',(0.,1.,0.));
#187=DIRECTION('ref_axis',(1.,0.,0.));
#188=DIRECTION('center_axis',(0.,1.,0.));
#189=DIRECTION('ref_axis',(1.,0.,0.));
#190=DIRECTION('center_axis',(0.,1.,0.));
#191=DIRECTION('ref_axis',(1.,0.,0.));
#192=DIRECTION('center_axis',(0.,1.,0.));
#193=DIRECTION('ref_axis',(-1.,0.,0.));
#194=DIRECTION('center_axis',(0.,1.,0.));
#195=DIRECTION('ref_axis',(1.,0.,0.));
#196=DIRECTION('center_axis',(0.,1.,0.));
#197=DIRECTION('ref_axis',(1.,0.,0.));
#198=DIRECTION('',(0.,-1.,0.));
#199=DIRECTION('center_axis',(0.,-1.,0.));
#200=DIRECTION('ref_axis',(-1.,0.,0.));
#201=DIRECTION('center_axis',(0.,1.,0.));
#202=DIRECTION('ref_axis',(1.,0.,0.));
#203=DIRECTION('center_axis',(0.,1.,0.));
#204=DIRECTION('ref_axis',(1.,0.,0.));
#205=DIRECTION('',(0.965925826289069,-0.258819045102519,-1.18291797137867E-16));
#206=DIRECTION('center_axis',(0.,1.,0.));
#207=DIRECTION('ref_axis',(0.,0.,1.));
#208=DIRECTION('center_axis',(0.,1.,0.));
#209=DIRECTION('ref_axis',(1.,0.,0.));
#210=DIRECTION('center_axis',(0.,1.,0.));
#211=DIRECTION('ref_axis',(1.,0.,0.));
#212=DIRECTION('center_axis',(0.,1.,0.));
#213=DIRECTION('ref_axis',(-1.,0.,0.));
#214=DIRECTION('',(0.,-1.,0.));
#215=DIRECTION('center_axis',(0.,1.,0.));
#216=DIRECTION('ref_axis',(1.,0.,0.));
#217=DIRECTION('center_axis',(0.,1.,0.));
#218=DIRECTION('ref_axis',(1.,0.,0.));
#219=DIRECTION('center_axis',(0.,-1.,0.));
#220=DIRECTION('ref_axis',(0.,0.,-1.));
#221=DIRECTION('center_axis',(0.,1.,0.));
#222=DIRECTION('ref_axis',(1.,0.,0.));
#223=DIRECTION('center_axis',(0.,1.,0.));
#224=DIRECTION('ref_axis',(1.,0.,0.));
#225=DIRECTION('center_axis',(0.,1.,0.));
#226=DIRECTION('ref_axis',(-1.,0.,0.));
#227=DIRECTION('',(0.,-1.,0.));
#228=CARTESIAN_POINT('',(0.,0.,0.));
#229=CARTESIAN_POINT('Origin',(-37.5,0.,0.));
#230=CARTESIAN_POINT('',(-37.5,0.,0.));
#231=CARTESIAN_POINT('',(37.5,0.,-4.59242549680258E-15));
#232=CARTESIAN_POINT('Origin',(0.,0.,0.));
#233=CARTESIAN_POINT('Origin',(0.,0.,0.));
#234=CARTESIAN_POINT('',(-25.6,0.,0.));
#235=CARTESIAN_POINT('',(25.6,0.,-3.13509580581722E-15));
#236=CARTESIAN_POINT('Origin',(0.,0.,0.));
#237=CARTESIAN_POINT('Origin',(0.,0.,0.));
#238=CARTESIAN_POINT('Origin',(0.,1.5,0.));
#239=CARTESIAN_POINT('',(-37.5,3.,0.));
#240=CARTESIAN_POINT('',(37.5,3.,-4.59242549680258E-15));
#241=CARTESIAN_POINT('Origin',(0.,3.,0.));
#242=CARTESIAN_POINT('Origin',(0.,3.,0.));
#243=CARTESIAN_POINT('',(37.5,1.5,-4.59242549680258E-15));
#244=CARTESIAN_POINT('Origin',(0.,4.,0.));
#245=CARTESIAN_POINT('',(-30.0358983848622,5.,0.));
#246=CARTESIAN_POINT('',(30.0358983848622,5.,-3.67833668165366E-15));
#247=CARTESIAN_POINT('Origin',(0.,5.,0.));
#248=CARTESIAN_POINT('Origin',(0.,5.,0.));
#249=CARTESIAN_POINT('',(33.7679491924311,4.,-4.13538108922812E-15));
#250=CARTESIAN_POINT('Origin',(-4.85,5.,0.));
#251=CARTESIAN_POINT('',(-4.85,5.,0.));
#252=CARTESIAN_POINT('',(4.85,5.,-5.93953697586466E-16));
#253=CARTESIAN_POINT('Origin',(0.,5.,0.));
#254=CARTESIAN_POINT('Origin',(0.,5.,0.));
#255=CARTESIAN_POINT('Origin',(0.,3.75,0.));
#256=CARTESIAN_POINT('',(4.85,2.5,-5.93953697586466E-16));
#257=CARTESIAN_POINT('',(4.85,3.75,-5.93953697586466E-16));
#258=CARTESIAN_POINT('',(-4.85,2.5,0.));
#259=CARTESIAN_POINT('Origin',(0.,2.5,0.));
#260=CARTESIAN_POINT('Origin',(0.,2.5,0.));
#261=CARTESIAN_POINT('Origin',(-25.6,2.5,0.));
#262=CARTESIAN_POINT('',(-25.6,2.5,0.));
#263=CARTESIAN_POINT('',(25.6,2.5,-3.13509580581722E-15));
#264=CARTESIAN_POINT('Origin',(0.,2.5,0.));
#265=CARTESIAN_POINT('Origin',(0.,2.5,0.));
#266=CARTESIAN_POINT('Origin',(0.,1.25,0.));
#267=CARTESIAN_POINT('',(25.6,1.25,-3.13509580581722E-15));
#268=UNCERTAINTY_MEASURE_WITH_UNIT(LENGTH_MEASURE(0.01),#272,
'DISTANCE_ACCURACY_VALUE',
'Maximum model space distance between geometric entities at asserted c
onnectivities');
#269=UNCERTAINTY_MEASURE_WITH_UNIT(LENGTH_MEASURE(0.01),#272,
'DISTANCE_ACCURACY_VALUE',
'Maximum model space distance between geometric entities at asserted c
onnectivities');
#270=(
GEOMETRIC_REPRESENTATION_CONTEXT(3)
GLOBAL_UNCERTAINTY_ASSIGNED_CONTEXT((#268))
GLOBAL_UNIT_ASSIGNED_CONTEXT((#272,#275,#274))
REPRESENTATION_CONTEXT('','3D')
);
#271=(
GEOMETRIC_REPRESENTATION_CONTEXT(3)
GLOBAL_UNCERTAINTY_ASSIGNED_CONTEXT((#269))
GLOBAL_UNIT_ASSIGNED_CONTEXT((#272,#275,#274))
REPRESENTATION_CONTEXT('','3D')
);
#272=(
LENGTH_UNIT()
NAMED_UNIT(*)
SI_UNIT(.MILLI.,.METRE.)
);
#273=(
LENGTH_UNIT()
NAMED_UNIT(*)
SI_UNIT(.CENTI.,.METRE.)
);
#274=(
NAMED_UNIT(*)
SI_UNIT($,.STERADIAN.)
SOLID_ANGLE_UNIT()
);
#275=(
NAMED_UNIT(*)
PLANE_ANGLE_UNIT()
SI_UNIT($,.RADIAN.)
);
#276=SHAPE_DEFINITION_REPRESENTATION(#277,#278);
#277=PRODUCT_DEFINITION_SHAPE('',$,#280);
#278=SHAPE_REPRESENTATION('',(#158),#270);
#279=PRODUCT_DEFINITION_CONTEXT('part definition',#284,'design');
#280=PRODUCT_DEFINITION('FL-50KF-10W','FL-50KF-10W',#281,#279);
#281=PRODUCT_DEFINITION_FORMATION('',$,#286);
#282=PRODUCT_RELATED_PRODUCT_CATEGORY('FL-50KF-10W','FL-50KF-10W',(#286));
#283=APPLICATION_PROTOCOL_DEFINITION('international standard',
'automotive_design',2009,#284);
#284=APPLICATION_CONTEXT(
'Core Data for Automotive Mechanical Design Process');
#285=PRODUCT_CONTEXT('part definition',#284,'mechanical');
#286=PRODUCT('FL-50KF-10W','FL-50KF-10W',$,(#285));
#287=PRESENTATION_STYLE_ASSIGNMENT((#288));
#288=SURFACE_STYLE_USAGE(.BOTH.,#289);
#289=SURFACE_SIDE_STYLE('',(#290));
#290=SURFACE_STYLE_FILL_AREA(#291);
#291=FILL_AREA_STYLE('',(#292));
#292=FILL_AREA_STYLE_COLOUR('',#293);
#293=COLOUR_RGB('',0.745098039215686,0.737254901960784,0.729411764705882);
ENDSEC;
END-ISO-10303-21;
