ISO-10303-21;
HEADER;
/* Generated by software containing ST-Developer
 * from STEP Tools, Inc. (www.steptools.com) 
 */

FILE_DESCRIPTION(
/* description */ (''),
/* implementation_level */ '2;1');

FILE_NAME(
/* name */ 'G:\\Flanges + FITTINGS\\NW40KF\\Step files\\FL-40KFUS.stp',

/* time_stamp */ '2018-03-28T15:19:10+01:00',
/* author */ ('paul'),
/* organization */ (''),
/* preprocessor_version */ 'ST-DEVELOPER v17',
/* originating_system */ 'Autodesk Inventor 2018',
/* authorisation */ '');

FILE_SCHEMA (('AUTOMOTIVE_DESIGN { 1 0 10303 214 3 1 1 }'));
ENDSEC;

DATA;
#10=MECHANICAL_DESIGN_GEOMETRIC_PRESENTATION_REPRESENTATION('',(#13),#312);
#11=SHAPE_REPRESENTATION_RELATIONSHIP('SRR','None',#319,#12);
#12=ADVANCED_BREP_SHAPE_REPRESENTATION('',(#14),#311);
#13=STYLED_ITEM('',(#328),#14);
#14=MANIFOLD_SOLID_BREP('Solid1',#160);
#15=CONICAL_SURFACE('',#198,23.275,1.30899693899575);
#16=FACE_BOUND('',#44,.T.);
#17=FACE_BOUND('',#47,.T.);
#18=LINE('',#273,#23);
#19=LINE('',#281,#24);
#20=LINE('',#295,#25);
#21=LINE('',#301,#26);
#22=LINE('',#307,#27);
#23=VECTOR('',#219,18.25);
#24=VECTOR('',#228,20.6);
#25=VECTOR('',#245,27.5);
#26=VECTOR('',#252,23.275);
#27=VECTOR('',#259,19.05);
#28=CYLINDRICAL_SURFACE('',#183,18.25);
#29=CYLINDRICAL_SURFACE('',#189,20.6);
#30=CYLINDRICAL_SURFACE('',#195,27.5);
#31=CYLINDRICAL_SURFACE('',#201,19.05);
#32=FACE_OUTER_BOUND('',#41,.T.);
#33=FACE_OUTER_BOUND('',#42,.T.);
#34=FACE_OUTER_BOUND('',#43,.T.);
#35=FACE_OUTER_BOUND('',#45,.T.);
#36=FACE_OUTER_BOUND('',#46,.T.);
#37=FACE_OUTER_BOUND('',#48,.T.);
#38=FACE_OUTER_BOUND('',#49,.T.);
#39=FACE_OUTER_BOUND('',#50,.T.);
#40=FACE_OUTER_BOUND('',#51,.T.);
#41=EDGE_LOOP('',(#105,#106));
#42=EDGE_LOOP('',(#107,#108,#109,#110,#111,#112));
#43=EDGE_LOOP('',(#113,#114));
#44=EDGE_LOOP('',(#115,#116));
#45=EDGE_LOOP('',(#117,#118,#119,#120,#121,#122));
#46=EDGE_LOOP('',(#123,#124));
#47=EDGE_LOOP('',(#125,#126));
#48=EDGE_LOOP('',(#127,#128,#129,#130,#131,#132));
#49=EDGE_LOOP('',(#133,#134,#135,#136,#137,#138));
#50=EDGE_LOOP('',(#139,#140,#141,#142,#143,#144));
#51=EDGE_LOOP('',(#145,#146));
#52=CIRCLE('',#181,18.25);
#53=CIRCLE('',#182,18.25);
#54=CIRCLE('',#184,18.25);
#55=CIRCLE('',#185,18.25);
#56=CIRCLE('',#187,20.6);
#57=CIRCLE('',#188,20.6);
#58=CIRCLE('',#190,20.6);
#59=CIRCLE('',#191,20.6);
#60=CIRCLE('',#193,27.5);
#61=CIRCLE('',#194,27.5);
#62=CIRCLE('',#196,27.5);
#63=CIRCLE('',#197,27.5);
#64=CIRCLE('',#199,19.05);
#65=CIRCLE('',#200,19.05);
#66=CIRCLE('',#202,19.05);
#67=CIRCLE('',#203,19.05);
#68=VERTEX_POINT('',#264);
#69=VERTEX_POINT('',#265);
#70=VERTEX_POINT('',#269);
#71=VERTEX_POINT('',#270);
#72=VERTEX_POINT('',#275);
#73=VERTEX_POINT('',#276);
#74=VERTEX_POINT('',#280);
#75=VERTEX_POINT('',#282);
#76=VERTEX_POINT('',#286);
#77=VERTEX_POINT('',#287);
#78=VERTEX_POINT('',#291);
#79=VERTEX_POINT('',#292);
#80=VERTEX_POINT('',#297);
#81=VERTEX_POINT('',#298);
#82=VERTEX_POINT('',#303);
#83=VERTEX_POINT('',#304);
#84=EDGE_CURVE('',#68,#69,#52,.T.);
#85=EDGE_CURVE('',#69,#68,#53,.T.);
#86=EDGE_CURVE('',#70,#71,#54,.T.);
#87=EDGE_CURVE('',#71,#70,#55,.T.);
#88=EDGE_CURVE('',#71,#69,#18,.T.);
#89=EDGE_CURVE('',#72,#73,#56,.T.);
#90=EDGE_CURVE('',#73,#72,#57,.T.);
#91=EDGE_CURVE('',#73,#74,#19,.T.);
#92=EDGE_CURVE('',#75,#74,#58,.T.);
#93=EDGE_CURVE('',#74,#75,#59,.T.);
#94=EDGE_CURVE('',#76,#77,#60,.T.);
#95=EDGE_CURVE('',#77,#76,#61,.T.);
#96=EDGE_CURVE('',#78,#79,#62,.T.);
#97=EDGE_CURVE('',#79,#78,#63,.T.);
#98=EDGE_CURVE('',#79,#77,#20,.T.);
#99=EDGE_CURVE('',#80,#81,#64,.T.);
#100=EDGE_CURVE('',#81,#80,#65,.T.);
#101=EDGE_CURVE('',#81,#79,#21,.T.);
#102=EDGE_CURVE('',#82,#83,#66,.T.);
#103=EDGE_CURVE('',#83,#82,#67,.T.);
#104=EDGE_CURVE('',#83,#81,#22,.T.);
#105=ORIENTED_EDGE('',*,*,#84,.F.);
#106=ORIENTED_EDGE('',*,*,#85,.F.);
#107=ORIENTED_EDGE('',*,*,#86,.F.);
#108=ORIENTED_EDGE('',*,*,#87,.F.);
#109=ORIENTED_EDGE('',*,*,#88,.T.);
#110=ORIENTED_EDGE('',*,*,#85,.T.);
#111=ORIENTED_EDGE('',*,*,#84,.T.);
#112=ORIENTED_EDGE('',*,*,#88,.F.);
#113=ORIENTED_EDGE('',*,*,#89,.F.);
#114=ORIENTED_EDGE('',*,*,#90,.F.);
#115=ORIENTED_EDGE('',*,*,#86,.T.);
#116=ORIENTED_EDGE('',*,*,#87,.T.);
#117=ORIENTED_EDGE('',*,*,#89,.T.);
#118=ORIENTED_EDGE('',*,*,#91,.T.);
#119=ORIENTED_EDGE('',*,*,#92,.F.);
#120=ORIENTED_EDGE('',*,*,#93,.F.);
#121=ORIENTED_EDGE('',*,*,#91,.F.);
#122=ORIENTED_EDGE('',*,*,#90,.T.);
#123=ORIENTED_EDGE('',*,*,#94,.F.);
#124=ORIENTED_EDGE('',*,*,#95,.F.);
#125=ORIENTED_EDGE('',*,*,#92,.T.);
#126=ORIENTED_EDGE('',*,*,#93,.T.);
#127=ORIENTED_EDGE('',*,*,#96,.F.);
#128=ORIENTED_EDGE('',*,*,#97,.F.);
#129=ORIENTED_EDGE('',*,*,#98,.T.);
#130=ORIENTED_EDGE('',*,*,#95,.T.);
#131=ORIENTED_EDGE('',*,*,#94,.T.);
#132=ORIENTED_EDGE('',*,*,#98,.F.);
#133=ORIENTED_EDGE('',*,*,#99,.F.);
#134=ORIENTED_EDGE('',*,*,#100,.F.);
#135=ORIENTED_EDGE('',*,*,#101,.T.);
#136=ORIENTED_EDGE('',*,*,#97,.T.);
#137=ORIENTED_EDGE('',*,*,#96,.T.);
#138=ORIENTED_EDGE('',*,*,#101,.F.);
#139=ORIENTED_EDGE('',*,*,#102,.F.);
#140=ORIENTED_EDGE('',*,*,#103,.F.);
#141=ORIENTED_EDGE('',*,*,#104,.T.);
#142=ORIENTED_EDGE('',*,*,#100,.T.);
#143=ORIENTED_EDGE('',*,*,#99,.T.);
#144=ORIENTED_EDGE('',*,*,#104,.F.);
#145=ORIENTED_EDGE('',*,*,#102,.T.);
#146=ORIENTED_EDGE('',*,*,#103,.T.);
#147=PLANE('',#180);
#148=PLANE('',#186);
#149=PLANE('',#192);
#150=PLANE('',#204);
#151=ADVANCED_FACE('',(#32),#147,.T.);
#152=ADVANCED_FACE('',(#33),#28,.T.);
#153=ADVANCED_FACE('',(#34,#16),#148,.T.);
#154=ADVANCED_FACE('',(#35),#29,.F.);
#155=ADVANCED_FACE('',(#36,#17),#149,.T.);
#156=ADVANCED_FACE('',(#37),#30,.T.);
#157=ADVANCED_FACE('',(#38),#15,.T.);
#158=ADVANCED_FACE('',(#39),#31,.T.);
#159=ADVANCED_FACE('',(#40),#150,.T.);
#160=CLOSED_SHELL('',(#151,#152,#153,#154,#155,#156,#157,#158,#159));
#161=DERIVED_UNIT_ELEMENT(#163,1.);
#162=DERIVED_UNIT_ELEMENT(#314,3.);
#163=(
MASS_UNIT()
NAMED_UNIT(*)
SI_UNIT($,.GRAM.)
);
#164=DERIVED_UNIT((#161,#162));
#165=MEASURE_REPRESENTATION_ITEM('density measure',
POSITIVE_RATIO_MEASURE(8.),#164);
#166=PROPERTY_DEFINITION_REPRESENTATION(#171,#168);
#167=PROPERTY_DEFINITION_REPRESENTATION(#172,#169);
#168=REPRESENTATION('material name',(#170),#311);
#169=REPRESENTATION('density',(#165),#311);
#170=DESCRIPTIVE_REPRESENTATION_ITEM('Stainless Steel, Austenitic',
'Stainless Steel, Austenitic');
#171=PROPERTY_DEFINITION('material property','material name',#321);
#172=PROPERTY_DEFINITION('material property','density of part',#321);
#173=DATE_TIME_ROLE('creation_date');
#174=APPLIED_DATE_AND_TIME_ASSIGNMENT(#175,#173,(#321));
#175=DATE_AND_TIME(#176,#177);
#176=CALENDAR_DATE(2014,18,11);
#177=LOCAL_TIME(8,20,57.,#178);
#178=COORDINATED_UNIVERSAL_TIME_OFFSET(0,0,.BEHIND.);
#179=AXIS2_PLACEMENT_3D('placement',#262,#205,#206);
#180=AXIS2_PLACEMENT_3D('',#263,#207,#208);
#181=AXIS2_PLACEMENT_3D('',#266,#209,#210);
#182=AXIS2_PLACEMENT_3D('',#267,#211,#212);
#183=AXIS2_PLACEMENT_3D('',#268,#213,#214);
#184=AXIS2_PLACEMENT_3D('',#271,#215,#216);
#185=AXIS2_PLACEMENT_3D('',#272,#217,#218);
#186=AXIS2_PLACEMENT_3D('',#274,#220,#221);
#187=AXIS2_PLACEMENT_3D('',#277,#222,#223);
#188=AXIS2_PLACEMENT_3D('',#278,#224,#225);
#189=AXIS2_PLACEMENT_3D('',#279,#226,#227);
#190=AXIS2_PLACEMENT_3D('',#283,#229,#230);
#191=AXIS2_PLACEMENT_3D('',#284,#231,#232);
#192=AXIS2_PLACEMENT_3D('',#285,#233,#234);
#193=AXIS2_PLACEMENT_3D('',#288,#235,#236);
#194=AXIS2_PLACEMENT_3D('',#289,#237,#238);
#195=AXIS2_PLACEMENT_3D('',#290,#239,#240);
#196=AXIS2_PLACEMENT_3D('',#293,#241,#242);
#197=AXIS2_PLACEMENT_3D('',#294,#243,#244);
#198=AXIS2_PLACEMENT_3D('',#296,#246,#247);
#199=AXIS2_PLACEMENT_3D('',#299,#248,#249);
#200=AXIS2_PLACEMENT_3D('',#300,#250,#251);
#201=AXIS2_PLACEMENT_3D('',#302,#253,#254);
#202=AXIS2_PLACEMENT_3D('',#305,#255,#256);
#203=AXIS2_PLACEMENT_3D('',#306,#257,#258);
#204=AXIS2_PLACEMENT_3D('',#308,#260,#261);
#205=DIRECTION('axis',(0.,0.,1.));
#206=DIRECTION('refdir',(1.,0.,0.));
#207=DIRECTION('center_axis',(0.,-1.,0.));
#208=DIRECTION('ref_axis',(0.,0.,-1.));
#209=DIRECTION('center_axis',(0.,1.,0.));
#210=DIRECTION('ref_axis',(1.,0.,0.));
#211=DIRECTION('center_axis',(0.,1.,0.));
#212=DIRECTION('ref_axis',(1.,0.,0.));
#213=DIRECTION('center_axis',(0.,1.,0.));
#214=DIRECTION('ref_axis',(-1.,0.,0.));
#215=DIRECTION('center_axis',(0.,1.,0.));
#216=DIRECTION('ref_axis',(1.,0.,0.));
#217=DIRECTION('center_axis',(0.,1.,0.));
#218=DIRECTION('ref_axis',(1.,0.,0.));
#219=DIRECTION('',(0.,-1.,0.));
#220=DIRECTION('center_axis',(0.,-1.,0.));
#221=DIRECTION('ref_axis',(0.,0.,-1.));
#222=DIRECTION('center_axis',(0.,1.,0.));
#223=DIRECTION('ref_axis',(1.,0.,0.));
#224=DIRECTION('center_axis',(0.,1.,0.));
#225=DIRECTION('ref_axis',(1.,0.,0.));
#226=DIRECTION('center_axis',(0.,1.,0.));
#227=DIRECTION('ref_axis',(-1.,0.,0.));
#228=DIRECTION('',(0.,-1.,0.));
#229=DIRECTION('center_axis',(0.,1.,0.));
#230=DIRECTION('ref_axis',(1.,0.,0.));
#231=DIRECTION('center_axis',(0.,1.,0.));
#232=DIRECTION('ref_axis',(1.,0.,0.));
#233=DIRECTION('center_axis',(0.,-1.,0.));
#234=DIRECTION('ref_axis',(0.,0.,-1.));
#235=DIRECTION('center_axis',(0.,1.,0.));
#236=DIRECTION('ref_axis',(1.,0.,0.));
#237=DIRECTION('center_axis',(0.,1.,0.));
#238=DIRECTION('ref_axis',(1.,0.,0.));
#239=DIRECTION('center_axis',(0.,1.,0.));
#240=DIRECTION('ref_axis',(-1.,0.,0.));
#241=DIRECTION('center_axis',(0.,1.,0.));
#242=DIRECTION('ref_axis',(1.,0.,0.));
#243=DIRECTION('center_axis',(0.,1.,0.));
#244=DIRECTION('ref_axis',(1.,0.,0.));
#245=DIRECTION('',(0.,-1.,0.));
#246=DIRECTION('center_axis',(0.,-1.,0.));
#247=DIRECTION('ref_axis',(-1.,0.,0.));
#248=DIRECTION('center_axis',(0.,1.,0.));
#249=DIRECTION('ref_axis',(1.,0.,0.));
#250=DIRECTION('center_axis',(0.,1.,0.));
#251=DIRECTION('ref_axis',(1.,0.,0.));
#252=DIRECTION('',(0.965925826289068,-0.258819045102522,-1.18291797137867E-16));
#253=DIRECTION('center_axis',(0.,1.,0.));
#254=DIRECTION('ref_axis',(-1.,0.,0.));
#255=DIRECTION('center_axis',(0.,1.,0.));
#256=DIRECTION('ref_axis',(1.,0.,0.));
#257=DIRECTION('center_axis',(0.,1.,0.));
#258=DIRECTION('ref_axis',(1.,0.,0.));
#259=DIRECTION('',(0.,-1.,0.));
#260=DIRECTION('center_axis',(0.,1.,0.));
#261=DIRECTION('ref_axis',(0.,0.,1.));
#262=CARTESIAN_POINT('',(0.,0.,0.));
#263=CARTESIAN_POINT('Origin',(-18.25,0.,0.));
#264=CARTESIAN_POINT('',(-18.25,0.,0.));
#265=CARTESIAN_POINT('',(18.25,0.,-2.23498040844392E-15));
#266=CARTESIAN_POINT('Origin',(0.,0.,0.));
#267=CARTESIAN_POINT('Origin',(0.,0.,0.));
#268=CARTESIAN_POINT('Origin',(0.,1.25,0.));
#269=CARTESIAN_POINT('',(-18.25,2.5,0.));
#270=CARTESIAN_POINT('',(18.25,2.5,-2.23498040844392E-15));
#271=CARTESIAN_POINT('Origin',(0.,2.5,0.));
#272=CARTESIAN_POINT('Origin',(0.,2.5,0.));
#273=CARTESIAN_POINT('',(18.25,1.25,-2.23498040844392E-15));
#274=CARTESIAN_POINT('Origin',(-20.6,2.5,0.));
#275=CARTESIAN_POINT('',(-20.6,2.5,0.));
#276=CARTESIAN_POINT('',(20.6,2.5,-2.52277240624355E-15));
#277=CARTESIAN_POINT('Origin',(0.,2.5,0.));
#278=CARTESIAN_POINT('Origin',(0.,2.5,0.));
#279=CARTESIAN_POINT('Origin',(0.,1.25,0.));
#280=CARTESIAN_POINT('',(20.6,0.,-2.52277240624355E-15));
#281=CARTESIAN_POINT('',(20.6,1.25,-2.52277240624355E-15));
#282=CARTESIAN_POINT('',(-20.6,0.,0.));
#283=CARTESIAN_POINT('Origin',(0.,0.,0.));
#284=CARTESIAN_POINT('Origin',(0.,0.,0.));
#285=CARTESIAN_POINT('Origin',(-27.5,0.,0.));
#286=CARTESIAN_POINT('',(-27.5,0.,0.));
#287=CARTESIAN_POINT('',(27.5,0.,-3.36777869765522E-15));
#288=CARTESIAN_POINT('Origin',(0.,0.,0.));
#289=CARTESIAN_POINT('Origin',(0.,0.,0.));
#290=CARTESIAN_POINT('Origin',(0.,1.5,0.));
#291=CARTESIAN_POINT('',(-27.5,3.,0.));
#292=CARTESIAN_POINT('',(27.5,3.,-3.36777869765522E-15));
#293=CARTESIAN_POINT('Origin',(0.,3.,0.));
#294=CARTESIAN_POINT('Origin',(0.,3.,0.));
#295=CARTESIAN_POINT('',(27.5,1.5,-3.36777869765522E-15));
#296=CARTESIAN_POINT('Origin',(0.,4.1320853380215,0.));
#297=CARTESIAN_POINT('',(-19.05,5.26417067604299,0.));
#298=CARTESIAN_POINT('',(19.05,5.26417067604299,-2.33295215237571E-15));
#299=CARTESIAN_POINT('Origin',(0.,5.26417067604299,0.));
#300=CARTESIAN_POINT('Origin',(0.,5.26417067604299,0.));
#301=CARTESIAN_POINT('',(23.275,4.1320853380215,-2.85036542501547E-15));
#302=CARTESIAN_POINT('Origin',(0.,15.3320853380215,0.));
#303=CARTESIAN_POINT('',(-19.05,25.4,0.));
#304=CARTESIAN_POINT('',(19.05,25.4,-2.33295215237571E-15));
#305=CARTESIAN_POINT('Origin',(0.,25.4,0.));
#306=CARTESIAN_POINT('Origin',(0.,25.4,0.));
#307=CARTESIAN_POINT('',(19.05,15.3320853380215,-2.33295215237571E-15));
#308=CARTESIAN_POINT('Origin',(0.,25.4,0.));
#309=UNCERTAINTY_MEASURE_WITH_UNIT(LENGTH_MEASURE(0.01),#313,
'DISTANCE_ACCURACY_VALUE',
'Maximum model space distance between geometric entities at asserted c
onnectivities');
#310=UNCERTAINTY_MEASURE_WITH_UNIT(LENGTH_MEASURE(0.01),#313,
'DISTANCE_ACCURACY_VALUE',
'Maximum model space distance between geometric entities at asserted c
onnectivities');
#311=(
GEOMETRIC_REPRESENTATION_CONTEXT(3)
GLOBAL_UNCERTAINTY_ASSIGNED_CONTEXT((#309))
GLOBAL_UNIT_ASSIGNED_CONTEXT((#313,#316,#315))
REPRESENTATION_CONTEXT('','3D')
);
#312=(
GEOMETRIC_REPRESENTATION_CONTEXT(3)
GLOBAL_UNCERTAINTY_ASSIGNED_CONTEXT((#310))
GLOBAL_UNIT_ASSIGNED_CONTEXT((#313,#316,#315))
REPRESENTATION_CONTEXT('','3D')
);
#313=(
LENGTH_UNIT()
NAMED_UNIT(*)
SI_UNIT(.MILLI.,.METRE.)
);
#314=(
LENGTH_UNIT()
NAMED_UNIT(*)
SI_UNIT(.CENTI.,.METRE.)
);
#315=(
NAMED_UNIT(*)
SI_UNIT($,.STERADIAN.)
SOLID_ANGLE_UNIT()
);
#316=(
NAMED_UNIT(*)
PLANE_ANGLE_UNIT()
SI_UNIT($,.RADIAN.)
);
#317=SHAPE_DEFINITION_REPRESENTATION(#318,#319);
#318=PRODUCT_DEFINITION_SHAPE('',$,#321);
#319=SHAPE_REPRESENTATION('',(#179),#311);
#320=PRODUCT_DEFINITION_CONTEXT('part definition',#325,'design');
#321=PRODUCT_DEFINITION('FL-40KFUS','FL-40KFUS',#322,#320);
#322=PRODUCT_DEFINITION_FORMATION('',$,#327);
#323=PRODUCT_RELATED_PRODUCT_CATEGORY('FL-40KFUS','FL-40KFUS',(#327));
#324=APPLICATION_PROTOCOL_DEFINITION('international standard',
'automotive_design',2009,#325);
#325=APPLICATION_CONTEXT(
'Core Data for Automotive Mechanical Design Process');
#326=PRODUCT_CONTEXT('part definition',#325,'mechanical');
#327=PRODUCT('FL-40KFUS','FL-40KFUS',$,(#326));
#328=PRESENTATION_STYLE_ASSIGNMENT((#329));
#329=SURFACE_STYLE_USAGE(.BOTH.,#330);
#330=SURFACE_SIDE_STYLE('',(#331));
#331=SURFACE_STYLE_FILL_AREA(#332);
#332=FILL_AREA_STYLE('',(#333));
#333=FILL_AREA_STYLE_COLOUR('',#334);
#334=COLOUR_RGB('',0.745098039215686,0.737254901960784,0.729411764705882);
ENDSEC;
END-ISO-10303-21;
