ISO-10303-21;
HEADER;
/* Generated by software containing ST-Developer
 * from STEP Tools, Inc. (www.steptools.com) 
 */

FILE_DESCRIPTION(
/* description */ (''),
/* implementation_level */ '2;1');

FILE_NAME(
/* name */ 'G:\\Flanges + FITTINGS\\NW25KF\\Step files\\FL-25KF-19W.st
p',
/* time_stamp */ '2018-03-28T15:04:55+01:00',
/* author */ ('paul'),
/* organization */ (''),
/* preprocessor_version */ 'ST-DEVELOPER v17',
/* originating_system */ 'Autodesk Inventor 2018',
/* authorisation */ '');

FILE_SCHEMA (('AUTOMOTIVE_DESIGN { 1 0 10303 214 3 1 1 }'));
ENDSEC;

DATA;
#10=MECHANICAL_DESIGN_GEOMETRIC_PRESENTATION_REPRESENTATION('',(#13),#336);
#11=SHAPE_REPRESENTATION_RELATIONSHIP('SRR','None',#343,#12);
#12=ADVANCED_BREP_SHAPE_REPRESENTATION('',(#14),#335);
#13=STYLED_ITEM('',(#352),#14);
#14=MANIFOLD_SOLID_BREP('Solid1',#174);
#15=FACE_BOUND('',#36,.T.);
#16=FACE_BOUND('',#39,.T.);
#17=FACE_BOUND('',#42,.T.);
#18=FACE_BOUND('',#45,.T.);
#19=PLANE('',#202);
#20=PLANE('',#208);
#21=PLANE('',#214);
#22=PLANE('',#220);
#23=CONICAL_SURFACE('',#199,16.2679491924311,1.30899693899575);
#24=FACE_OUTER_BOUND('',#33,.T.);
#25=FACE_OUTER_BOUND('',#34,.T.);
#26=FACE_OUTER_BOUND('',#35,.T.);
#27=FACE_OUTER_BOUND('',#37,.T.);
#28=FACE_OUTER_BOUND('',#38,.T.);
#29=FACE_OUTER_BOUND('',#40,.T.);
#30=FACE_OUTER_BOUND('',#41,.T.);
#31=FACE_OUTER_BOUND('',#43,.T.);
#32=FACE_OUTER_BOUND('',#44,.T.);
#33=EDGE_LOOP('',(#115,#116,#117,#118,#119,#120));
#34=EDGE_LOOP('',(#121,#122,#123,#124,#125,#126));
#35=EDGE_LOOP('',(#127,#128));
#36=EDGE_LOOP('',(#129,#130));
#37=EDGE_LOOP('',(#131,#132,#133,#134,#135,#136));
#38=EDGE_LOOP('',(#137,#138));
#39=EDGE_LOOP('',(#139,#140));
#40=EDGE_LOOP('',(#141,#142,#143,#144,#145,#146));
#41=EDGE_LOOP('',(#147,#148));
#42=EDGE_LOOP('',(#149,#150));
#43=EDGE_LOOP('',(#151,#152,#153,#154,#155,#156));
#44=EDGE_LOOP('',(#157,#158));
#45=EDGE_LOOP('',(#159,#160));
#46=LINE('',#289,#51);
#47=LINE('',#298,#52);
#48=LINE('',#306,#53);
#49=LINE('',#317,#54);
#50=LINE('',#328,#55);
#51=VECTOR('',#229,20.);
#52=VECTOR('',#240,16.2679491924311);
#53=VECTOR('',#249,9.65);
#54=VECTOR('',#262,8.65);
#55=VECTOR('',#275,13.1);
#56=CIRCLE('',#195,20.);
#57=CIRCLE('',#196,20.);
#58=CIRCLE('',#197,20.);
#59=CIRCLE('',#198,20.);
#60=CIRCLE('',#200,12.5358983848622);
#61=CIRCLE('',#201,12.5358983848622);
#62=CIRCLE('',#203,9.65);
#63=CIRCLE('',#204,9.65);
#64=CIRCLE('',#206,9.65);
#65=CIRCLE('',#207,9.65);
#66=CIRCLE('',#209,8.65);
#67=CIRCLE('',#210,8.65);
#68=CIRCLE('',#212,8.65);
#69=CIRCLE('',#213,8.65);
#70=CIRCLE('',#215,13.1);
#71=CIRCLE('',#216,13.1);
#72=CIRCLE('',#218,13.1);
#73=CIRCLE('',#219,13.1);
#74=VERTEX_POINT('',#284);
#75=VERTEX_POINT('',#285);
#76=VERTEX_POINT('',#288);
#77=VERTEX_POINT('',#290);
#78=VERTEX_POINT('',#294);
#79=VERTEX_POINT('',#295);
#80=VERTEX_POINT('',#300);
#81=VERTEX_POINT('',#301);
#82=VERTEX_POINT('',#305);
#83=VERTEX_POINT('',#307);
#84=VERTEX_POINT('',#311);
#85=VERTEX_POINT('',#312);
#86=VERTEX_POINT('',#316);
#87=VERTEX_POINT('',#318);
#88=VERTEX_POINT('',#322);
#89=VERTEX_POINT('',#323);
#90=VERTEX_POINT('',#327);
#91=VERTEX_POINT('',#329);
#92=EDGE_CURVE('',#74,#75,#56,.T.);
#93=EDGE_CURVE('',#75,#74,#57,.T.);
#94=EDGE_CURVE('',#75,#76,#46,.T.);
#95=EDGE_CURVE('',#76,#77,#58,.T.);
#96=EDGE_CURVE('',#77,#76,#59,.T.);
#97=EDGE_CURVE('',#78,#79,#60,.T.);
#98=EDGE_CURVE('',#79,#78,#61,.T.);
#99=EDGE_CURVE('',#79,#75,#47,.T.);
#100=EDGE_CURVE('',#80,#81,#62,.T.);
#101=EDGE_CURVE('',#81,#80,#63,.T.);
#102=EDGE_CURVE('',#81,#82,#48,.T.);
#103=EDGE_CURVE('',#83,#82,#64,.T.);
#104=EDGE_CURVE('',#82,#83,#65,.T.);
#105=EDGE_CURVE('',#84,#85,#66,.T.);
#106=EDGE_CURVE('',#85,#84,#67,.T.);
#107=EDGE_CURVE('',#85,#86,#49,.T.);
#108=EDGE_CURVE('',#87,#86,#68,.T.);
#109=EDGE_CURVE('',#86,#87,#69,.T.);
#110=EDGE_CURVE('',#88,#89,#70,.T.);
#111=EDGE_CURVE('',#89,#88,#71,.T.);
#112=EDGE_CURVE('',#89,#90,#50,.T.);
#113=EDGE_CURVE('',#91,#90,#72,.T.);
#114=EDGE_CURVE('',#90,#91,#73,.T.);
#115=ORIENTED_EDGE('',*,*,#92,.F.);
#116=ORIENTED_EDGE('',*,*,#93,.F.);
#117=ORIENTED_EDGE('',*,*,#94,.T.);
#118=ORIENTED_EDGE('',*,*,#95,.T.);
#119=ORIENTED_EDGE('',*,*,#96,.T.);
#120=ORIENTED_EDGE('',*,*,#94,.F.);
#121=ORIENTED_EDGE('',*,*,#97,.F.);
#122=ORIENTED_EDGE('',*,*,#98,.F.);
#123=ORIENTED_EDGE('',*,*,#99,.T.);
#124=ORIENTED_EDGE('',*,*,#93,.T.);
#125=ORIENTED_EDGE('',*,*,#92,.T.);
#126=ORIENTED_EDGE('',*,*,#99,.F.);
#127=ORIENTED_EDGE('',*,*,#97,.T.);
#128=ORIENTED_EDGE('',*,*,#98,.T.);
#129=ORIENTED_EDGE('',*,*,#100,.F.);
#130=ORIENTED_EDGE('',*,*,#101,.F.);
#131=ORIENTED_EDGE('',*,*,#100,.T.);
#132=ORIENTED_EDGE('',*,*,#102,.T.);
#133=ORIENTED_EDGE('',*,*,#103,.F.);
#134=ORIENTED_EDGE('',*,*,#104,.F.);
#135=ORIENTED_EDGE('',*,*,#102,.F.);
#136=ORIENTED_EDGE('',*,*,#101,.T.);
#137=ORIENTED_EDGE('',*,*,#103,.T.);
#138=ORIENTED_EDGE('',*,*,#104,.T.);
#139=ORIENTED_EDGE('',*,*,#105,.F.);
#140=ORIENTED_EDGE('',*,*,#106,.F.);
#141=ORIENTED_EDGE('',*,*,#105,.T.);
#142=ORIENTED_EDGE('',*,*,#107,.T.);
#143=ORIENTED_EDGE('',*,*,#108,.F.);
#144=ORIENTED_EDGE('',*,*,#109,.F.);
#145=ORIENTED_EDGE('',*,*,#107,.F.);
#146=ORIENTED_EDGE('',*,*,#106,.T.);
#147=ORIENTED_EDGE('',*,*,#110,.F.);
#148=ORIENTED_EDGE('',*,*,#111,.F.);
#149=ORIENTED_EDGE('',*,*,#108,.T.);
#150=ORIENTED_EDGE('',*,*,#109,.T.);
#151=ORIENTED_EDGE('',*,*,#110,.T.);
#152=ORIENTED_EDGE('',*,*,#112,.T.);
#153=ORIENTED_EDGE('',*,*,#113,.F.);
#154=ORIENTED_EDGE('',*,*,#114,.F.);
#155=ORIENTED_EDGE('',*,*,#112,.F.);
#156=ORIENTED_EDGE('',*,*,#111,.T.);
#157=ORIENTED_EDGE('',*,*,#96,.F.);
#158=ORIENTED_EDGE('',*,*,#95,.F.);
#159=ORIENTED_EDGE('',*,*,#113,.T.);
#160=ORIENTED_EDGE('',*,*,#114,.T.);
#161=CYLINDRICAL_SURFACE('',#194,20.);
#162=CYLINDRICAL_SURFACE('',#205,9.65);
#163=CYLINDRICAL_SURFACE('',#211,8.65);
#164=CYLINDRICAL_SURFACE('',#217,13.1);
#165=ADVANCED_FACE('',(#24),#161,.T.);
#166=ADVANCED_FACE('',(#25),#23,.T.);
#167=ADVANCED_FACE('',(#26,#15),#19,.T.);
#168=ADVANCED_FACE('',(#27),#162,.F.);
#169=ADVANCED_FACE('',(#28,#16),#20,.T.);
#170=ADVANCED_FACE('',(#29),#163,.F.);
#171=ADVANCED_FACE('',(#30,#17),#21,.T.);
#172=ADVANCED_FACE('',(#31),#164,.F.);
#173=ADVANCED_FACE('',(#32,#18),#22,.T.);
#174=CLOSED_SHELL('',(#165,#166,#167,#168,#169,#170,#171,#172,#173));
#175=DERIVED_UNIT_ELEMENT(#177,1.);
#176=DERIVED_UNIT_ELEMENT(#338,3.);
#177=(
MASS_UNIT()
NAMED_UNIT(*)
SI_UNIT($,.GRAM.)
);
#178=DERIVED_UNIT((#175,#176));
#179=MEASURE_REPRESENTATION_ITEM('density measure',
POSITIVE_RATIO_MEASURE(8.),#178);
#180=PROPERTY_DEFINITION_REPRESENTATION(#185,#182);
#181=PROPERTY_DEFINITION_REPRESENTATION(#186,#183);
#182=REPRESENTATION('material name',(#184),#335);
#183=REPRESENTATION('density',(#179),#335);
#184=DESCRIPTIVE_REPRESENTATION_ITEM('Stainless Steel AISI 304',
'Stainless Steel AISI 304');
#185=PROPERTY_DEFINITION('material property','material name',#345);
#186=PROPERTY_DEFINITION('material property','density of part',#345);
#187=DATE_TIME_ROLE('creation_date');
#188=APPLIED_DATE_AND_TIME_ASSIGNMENT(#189,#187,(#345));
#189=DATE_AND_TIME(#190,#191);
#190=CALENDAR_DATE(2014,18,11);
#191=LOCAL_TIME(10,34,47.,#192);
#192=COORDINATED_UNIVERSAL_TIME_OFFSET(0,0,.BEHIND.);
#193=AXIS2_PLACEMENT_3D('placement',#282,#221,#222);
#194=AXIS2_PLACEMENT_3D('',#283,#223,#224);
#195=AXIS2_PLACEMENT_3D('',#286,#225,#226);
#196=AXIS2_PLACEMENT_3D('',#287,#227,#228);
#197=AXIS2_PLACEMENT_3D('',#291,#230,#231);
#198=AXIS2_PLACEMENT_3D('',#292,#232,#233);
#199=AXIS2_PLACEMENT_3D('',#293,#234,#235);
#200=AXIS2_PLACEMENT_3D('',#296,#236,#237);
#201=AXIS2_PLACEMENT_3D('',#297,#238,#239);
#202=AXIS2_PLACEMENT_3D('',#299,#241,#242);
#203=AXIS2_PLACEMENT_3D('',#302,#243,#244);
#204=AXIS2_PLACEMENT_3D('',#303,#245,#246);
#205=AXIS2_PLACEMENT_3D('',#304,#247,#248);
#206=AXIS2_PLACEMENT_3D('',#308,#250,#251);
#207=AXIS2_PLACEMENT_3D('',#309,#252,#253);
#208=AXIS2_PLACEMENT_3D('',#310,#254,#255);
#209=AXIS2_PLACEMENT_3D('',#313,#256,#257);
#210=AXIS2_PLACEMENT_3D('',#314,#258,#259);
#211=AXIS2_PLACEMENT_3D('',#315,#260,#261);
#212=AXIS2_PLACEMENT_3D('',#319,#263,#264);
#213=AXIS2_PLACEMENT_3D('',#320,#265,#266);
#214=AXIS2_PLACEMENT_3D('',#321,#267,#268);
#215=AXIS2_PLACEMENT_3D('',#324,#269,#270);
#216=AXIS2_PLACEMENT_3D('',#325,#271,#272);
#217=AXIS2_PLACEMENT_3D('',#326,#273,#274);
#218=AXIS2_PLACEMENT_3D('',#330,#276,#277);
#219=AXIS2_PLACEMENT_3D('',#331,#278,#279);
#220=AXIS2_PLACEMENT_3D('',#332,#280,#281);
#221=DIRECTION('axis',(0.,0.,1.));
#222=DIRECTION('refdir',(1.,0.,0.));
#223=DIRECTION('center_axis',(0.,1.,0.));
#224=DIRECTION('ref_axis',(-1.,0.,0.));
#225=DIRECTION('center_axis',(0.,1.,0.));
#226=DIRECTION('ref_axis',(1.,0.,0.));
#227=DIRECTION('center_axis',(0.,1.,0.));
#228=DIRECTION('ref_axis',(1.,0.,0.));
#229=DIRECTION('',(0.,-1.,0.));
#230=DIRECTION('center_axis',(0.,1.,0.));
#231=DIRECTION('ref_axis',(1.,0.,0.));
#232=DIRECTION('center_axis',(0.,1.,0.));
#233=DIRECTION('ref_axis',(1.,0.,0.));
#234=DIRECTION('center_axis',(0.,-1.,0.));
#235=DIRECTION('ref_axis',(-1.,0.,0.));
#236=DIRECTION('center_axis',(0.,1.,0.));
#237=DIRECTION('ref_axis',(1.,0.,0.));
#238=DIRECTION('center_axis',(0.,1.,0.));
#239=DIRECTION('ref_axis',(1.,0.,0.));
#240=DIRECTION('',(0.965925826289068,-0.258819045102521,-1.18291797137867E-16));
#241=DIRECTION('center_axis',(0.,1.,0.));
#242=DIRECTION('ref_axis',(0.,0.,1.));
#243=DIRECTION('center_axis',(0.,1.,0.));
#244=DIRECTION('ref_axis',(1.,0.,0.));
#245=DIRECTION('center_axis',(0.,1.,0.));
#246=DIRECTION('ref_axis',(1.,0.,0.));
#247=DIRECTION('center_axis',(0.,1.,0.));
#248=DIRECTION('ref_axis',(-1.,0.,0.));
#249=DIRECTION('',(0.,-1.,0.));
#250=DIRECTION('center_axis',(0.,1.,0.));
#251=DIRECTION('ref_axis',(1.,0.,0.));
#252=DIRECTION('center_axis',(0.,1.,0.));
#253=DIRECTION('ref_axis',(1.,0.,0.));
#254=DIRECTION('center_axis',(0.,1.,0.));
#255=DIRECTION('ref_axis',(0.,0.,1.));
#256=DIRECTION('center_axis',(0.,1.,0.));
#257=DIRECTION('ref_axis',(1.,0.,0.));
#258=DIRECTION('center_axis',(0.,1.,0.));
#259=DIRECTION('ref_axis',(1.,0.,0.));
#260=DIRECTION('center_axis',(0.,1.,0.));
#261=DIRECTION('ref_axis',(-1.,0.,0.));
#262=DIRECTION('',(0.,-1.,0.));
#263=DIRECTION('center_axis',(0.,1.,0.));
#264=DIRECTION('ref_axis',(1.,0.,0.));
#265=DIRECTION('center_axis',(0.,1.,0.));
#266=DIRECTION('ref_axis',(1.,0.,0.));
#267=DIRECTION('center_axis',(0.,-1.,0.));
#268=DIRECTION('ref_axis',(0.,0.,-1.));
#269=DIRECTION('center_axis',(0.,1.,0.));
#270=DIRECTION('ref_axis',(1.,0.,0.));
#271=DIRECTION('center_axis',(0.,1.,0.));
#272=DIRECTION('ref_axis',(1.,0.,0.));
#273=DIRECTION('center_axis',(0.,1.,0.));
#274=DIRECTION('ref_axis',(-1.,0.,0.));
#275=DIRECTION('',(0.,-1.,0.));
#276=DIRECTION('center_axis',(0.,1.,0.));
#277=DIRECTION('ref_axis',(1.,0.,0.));
#278=DIRECTION('center_axis',(0.,1.,0.));
#279=DIRECTION('ref_axis',(1.,0.,0.));
#280=DIRECTION('center_axis',(0.,-1.,0.));
#281=DIRECTION('ref_axis',(0.,0.,-1.));
#282=CARTESIAN_POINT('',(0.,0.,0.));
#283=CARTESIAN_POINT('Origin',(0.,1.5,0.));
#284=CARTESIAN_POINT('',(-20.,3.,0.));
#285=CARTESIAN_POINT('',(20.,3.,-2.44929359829471E-15));
#286=CARTESIAN_POINT('Origin',(0.,3.,0.));
#287=CARTESIAN_POINT('Origin',(0.,3.,0.));
#288=CARTESIAN_POINT('',(20.,0.,-2.44929359829471E-15));
#289=CARTESIAN_POINT('',(20.,1.5,-2.44929359829471E-15));
#290=CARTESIAN_POINT('',(-20.,0.,0.));
#291=CARTESIAN_POINT('Origin',(0.,0.,0.));
#292=CARTESIAN_POINT('Origin',(0.,0.,0.));
#293=CARTESIAN_POINT('Origin',(0.,4.,0.));
#294=CARTESIAN_POINT('',(-12.5358983848622,5.,0.));
#295=CARTESIAN_POINT('',(12.5358983848622,5.,-1.5352047831458E-15));
#296=CARTESIAN_POINT('Origin',(0.,5.,0.));
#297=CARTESIAN_POINT('Origin',(0.,5.,0.));
#298=CARTESIAN_POINT('',(16.2679491924311,4.,-1.99224919072025E-15));
#299=CARTESIAN_POINT('Origin',(-9.65,5.,0.));
#300=CARTESIAN_POINT('',(-9.65,5.,0.));
#301=CARTESIAN_POINT('',(9.65,5.,-1.1817841611772E-15));
#302=CARTESIAN_POINT('Origin',(0.,5.,0.));
#303=CARTESIAN_POINT('Origin',(0.,5.,0.));
#304=CARTESIAN_POINT('Origin',(0.,4.42,0.));
#305=CARTESIAN_POINT('',(9.65,3.84,-1.1817841611772E-15));
#306=CARTESIAN_POINT('',(9.65,4.42,-1.1817841611772E-15));
#307=CARTESIAN_POINT('',(-9.65,3.84,0.));
#308=CARTESIAN_POINT('Origin',(0.,3.84,0.));
#309=CARTESIAN_POINT('Origin',(0.,3.84,0.));
#310=CARTESIAN_POINT('Origin',(-8.65,3.84,0.));
#311=CARTESIAN_POINT('',(-8.65,3.84,0.));
#312=CARTESIAN_POINT('',(8.65,3.84,-1.05931948126246E-15));
#313=CARTESIAN_POINT('Origin',(0.,3.84,0.));
#314=CARTESIAN_POINT('Origin',(0.,3.84,0.));
#315=CARTESIAN_POINT('Origin',(0.,3.17,0.));
#316=CARTESIAN_POINT('',(8.65,2.5,-1.05931948126246E-15));
#317=CARTESIAN_POINT('',(8.65,3.17,-1.05931948126246E-15));
#318=CARTESIAN_POINT('',(-8.65,2.5,0.));
#319=CARTESIAN_POINT('Origin',(0.,2.5,0.));
#320=CARTESIAN_POINT('Origin',(0.,2.5,0.));
#321=CARTESIAN_POINT('Origin',(-13.1,2.5,0.));
#322=CARTESIAN_POINT('',(-13.1,2.5,0.));
#323=CARTESIAN_POINT('',(13.1,2.5,-1.60428730688303E-15));
#324=CARTESIAN_POINT('Origin',(0.,2.5,0.));
#325=CARTESIAN_POINT('Origin',(0.,2.5,0.));
#326=CARTESIAN_POINT('Origin',(0.,1.25,0.));
#327=CARTESIAN_POINT('',(13.1,0.,-1.60428730688303E-15));
#328=CARTESIAN_POINT('',(13.1,1.25,-1.60428730688303E-15));
#329=CARTESIAN_POINT('',(-13.1,0.,0.));
#330=CARTESIAN_POINT('Origin',(0.,0.,0.));
#331=CARTESIAN_POINT('Origin',(0.,0.,0.));
#332=CARTESIAN_POINT('Origin',(-20.,0.,0.));
#333=UNCERTAINTY_MEASURE_WITH_UNIT(LENGTH_MEASURE(0.01),#337,
'DISTANCE_ACCURACY_VALUE',
'Maximum model space distance between geometric entities at asserted c
onnectivities');
#334=UNCERTAINTY_MEASURE_WITH_UNIT(LENGTH_MEASURE(0.01),#337,
'DISTANCE_ACCURACY_VALUE',
'Maximum model space distance between geometric entities at asserted c
onnectivities');
#335=(
GEOMETRIC_REPRESENTATION_CONTEXT(3)
GLOBAL_UNCERTAINTY_ASSIGNED_CONTEXT((#333))
GLOBAL_UNIT_ASSIGNED_CONTEXT((#337,#340,#339))
REPRESENTATION_CONTEXT('','3D')
);
#336=(
GEOMETRIC_REPRESENTATION_CONTEXT(3)
GLOBAL_UNCERTAINTY_ASSIGNED_CONTEXT((#334))
GLOBAL_UNIT_ASSIGNED_CONTEXT((#337,#340,#339))
REPRESENTATION_CONTEXT('','3D')
);
#337=(
LENGTH_UNIT()
NAMED_UNIT(*)
SI_UNIT(.MILLI.,.METRE.)
);
#338=(
LENGTH_UNIT()
NAMED_UNIT(*)
SI_UNIT(.CENTI.,.METRE.)
);
#339=(
NAMED_UNIT(*)
SI_UNIT($,.STERADIAN.)
SOLID_ANGLE_UNIT()
);
#340=(
NAMED_UNIT(*)
PLANE_ANGLE_UNIT()
SI_UNIT($,.RADIAN.)
);
#341=SHAPE_DEFINITION_REPRESENTATION(#342,#343);
#342=PRODUCT_DEFINITION_SHAPE('',$,#345);
#343=SHAPE_REPRESENTATION('',(#193),#335);
#344=PRODUCT_DEFINITION_CONTEXT('part definition',#349,'design');
#345=PRODUCT_DEFINITION('FL-25KF-19W','FL-25KF-19W',#346,#344);
#346=PRODUCT_DEFINITION_FORMATION('',$,#351);
#347=PRODUCT_RELATED_PRODUCT_CATEGORY('FL-25KF-19W','FL-25KF-19W',(#351));
#348=APPLICATION_PROTOCOL_DEFINITION('international standard',
'automotive_design',2009,#349);
#349=APPLICATION_CONTEXT(
'Core Data for Automotive Mechanical Design Process');
#350=PRODUCT_CONTEXT('part definition',#349,'mechanical');
#351=PRODUCT('FL-25KF-19W','FL-25KF-19W',$,(#350));
#352=PRESENTATION_STYLE_ASSIGNMENT((#353));
#353=SURFACE_STYLE_USAGE(.BOTH.,#354);
#354=SURFACE_SIDE_STYLE('',(#355));
#355=SURFACE_STYLE_FILL_AREA(#356);
#356=FILL_AREA_STYLE('',(#357));
#357=FILL_AREA_STYLE_COLOUR('',#358);
#358=COLOUR_RGB('',0.745098039215686,0.737254901960784,0.729411764705882);
ENDSEC;
END-ISO-10303-21;
