ISO-10303-21;
HEADER;
/* Generated by software containing ST-Developer
 * from STEP Tools, Inc. (www.steptools.com) 
 */

FILE_DESCRIPTION(
/* description */ (''),
/* implementation_level */ '2;1');

FILE_NAME(
/* name */ 'G:\\FLANGES & FITTINGS\\NW250LF\\Step files\\FL-250LF-W267.
stp',
/* time_stamp */ '2018-07-12T12:17:44+01:00',
/* author */ ('paul'),
/* organization */ (''),
/* preprocessor_version */ 'ST-DEVELOPER v17',
/* originating_system */ 'Autodesk Inventor 2019',
/* authorisation */ '');

FILE_SCHEMA (('AUTOMOTIVE_DESIGN { 1 0 10303 214 3 1 1 }'));
ENDSEC;

DATA;
#10=MECHANICAL_DESIGN_GEOMETRIC_PRESENTATION_REPRESENTATION('',(#13),#616);
#11=SHAPE_REPRESENTATION_RELATIONSHIP('SRR','None',#623,#12);
#12=ADVANCED_BREP_SHAPE_REPRESENTATION('',(#14),#615);
#13=STYLED_ITEM('',(#632),#14);
#14=MANIFOLD_SOLID_BREP('Solid1',#321);
#15=TOROIDAL_SURFACE('',#369,142.,0.5);
#16=TOROIDAL_SURFACE('',#379,143.,0.5);
#17=TOROIDAL_SURFACE('',#381,138.,0.5);
#18=TOROIDAL_SURFACE('',#388,137.,0.5);
#19=TOROIDAL_SURFACE('',#390,145.,2.49999999999999);
#20=CYLINDRICAL_SURFACE('',#347,134.);
#21=CYLINDRICAL_SURFACE('',#354,145.);
#22=CYLINDRICAL_SURFACE('',#366,145.);
#23=CYLINDRICAL_SURFACE('',#374,142.5);
#24=CYLINDRICAL_SURFACE('',#385,137.5);
#25=CYLINDRICAL_SURFACE('',#392,130.5);
#26=FACE_BOUND('',#57,.T.);
#27=FACE_BOUND('',#62,.T.);
#28=FACE_BOUND('',#65,.T.);
#29=FACE_BOUND('',#70,.T.);
#30=FACE_BOUND('',#78,.T.);
#31=PLANE('',#345);
#32=PLANE('',#357);
#33=PLANE('',#364);
#34=PLANE('',#377);
#35=PLANE('',#395);
#36=FACE_OUTER_BOUND('',#55,.T.);
#37=FACE_OUTER_BOUND('',#56,.T.);
#38=FACE_OUTER_BOUND('',#58,.T.);
#39=FACE_OUTER_BOUND('',#59,.T.);
#40=FACE_OUTER_BOUND('',#60,.T.);
#41=FACE_OUTER_BOUND('',#61,.T.);
#42=FACE_OUTER_BOUND('',#63,.T.);
#43=FACE_OUTER_BOUND('',#64,.T.);
#44=FACE_OUTER_BOUND('',#66,.T.);
#45=FACE_OUTER_BOUND('',#67,.T.);
#46=FACE_OUTER_BOUND('',#68,.T.);
#47=FACE_OUTER_BOUND('',#69,.T.);
#48=FACE_OUTER_BOUND('',#71,.T.);
#49=FACE_OUTER_BOUND('',#72,.T.);
#50=FACE_OUTER_BOUND('',#73,.T.);
#51=FACE_OUTER_BOUND('',#74,.T.);
#52=FACE_OUTER_BOUND('',#75,.T.);
#53=FACE_OUTER_BOUND('',#76,.T.);
#54=FACE_OUTER_BOUND('',#77,.T.);
#55=EDGE_LOOP('',(#209,#210,#211,#212,#213));
#56=EDGE_LOOP('',(#214));
#57=EDGE_LOOP('',(#215));
#58=EDGE_LOOP('',(#216,#217,#218,#219,#220,#221));
#59=EDGE_LOOP('',(#222,#223,#224,#225,#226));
#60=EDGE_LOOP('',(#227,#228,#229,#230,#231,#232));
#61=EDGE_LOOP('',(#233));
#62=EDGE_LOOP('',(#234,#235));
#63=EDGE_LOOP('',(#236,#237,#238,#239,#240));
#64=EDGE_LOOP('',(#241));
#65=EDGE_LOOP('',(#242));
#66=EDGE_LOOP('',(#243,#244,#245,#246,#247,#248));
#67=EDGE_LOOP('',(#249,#250,#251,#252,#253));
#68=EDGE_LOOP('',(#254,#255,#256,#257,#258,#259));
#69=EDGE_LOOP('',(#260));
#70=EDGE_LOOP('',(#261));
#71=EDGE_LOOP('',(#262,#263,#264,#265,#266));
#72=EDGE_LOOP('',(#267,#268,#269,#270,#271));
#73=EDGE_LOOP('',(#272,#273,#274,#275,#276,#277));
#74=EDGE_LOOP('',(#278,#279,#280,#281,#282));
#75=EDGE_LOOP('',(#283,#284,#285,#286,#287,#288));
#76=EDGE_LOOP('',(#289,#290,#291,#292,#293,#294));
#77=EDGE_LOOP('',(#295,#296));
#78=EDGE_LOOP('',(#297,#298));
#79=LINE('',#522,#88);
#80=LINE('',#533,#89);
#81=LINE('',#539,#90);
#82=LINE('',#545,#91);
#83=LINE('',#560,#92);
#84=LINE('',#570,#93);
#85=LINE('',#581,#94);
#86=LINE('',#598,#95);
#87=LINE('',#608,#96);
#88=VECTOR('',#402,134.125);
#89=VECTOR('',#415,134.);
#90=VECTOR('',#422,144.75);
#91=VECTOR('',#429,145.);
#92=VECTOR('',#446,144.75);
#93=VECTOR('',#459,145.);
#94=VECTOR('',#472,142.5);
#95=VECTOR('',#495,137.5);
#96=VECTOR('',#510,130.5);
#97=CIRCLE('',#342,134.25);
#98=CIRCLE('',#343,134.);
#99=CIRCLE('',#344,134.);
#100=CIRCLE('',#346,137.);
#101=CIRCLE('',#348,134.);
#102=CIRCLE('',#349,134.);
#103=CIRCLE('',#351,144.5);
#104=CIRCLE('',#352,145.);
#105=CIRCLE('',#353,145.);
#106=CIRCLE('',#355,145.);
#107=CIRCLE('',#356,145.);
#108=CIRCLE('',#358,130.5);
#109=CIRCLE('',#359,130.5);
#110=CIRCLE('',#361,145.);
#111=CIRCLE('',#362,145.);
#112=CIRCLE('',#363,144.5);
#113=CIRCLE('',#365,143.);
#114=CIRCLE('',#367,145.);
#115=CIRCLE('',#368,145.);
#116=CIRCLE('',#370,142.);
#117=CIRCLE('',#371,0.5);
#118=CIRCLE('',#372,142.5);
#119=CIRCLE('',#373,142.5);
#120=CIRCLE('',#375,142.5);
#121=CIRCLE('',#376,142.5);
#122=CIRCLE('',#378,138.);
#123=CIRCLE('',#380,0.5);
#124=CIRCLE('',#382,137.5);
#125=CIRCLE('',#383,137.5);
#126=CIRCLE('',#384,0.5);
#127=CIRCLE('',#386,137.5);
#128=CIRCLE('',#387,137.5);
#129=CIRCLE('',#389,0.5);
#130=CIRCLE('',#391,2.49999999999999);
#131=CIRCLE('',#393,130.5);
#132=CIRCLE('',#394,130.5);
#133=VERTEX_POINT('',#519);
#134=VERTEX_POINT('',#521);
#135=VERTEX_POINT('',#523);
#136=VERTEX_POINT('',#527);
#137=VERTEX_POINT('',#530);
#138=VERTEX_POINT('',#531);
#139=VERTEX_POINT('',#536);
#140=VERTEX_POINT('',#538);
#141=VERTEX_POINT('',#540);
#142=VERTEX_POINT('',#544);
#143=VERTEX_POINT('',#546);
#144=VERTEX_POINT('',#550);
#145=VERTEX_POINT('',#551);
#146=VERTEX_POINT('',#555);
#147=VERTEX_POINT('',#556);
#148=VERTEX_POINT('',#559);
#149=VERTEX_POINT('',#563);
#150=VERTEX_POINT('',#566);
#151=VERTEX_POINT('',#567);
#152=VERTEX_POINT('',#572);
#153=VERTEX_POINT('',#574);
#154=VERTEX_POINT('',#576);
#155=VERTEX_POINT('',#580);
#156=VERTEX_POINT('',#582);
#157=VERTEX_POINT('',#586);
#158=VERTEX_POINT('',#591);
#159=VERTEX_POINT('',#592);
#160=VERTEX_POINT('',#597);
#161=VERTEX_POINT('',#599);
#162=VERTEX_POINT('',#607);
#163=VERTEX_POINT('',#609);
#164=EDGE_CURVE('',#133,#133,#97,.T.);
#165=EDGE_CURVE('',#133,#134,#79,.T.);
#166=EDGE_CURVE('',#134,#135,#98,.T.);
#167=EDGE_CURVE('',#135,#134,#99,.T.);
#168=EDGE_CURVE('',#136,#136,#100,.T.);
#169=EDGE_CURVE('',#137,#138,#101,.T.);
#170=EDGE_CURVE('',#138,#135,#80,.T.);
#171=EDGE_CURVE('',#138,#137,#102,.T.);
#172=EDGE_CURVE('',#139,#139,#103,.T.);
#173=EDGE_CURVE('',#139,#140,#81,.T.);
#174=EDGE_CURVE('',#140,#141,#104,.T.);
#175=EDGE_CURVE('',#141,#140,#105,.T.);
#176=EDGE_CURVE('',#141,#142,#82,.T.);
#177=EDGE_CURVE('',#142,#143,#106,.T.);
#178=EDGE_CURVE('',#143,#142,#107,.T.);
#179=EDGE_CURVE('',#144,#145,#108,.T.);
#180=EDGE_CURVE('',#145,#144,#109,.T.);
#181=EDGE_CURVE('',#146,#147,#110,.T.);
#182=EDGE_CURVE('',#147,#146,#111,.T.);
#183=EDGE_CURVE('',#146,#148,#83,.T.);
#184=EDGE_CURVE('',#148,#148,#112,.T.);
#185=EDGE_CURVE('',#149,#149,#113,.T.);
#186=EDGE_CURVE('',#150,#151,#114,.T.);
#187=EDGE_CURVE('',#151,#150,#115,.T.);
#188=EDGE_CURVE('',#151,#147,#84,.T.);
#189=EDGE_CURVE('',#152,#152,#116,.T.);
#190=EDGE_CURVE('',#152,#153,#117,.T.);
#191=EDGE_CURVE('',#153,#154,#118,.T.);
#192=EDGE_CURVE('',#154,#153,#119,.T.);
#193=EDGE_CURVE('',#154,#155,#85,.T.);
#194=EDGE_CURVE('',#156,#155,#120,.T.);
#195=EDGE_CURVE('',#155,#156,#121,.T.);
#196=EDGE_CURVE('',#157,#157,#122,.T.);
#197=EDGE_CURVE('',#149,#156,#123,.T.);
#198=EDGE_CURVE('',#158,#159,#124,.T.);
#199=EDGE_CURVE('',#159,#158,#125,.T.);
#200=EDGE_CURVE('',#158,#157,#126,.T.);
#201=EDGE_CURVE('',#159,#160,#86,.T.);
#202=EDGE_CURVE('',#161,#160,#127,.T.);
#203=EDGE_CURVE('',#160,#161,#128,.T.);
#204=EDGE_CURVE('',#161,#136,#129,.T.);
#205=EDGE_CURVE('',#150,#143,#130,.T.);
#206=EDGE_CURVE('',#145,#162,#87,.T.);
#207=EDGE_CURVE('',#163,#162,#131,.T.);
#208=EDGE_CURVE('',#162,#163,#132,.T.);
#209=ORIENTED_EDGE('',*,*,#164,.T.);
#210=ORIENTED_EDGE('',*,*,#165,.T.);
#211=ORIENTED_EDGE('',*,*,#166,.T.);
#212=ORIENTED_EDGE('',*,*,#167,.T.);
#213=ORIENTED_EDGE('',*,*,#165,.F.);
#214=ORIENTED_EDGE('',*,*,#168,.F.);
#215=ORIENTED_EDGE('',*,*,#164,.F.);
#216=ORIENTED_EDGE('',*,*,#169,.T.);
#217=ORIENTED_EDGE('',*,*,#170,.T.);
#218=ORIENTED_EDGE('',*,*,#166,.F.);
#219=ORIENTED_EDGE('',*,*,#167,.F.);
#220=ORIENTED_EDGE('',*,*,#170,.F.);
#221=ORIENTED_EDGE('',*,*,#171,.T.);
#222=ORIENTED_EDGE('',*,*,#172,.T.);
#223=ORIENTED_EDGE('',*,*,#173,.T.);
#224=ORIENTED_EDGE('',*,*,#174,.T.);
#225=ORIENTED_EDGE('',*,*,#175,.T.);
#226=ORIENTED_EDGE('',*,*,#173,.F.);
#227=ORIENTED_EDGE('',*,*,#174,.F.);
#228=ORIENTED_EDGE('',*,*,#175,.F.);
#229=ORIENTED_EDGE('',*,*,#176,.T.);
#230=ORIENTED_EDGE('',*,*,#177,.T.);
#231=ORIENTED_EDGE('',*,*,#178,.T.);
#232=ORIENTED_EDGE('',*,*,#176,.F.);
#233=ORIENTED_EDGE('',*,*,#172,.F.);
#234=ORIENTED_EDGE('',*,*,#179,.F.);
#235=ORIENTED_EDGE('',*,*,#180,.F.);
#236=ORIENTED_EDGE('',*,*,#181,.T.);
#237=ORIENTED_EDGE('',*,*,#182,.T.);
#238=ORIENTED_EDGE('',*,*,#183,.T.);
#239=ORIENTED_EDGE('',*,*,#184,.T.);
#240=ORIENTED_EDGE('',*,*,#183,.F.);
#241=ORIENTED_EDGE('',*,*,#184,.F.);
#242=ORIENTED_EDGE('',*,*,#185,.F.);
#243=ORIENTED_EDGE('',*,*,#186,.F.);
#244=ORIENTED_EDGE('',*,*,#187,.F.);
#245=ORIENTED_EDGE('',*,*,#188,.T.);
#246=ORIENTED_EDGE('',*,*,#181,.F.);
#247=ORIENTED_EDGE('',*,*,#182,.F.);
#248=ORIENTED_EDGE('',*,*,#188,.F.);
#249=ORIENTED_EDGE('',*,*,#189,.T.);
#250=ORIENTED_EDGE('',*,*,#190,.T.);
#251=ORIENTED_EDGE('',*,*,#191,.T.);
#252=ORIENTED_EDGE('',*,*,#192,.T.);
#253=ORIENTED_EDGE('',*,*,#190,.F.);
#254=ORIENTED_EDGE('',*,*,#191,.F.);
#255=ORIENTED_EDGE('',*,*,#192,.F.);
#256=ORIENTED_EDGE('',*,*,#193,.T.);
#257=ORIENTED_EDGE('',*,*,#194,.F.);
#258=ORIENTED_EDGE('',*,*,#195,.F.);
#259=ORIENTED_EDGE('',*,*,#193,.F.);
#260=ORIENTED_EDGE('',*,*,#189,.F.);
#261=ORIENTED_EDGE('',*,*,#196,.F.);
#262=ORIENTED_EDGE('',*,*,#185,.T.);
#263=ORIENTED_EDGE('',*,*,#197,.T.);
#264=ORIENTED_EDGE('',*,*,#194,.T.);
#265=ORIENTED_EDGE('',*,*,#195,.T.);
#266=ORIENTED_EDGE('',*,*,#197,.F.);
#267=ORIENTED_EDGE('',*,*,#198,.T.);
#268=ORIENTED_EDGE('',*,*,#199,.T.);
#269=ORIENTED_EDGE('',*,*,#200,.T.);
#270=ORIENTED_EDGE('',*,*,#196,.T.);
#271=ORIENTED_EDGE('',*,*,#200,.F.);
#272=ORIENTED_EDGE('',*,*,#198,.F.);
#273=ORIENTED_EDGE('',*,*,#199,.F.);
#274=ORIENTED_EDGE('',*,*,#201,.T.);
#275=ORIENTED_EDGE('',*,*,#202,.F.);
#276=ORIENTED_EDGE('',*,*,#203,.F.);
#277=ORIENTED_EDGE('',*,*,#201,.F.);
#278=ORIENTED_EDGE('',*,*,#202,.T.);
#279=ORIENTED_EDGE('',*,*,#203,.T.);
#280=ORIENTED_EDGE('',*,*,#204,.T.);
#281=ORIENTED_EDGE('',*,*,#168,.T.);
#282=ORIENTED_EDGE('',*,*,#204,.F.);
#283=ORIENTED_EDGE('',*,*,#186,.T.);
#284=ORIENTED_EDGE('',*,*,#187,.T.);
#285=ORIENTED_EDGE('',*,*,#205,.T.);
#286=ORIENTED_EDGE('',*,*,#177,.F.);
#287=ORIENTED_EDGE('',*,*,#178,.F.);
#288=ORIENTED_EDGE('',*,*,#205,.F.);
#289=ORIENTED_EDGE('',*,*,#179,.T.);
#290=ORIENTED_EDGE('',*,*,#206,.T.);
#291=ORIENTED_EDGE('',*,*,#207,.F.);
#292=ORIENTED_EDGE('',*,*,#208,.F.);
#293=ORIENTED_EDGE('',*,*,#206,.F.);
#294=ORIENTED_EDGE('',*,*,#180,.T.);
#295=ORIENTED_EDGE('',*,*,#169,.F.);
#296=ORIENTED_EDGE('',*,*,#171,.F.);
#297=ORIENTED_EDGE('',*,*,#207,.T.);
#298=ORIENTED_EDGE('',*,*,#208,.T.);
#299=CONICAL_SURFACE('',#341,134.125,0.785398163397391);
#300=CONICAL_SURFACE('',#350,144.75,0.785398163397459);
#301=CONICAL_SURFACE('',#360,144.75,0.785398163397455);
#302=ADVANCED_FACE('',(#36),#299,.F.);
#303=ADVANCED_FACE('',(#37,#26),#31,.T.);
#304=ADVANCED_FACE('',(#38),#20,.F.);
#305=ADVANCED_FACE('',(#39),#300,.T.);
#306=ADVANCED_FACE('',(#40),#21,.T.);
#307=ADVANCED_FACE('',(#41,#27),#32,.T.);
#308=ADVANCED_FACE('',(#42),#301,.T.);
#309=ADVANCED_FACE('',(#43,#28),#33,.T.);
#310=ADVANCED_FACE('',(#44),#22,.T.);
#311=ADVANCED_FACE('',(#45),#15,.F.);
#312=ADVANCED_FACE('',(#46),#23,.F.);
#313=ADVANCED_FACE('',(#47,#29),#34,.T.);
#314=ADVANCED_FACE('',(#48),#16,.T.);
#315=ADVANCED_FACE('',(#49),#17,.F.);
#316=ADVANCED_FACE('',(#50),#24,.T.);
#317=ADVANCED_FACE('',(#51),#18,.T.);
#318=ADVANCED_FACE('',(#52),#19,.F.);
#319=ADVANCED_FACE('',(#53),#25,.F.);
#320=ADVANCED_FACE('',(#54,#30),#35,.T.);
#321=CLOSED_SHELL('',(#302,#303,#304,#305,#306,#307,#308,#309,#310,#311,
#312,#313,#314,#315,#316,#317,#318,#319,#320));
#322=DERIVED_UNIT_ELEMENT(#324,1.);
#323=DERIVED_UNIT_ELEMENT(#618,3.);
#324=(
MASS_UNIT()
NAMED_UNIT(*)
SI_UNIT($,.GRAM.)
);
#325=DERIVED_UNIT((#322,#323));
#326=MEASURE_REPRESENTATION_ITEM('density measure',
POSITIVE_RATIO_MEASURE(8.),#325);
#327=PROPERTY_DEFINITION_REPRESENTATION(#332,#329);
#328=PROPERTY_DEFINITION_REPRESENTATION(#333,#330);
#329=REPRESENTATION('material name',(#331),#615);
#330=REPRESENTATION('density',(#326),#615);
#331=DESCRIPTIVE_REPRESENTATION_ITEM('Stainless Steel, Austenitic',
'Stainless Steel, Austenitic');
#332=PROPERTY_DEFINITION('material property','material name',#625);
#333=PROPERTY_DEFINITION('material property','density of part',#625);
#334=DATE_TIME_ROLE('creation_date');
#335=APPLIED_DATE_AND_TIME_ASSIGNMENT(#336,#334,(#625));
#336=DATE_AND_TIME(#337,#338);
#337=CALENDAR_DATE(2014,14,8);
#338=LOCAL_TIME(15,10,58.,#339);
#339=COORDINATED_UNIVERSAL_TIME_OFFSET(0,0,.BEHIND.);
#340=AXIS2_PLACEMENT_3D('placement',#517,#396,#397);
#341=AXIS2_PLACEMENT_3D('',#518,#398,#399);
#342=AXIS2_PLACEMENT_3D('',#520,#400,#401);
#343=AXIS2_PLACEMENT_3D('',#524,#403,#404);
#344=AXIS2_PLACEMENT_3D('',#525,#405,#406);
#345=AXIS2_PLACEMENT_3D('',#526,#407,#408);
#346=AXIS2_PLACEMENT_3D('',#528,#409,#410);
#347=AXIS2_PLACEMENT_3D('',#529,#411,#412);
#348=AXIS2_PLACEMENT_3D('',#532,#413,#414);
#349=AXIS2_PLACEMENT_3D('',#534,#416,#417);
#350=AXIS2_PLACEMENT_3D('',#535,#418,#419);
#351=AXIS2_PLACEMENT_3D('',#537,#420,#421);
#352=AXIS2_PLACEMENT_3D('',#541,#423,#424);
#353=AXIS2_PLACEMENT_3D('',#542,#425,#426);
#354=AXIS2_PLACEMENT_3D('',#543,#427,#428);
#355=AXIS2_PLACEMENT_3D('',#547,#430,#431);
#356=AXIS2_PLACEMENT_3D('',#548,#432,#433);
#357=AXIS2_PLACEMENT_3D('',#549,#434,#435);
#358=AXIS2_PLACEMENT_3D('',#552,#436,#437);
#359=AXIS2_PLACEMENT_3D('',#553,#438,#439);
#360=AXIS2_PLACEMENT_3D('',#554,#440,#441);
#361=AXIS2_PLACEMENT_3D('',#557,#442,#443);
#362=AXIS2_PLACEMENT_3D('',#558,#444,#445);
#363=AXIS2_PLACEMENT_3D('',#561,#447,#448);
#364=AXIS2_PLACEMENT_3D('',#562,#449,#450);
#365=AXIS2_PLACEMENT_3D('',#564,#451,#452);
#366=AXIS2_PLACEMENT_3D('',#565,#453,#454);
#367=AXIS2_PLACEMENT_3D('',#568,#455,#456);
#368=AXIS2_PLACEMENT_3D('',#569,#457,#458);
#369=AXIS2_PLACEMENT_3D('',#571,#460,#461);
#370=AXIS2_PLACEMENT_3D('',#573,#462,#463);
#371=AXIS2_PLACEMENT_3D('',#575,#464,#465);
#372=AXIS2_PLACEMENT_3D('',#577,#466,#467);
#373=AXIS2_PLACEMENT_3D('',#578,#468,#469);
#374=AXIS2_PLACEMENT_3D('',#579,#470,#471);
#375=AXIS2_PLACEMENT_3D('',#583,#473,#474);
#376=AXIS2_PLACEMENT_3D('',#584,#475,#476);
#377=AXIS2_PLACEMENT_3D('',#585,#477,#478);
#378=AXIS2_PLACEMENT_3D('',#587,#479,#480);
#379=AXIS2_PLACEMENT_3D('',#588,#481,#482);
#380=AXIS2_PLACEMENT_3D('',#589,#483,#484);
#381=AXIS2_PLACEMENT_3D('',#590,#485,#486);
#382=AXIS2_PLACEMENT_3D('',#593,#487,#488);
#383=AXIS2_PLACEMENT_3D('',#594,#489,#490);
#384=AXIS2_PLACEMENT_3D('',#595,#491,#492);
#385=AXIS2_PLACEMENT_3D('',#596,#493,#494);
#386=AXIS2_PLACEMENT_3D('',#600,#496,#497);
#387=AXIS2_PLACEMENT_3D('',#601,#498,#499);
#388=AXIS2_PLACEMENT_3D('',#602,#500,#501);
#389=AXIS2_PLACEMENT_3D('',#603,#502,#503);
#390=AXIS2_PLACEMENT_3D('',#604,#504,#505);
#391=AXIS2_PLACEMENT_3D('',#605,#506,#507);
#392=AXIS2_PLACEMENT_3D('',#606,#508,#509);
#393=AXIS2_PLACEMENT_3D('',#610,#511,#512);
#394=AXIS2_PLACEMENT_3D('',#611,#513,#514);
#395=AXIS2_PLACEMENT_3D('',#612,#515,#516);
#396=DIRECTION('axis',(0.,0.,1.));
#397=DIRECTION('refdir',(1.,0.,0.));
#398=DIRECTION('center_axis',(-1.,0.,0.));
#399=DIRECTION('ref_axis',(0.,0.,-1.));
#400=DIRECTION('center_axis',(-1.,0.,0.));
#401=DIRECTION('ref_axis',(0.,0.,-1.));
#402=DIRECTION('',(0.707106781186588,-8.65956056235443E-17,-0.707106781186507));
#403=DIRECTION('center_axis',(1.,0.,0.));
#404=DIRECTION('ref_axis',(0.,0.,-1.));
#405=DIRECTION('center_axis',(1.,0.,0.));
#406=DIRECTION('ref_axis',(0.,0.,-1.));
#407=DIRECTION('center_axis',(-1.,0.,0.));
#408=DIRECTION('ref_axis',(0.,0.,1.));
#409=DIRECTION('center_axis',(1.,0.,0.));
#410=DIRECTION('ref_axis',(0.,0.,-1.));
#411=DIRECTION('center_axis',(1.,0.,0.));
#412=DIRECTION('ref_axis',(0.,0.,1.));
#413=DIRECTION('center_axis',(1.,0.,0.));
#414=DIRECTION('ref_axis',(0.,0.,-1.));
#415=DIRECTION('',(-1.,0.,0.));
#416=DIRECTION('center_axis',(1.,0.,0.));
#417=DIRECTION('ref_axis',(0.,0.,-1.));
#418=DIRECTION('center_axis',(-1.,0.,0.));
#419=DIRECTION('ref_axis',(0.,0.,-1.));
#420=DIRECTION('center_axis',(-1.,0.,0.));
#421=DIRECTION('ref_axis',(0.,0.,-1.));
#422=DIRECTION('',(-0.70710678118654,-8.65956056235503E-17,0.707106781186555));
#423=DIRECTION('center_axis',(1.,0.,0.));
#424=DIRECTION('ref_axis',(0.,0.,-1.));
#425=DIRECTION('center_axis',(1.,0.,0.));
#426=DIRECTION('ref_axis',(0.,0.,-1.));
#427=DIRECTION('center_axis',(1.,0.,0.));
#428=DIRECTION('ref_axis',(0.,0.,1.));
#429=DIRECTION('',(-1.,0.,0.));
#430=DIRECTION('center_axis',(1.,0.,0.));
#431=DIRECTION('ref_axis',(0.,0.,-1.));
#432=DIRECTION('center_axis',(1.,0.,0.));
#433=DIRECTION('ref_axis',(0.,0.,-1.));
#434=DIRECTION('center_axis',(1.,0.,0.));
#435=DIRECTION('ref_axis',(0.,0.,-1.));
#436=DIRECTION('center_axis',(1.,0.,0.));
#437=DIRECTION('ref_axis',(0.,0.,-1.));
#438=DIRECTION('center_axis',(1.,0.,0.));
#439=DIRECTION('ref_axis',(0.,0.,-1.));
#440=DIRECTION('center_axis',(1.,0.,0.));
#441=DIRECTION('ref_axis',(0.,0.,-1.));
#442=DIRECTION('center_axis',(-1.,0.,0.));
#443=DIRECTION('ref_axis',(0.,0.,-1.));
#444=DIRECTION('center_axis',(-1.,0.,0.));
#445=DIRECTION('ref_axis',(0.,0.,-1.));
#446=DIRECTION('',(-0.707106781186542,8.65956056235499E-17,-0.707106781186553));
#447=DIRECTION('center_axis',(1.,0.,0.));
#448=DIRECTION('ref_axis',(0.,0.,-1.));
#449=DIRECTION('center_axis',(-1.,0.,0.));
#450=DIRECTION('ref_axis',(0.,0.,1.));
#451=DIRECTION('center_axis',(-1.,0.,0.));
#452=DIRECTION('ref_axis',(0.,0.,-1.));
#453=DIRECTION('center_axis',(1.,0.,0.));
#454=DIRECTION('ref_axis',(0.,0.,1.));
#455=DIRECTION('center_axis',(1.,0.,0.));
#456=DIRECTION('ref_axis',(0.,0.,-1.));
#457=DIRECTION('center_axis',(1.,0.,0.));
#458=DIRECTION('ref_axis',(0.,0.,-1.));
#459=DIRECTION('',(-1.,0.,0.));
#460=DIRECTION('center_axis',(1.,0.,0.));
#461=DIRECTION('ref_axis',(0.,0.,-1.));
#462=DIRECTION('center_axis',(1.,0.,0.));
#463=DIRECTION('ref_axis',(0.,0.,-1.));
#464=DIRECTION('center_axis',(0.,-1.,-1.22464679914735E-16));
#465=DIRECTION('ref_axis',(0.,-1.22464679914735E-16,1.));
#466=DIRECTION('center_axis',(-1.,0.,0.));
#467=DIRECTION('ref_axis',(0.,0.,-1.));
#468=DIRECTION('center_axis',(-1.,0.,0.));
#469=DIRECTION('ref_axis',(0.,0.,-1.));
#470=DIRECTION('center_axis',(1.,0.,0.));
#471=DIRECTION('ref_axis',(0.,0.,1.));
#472=DIRECTION('',(-1.,0.,0.));
#473=DIRECTION('center_axis',(1.,0.,0.));
#474=DIRECTION('ref_axis',(0.,0.,-1.));
#475=DIRECTION('center_axis',(1.,0.,0.));
#476=DIRECTION('ref_axis',(0.,0.,-1.));
#477=DIRECTION('center_axis',(-1.,0.,0.));
#478=DIRECTION('ref_axis',(0.,0.,1.));
#479=DIRECTION('center_axis',(-1.,0.,0.));
#480=DIRECTION('ref_axis',(0.,0.,-1.));
#481=DIRECTION('center_axis',(1.,0.,0.));
#482=DIRECTION('ref_axis',(0.,0.,-1.));
#483=DIRECTION('center_axis',(0.,-1.,-1.22464679914735E-16));
#484=DIRECTION('ref_axis',(0.,-1.22464679914735E-16,1.));
#485=DIRECTION('center_axis',(1.,0.,0.));
#486=DIRECTION('ref_axis',(0.,0.,-1.));
#487=DIRECTION('center_axis',(1.,0.,0.));
#488=DIRECTION('ref_axis',(0.,0.,-1.));
#489=DIRECTION('center_axis',(1.,0.,0.));
#490=DIRECTION('ref_axis',(0.,0.,-1.));
#491=DIRECTION('center_axis',(0.,-1.,-1.22464679914735E-16));
#492=DIRECTION('ref_axis',(0.,-1.22464679914735E-16,1.));
#493=DIRECTION('center_axis',(1.,0.,0.));
#494=DIRECTION('ref_axis',(0.,0.,1.));
#495=DIRECTION('',(-1.,0.,0.));
#496=DIRECTION('center_axis',(-1.,0.,0.));
#497=DIRECTION('ref_axis',(0.,0.,-1.));
#498=DIRECTION('center_axis',(-1.,0.,0.));
#499=DIRECTION('ref_axis',(0.,0.,-1.));
#500=DIRECTION('center_axis',(1.,0.,0.));
#501=DIRECTION('ref_axis',(0.,0.,-1.));
#502=DIRECTION('center_axis',(0.,-1.,-1.22464679914735E-16));
#503=DIRECTION('ref_axis',(0.,-1.22464679914735E-16,1.));
#504=DIRECTION('center_axis',(1.,0.,0.));
#505=DIRECTION('ref_axis',(0.,0.,-1.));
#506=DIRECTION('center_axis',(0.,-1.,-1.22464679914735E-16));
#507=DIRECTION('ref_axis',(0.,-1.22464679914735E-16,1.));
#508=DIRECTION('center_axis',(1.,0.,0.));
#509=DIRECTION('ref_axis',(0.,0.,1.));
#510=DIRECTION('',(-1.,0.,0.));
#511=DIRECTION('center_axis',(1.,0.,0.));
#512=DIRECTION('ref_axis',(0.,0.,-1.));
#513=DIRECTION('center_axis',(1.,0.,0.));
#514=DIRECTION('ref_axis',(0.,0.,-1.));
#515=DIRECTION('center_axis',(-1.,0.,0.));
#516=DIRECTION('ref_axis',(0.,0.,1.));
#517=CARTESIAN_POINT('',(0.,0.,0.));
#518=CARTESIAN_POINT('Origin',(0.125000000000016,0.,0.));
#519=CARTESIAN_POINT('',(0.,1.64408832785532E-14,134.25));
#520=CARTESIAN_POINT('Origin',(0.,0.,0.));
#521=CARTESIAN_POINT('',(0.250000000000032,-1.64102671085745E-14,134.));
#522=CARTESIAN_POINT('',(0.125000000000016,1.64255751935639E-14,134.125));
#523=CARTESIAN_POINT('',(0.250000000000032,1.64102671085745E-14,-134.));
#524=CARTESIAN_POINT('Origin',(0.250000000000032,0.,0.));
#525=CARTESIAN_POINT('Origin',(0.250000000000032,0.,0.));
#526=CARTESIAN_POINT('Origin',(-3.94430452610506E-30,0.,137.5));
#527=CARTESIAN_POINT('',(0.,-1.67776611483187E-14,137.));
#528=CARTESIAN_POINT('Origin',(0.,0.,0.));
#529=CARTESIAN_POINT('Origin',(3.8,0.,0.));
#530=CARTESIAN_POINT('',(7.59999999999997,0.,134.));
#531=CARTESIAN_POINT('',(7.59999999999997,1.64102671085745E-14,-134.));
#532=CARTESIAN_POINT('Origin',(7.59999999999997,0.,0.));
#533=CARTESIAN_POINT('',(3.8,1.64102671085745E-14,-134.));
#534=CARTESIAN_POINT('Origin',(7.59999999999997,0.,0.));
#535=CARTESIAN_POINT('Origin',(11.75,0.,0.));
#536=CARTESIAN_POINT('',(12.,1.76961462476793E-14,144.5));
#537=CARTESIAN_POINT('Origin',(12.,0.,0.));
#538=CARTESIAN_POINT('',(11.5,-1.77573785876366E-14,145.));
#539=CARTESIAN_POINT('',(11.75,-1.77267624176579E-14,144.75));
#540=CARTESIAN_POINT('',(11.5,1.77573785876366E-14,-145.));
#541=CARTESIAN_POINT('Origin',(11.5,0.,0.));
#542=CARTESIAN_POINT('Origin',(11.5,0.,0.));
#543=CARTESIAN_POINT('Origin',(10.75,0.,0.));
#544=CARTESIAN_POINT('',(9.5,1.77573785876366E-14,-145.));
#545=CARTESIAN_POINT('',(10.75,1.77573785876366E-14,-145.));
#546=CARTESIAN_POINT('',(9.5,0.,145.));
#547=CARTESIAN_POINT('Origin',(9.5,0.,0.));
#548=CARTESIAN_POINT('Origin',(9.5,0.,0.));
#549=CARTESIAN_POINT('Origin',(12.,0.,130.5));
#550=CARTESIAN_POINT('',(12.,0.,130.5));
#551=CARTESIAN_POINT('',(12.,1.5981640728873E-14,-130.5));
#552=CARTESIAN_POINT('Origin',(12.,0.,0.));
#553=CARTESIAN_POINT('Origin',(12.,0.,0.));
#554=CARTESIAN_POINT('Origin',(0.25,0.,0.));
#555=CARTESIAN_POINT('',(0.5,1.77573785876366E-14,145.));
#556=CARTESIAN_POINT('',(0.5,1.77573785876366E-14,-145.));
#557=CARTESIAN_POINT('Origin',(0.5,0.,0.));
#558=CARTESIAN_POINT('Origin',(0.5,0.,0.));
#559=CARTESIAN_POINT('',(0.,-1.76961462476793E-14,144.5));
#560=CARTESIAN_POINT('',(0.25,-1.77267624176579E-14,144.75));
#561=CARTESIAN_POINT('Origin',(0.,0.,0.));
#562=CARTESIAN_POINT('Origin',(0.,0.,145.));
#563=CARTESIAN_POINT('',(0.,1.75124492278072E-14,143.));
#564=CARTESIAN_POINT('Origin',(0.,0.,0.));
#565=CARTESIAN_POINT('Origin',(2.25,0.,0.));
#566=CARTESIAN_POINT('',(4.50000000000001,0.,145.));
#567=CARTESIAN_POINT('',(4.50000000000001,1.77573785876366E-14,-145.));
#568=CARTESIAN_POINT('Origin',(4.50000000000001,0.,0.));
#569=CARTESIAN_POINT('Origin',(4.50000000000001,0.,0.));
#570=CARTESIAN_POINT('',(2.25,1.77573785876366E-14,-145.));
#571=CARTESIAN_POINT('Origin',(1.5,0.,0.));
#572=CARTESIAN_POINT('',(2.,-1.73899845478924E-14,142.));
#573=CARTESIAN_POINT('Origin',(2.,0.,0.));
#574=CARTESIAN_POINT('',(1.5,1.74512168878498E-14,142.5));
#575=CARTESIAN_POINT('Origin',(1.5,-1.73899845478924E-14,142.));
#576=CARTESIAN_POINT('',(1.5,1.74512168878498E-14,-142.5));
#577=CARTESIAN_POINT('Origin',(1.5,0.,0.));
#578=CARTESIAN_POINT('Origin',(1.5,0.,0.));
#579=CARTESIAN_POINT('Origin',(1.,0.,0.));
#580=CARTESIAN_POINT('',(0.5,1.74512168878498E-14,-142.5));
#581=CARTESIAN_POINT('',(1.,1.74512168878498E-14,-142.5));
#582=CARTESIAN_POINT('',(0.5,-1.74512168878498E-14,142.5));
#583=CARTESIAN_POINT('Origin',(0.5,0.,0.));
#584=CARTESIAN_POINT('Origin',(0.5,0.,0.));
#585=CARTESIAN_POINT('Origin',(2.,0.,142.5));
#586=CARTESIAN_POINT('',(2.,1.69001258282335E-14,138.));
#587=CARTESIAN_POINT('Origin',(2.,0.,0.));
#588=CARTESIAN_POINT('Origin',(0.5,0.,0.));
#589=CARTESIAN_POINT('Origin',(0.5,-1.75124492278072E-14,143.));
#590=CARTESIAN_POINT('Origin',(1.5,0.,0.));
#591=CARTESIAN_POINT('',(1.5,-1.68388934882761E-14,137.5));
#592=CARTESIAN_POINT('',(1.5,1.68388934882761E-14,-137.5));
#593=CARTESIAN_POINT('Origin',(1.5,0.,0.));
#594=CARTESIAN_POINT('Origin',(1.5,0.,0.));
#595=CARTESIAN_POINT('Origin',(1.5,-1.69001258282335E-14,138.));
#596=CARTESIAN_POINT('Origin',(1.,0.,0.));
#597=CARTESIAN_POINT('',(0.5,1.68388934882761E-14,-137.5));
#598=CARTESIAN_POINT('',(1.,1.68388934882761E-14,-137.5));
#599=CARTESIAN_POINT('',(0.5,1.68388934882761E-14,137.5));
#600=CARTESIAN_POINT('Origin',(0.5,0.,0.));
#601=CARTESIAN_POINT('Origin',(0.5,0.,0.));
#602=CARTESIAN_POINT('Origin',(0.5,0.,0.));
#603=CARTESIAN_POINT('Origin',(0.5,-1.67776611483187E-14,137.));
#604=CARTESIAN_POINT('Origin',(7.,0.,0.));
#605=CARTESIAN_POINT('Origin',(7.,-1.77573785876366E-14,145.));
#606=CARTESIAN_POINT('Origin',(9.79999999999998,0.,0.));
#607=CARTESIAN_POINT('',(7.59999999999997,1.5981640728873E-14,-130.5));
#608=CARTESIAN_POINT('',(9.79999999999998,1.5981640728873E-14,-130.5));
#609=CARTESIAN_POINT('',(7.59999999999997,0.,130.5));
#610=CARTESIAN_POINT('Origin',(7.59999999999997,0.,0.));
#611=CARTESIAN_POINT('Origin',(7.59999999999997,0.,0.));
#612=CARTESIAN_POINT('Origin',(7.59999999999997,0.,134.));
#613=UNCERTAINTY_MEASURE_WITH_UNIT(LENGTH_MEASURE(0.01),#617,
'DISTANCE_ACCURACY_VALUE',
'Maximum model space distance between geometric entities at asserted c
onnectivities');
#614=UNCERTAINTY_MEASURE_WITH_UNIT(LENGTH_MEASURE(0.01),#617,
'DISTANCE_ACCURACY_VALUE',
'Maximum model space distance between geometric entities at asserted c
onnectivities');
#615=(
GEOMETRIC_REPRESENTATION_CONTEXT(3)
GLOBAL_UNCERTAINTY_ASSIGNED_CONTEXT((#613))
GLOBAL_UNIT_ASSIGNED_CONTEXT((#617,#620,#619))
REPRESENTATION_CONTEXT('','3D')
);
#616=(
GEOMETRIC_REPRESENTATION_CONTEXT(3)
GLOBAL_UNCERTAINTY_ASSIGNED_CONTEXT((#614))
GLOBAL_UNIT_ASSIGNED_CONTEXT((#617,#620,#619))
REPRESENTATION_CONTEXT('','3D')
);
#617=(
LENGTH_UNIT()
NAMED_UNIT(*)
SI_UNIT(.MILLI.,.METRE.)
);
#618=(
LENGTH_UNIT()
NAMED_UNIT(*)
SI_UNIT(.CENTI.,.METRE.)
);
#619=(
NAMED_UNIT(*)
SI_UNIT($,.STERADIAN.)
SOLID_ANGLE_UNIT()
);
#620=(
NAMED_UNIT(*)
PLANE_ANGLE_UNIT()
SI_UNIT($,.RADIAN.)
);
#621=SHAPE_DEFINITION_REPRESENTATION(#622,#623);
#622=PRODUCT_DEFINITION_SHAPE('',$,#625);
#623=SHAPE_REPRESENTATION('',(#340),#615);
#624=PRODUCT_DEFINITION_CONTEXT('part definition',#629,'design');
#625=PRODUCT_DEFINITION('FL-250LF-W267','FL-250LF-W267',#626,#624);
#626=PRODUCT_DEFINITION_FORMATION('',$,#631);
#627=PRODUCT_RELATED_PRODUCT_CATEGORY('FL-250LF-W267','FL-250LF-W267',(#631));
#628=APPLICATION_PROTOCOL_DEFINITION('international standard',
'automotive_design',2009,#629);
#629=APPLICATION_CONTEXT(
'Core Data for Automotive Mechanical Design Process');
#630=PRODUCT_CONTEXT('part definition',#629,'mechanical');
#631=PRODUCT('FL-250LF-W267','FL-250LF-W267',$,(#630));
#632=PRESENTATION_STYLE_ASSIGNMENT((#633));
#633=SURFACE_STYLE_USAGE(.BOTH.,#634);
#634=SURFACE_SIDE_STYLE('',(#635));
#635=SURFACE_STYLE_FILL_AREA(#636);
#636=FILL_AREA_STYLE('',(#637));
#637=FILL_AREA_STYLE_COLOUR('',#638);
#638=COLOUR_RGB('',0.745098039215686,0.737254901960784,0.729411764705882);
ENDSEC;
END-ISO-10303-21;
