ISO-10303-21;
HEADER;
/* Generated by software containing ST-Developer
 * from STEP Tools, Inc. (www.steptools.com) 
 */

FILE_DESCRIPTION(
/* description */ (''),
/* implementation_level */ '2;1');

FILE_NAME(
/* name */ 'G:\\FLANGES & FITTINGS\\NW250LF\\Step files\\FL-250LF-W.st
p',
/* time_stamp */ '2018-07-12T12:15:16+01:00',
/* author */ ('paul'),
/* organization */ (''),
/* preprocessor_version */ 'ST-DEVELOPER v17',
/* originating_system */ 'Autodesk Inventor 2019',
/* authorisation */ '');

FILE_SCHEMA (('AUTOMOTIVE_DESIGN { 1 0 10303 214 3 1 1 }'));
ENDSEC;

DATA;
#10=MECHANICAL_DESIGN_GEOMETRIC_PRESENTATION_REPRESENTATION('',(#13),#681);
#11=SHAPE_REPRESENTATION_RELATIONSHIP('SRR','None',#688,#12);
#12=ADVANCED_BREP_SHAPE_REPRESENTATION('',(#14),#680);
#13=STYLED_ITEM('',(#697),#14);
#14=MANIFOLD_SOLID_BREP('Solid1',#356);
#15=TOROIDAL_SURFACE('',#404,142.,0.5);
#16=TOROIDAL_SURFACE('',#414,143.,0.5);
#17=TOROIDAL_SURFACE('',#416,138.,0.5);
#18=TOROIDAL_SURFACE('',#423,137.,0.5);
#19=TOROIDAL_SURFACE('',#425,145.,2.49999999999999);
#20=CYLINDRICAL_SURFACE('',#382,127.5);
#21=CYLINDRICAL_SURFACE('',#389,145.);
#22=CYLINDRICAL_SURFACE('',#401,145.);
#23=CYLINDRICAL_SURFACE('',#409,142.5);
#24=CYLINDRICAL_SURFACE('',#420,137.5);
#25=CYLINDRICAL_SURFACE('',#427,130.5);
#26=CYLINDRICAL_SURFACE('',#433,125.);
#27=FACE_BOUND('',#62,.T.);
#28=FACE_BOUND('',#67,.T.);
#29=FACE_BOUND('',#70,.T.);
#30=FACE_BOUND('',#75,.T.);
#31=FACE_BOUND('',#83,.T.);
#32=FACE_BOUND('',#86,.T.);
#33=PLANE('',#380);
#34=PLANE('',#392);
#35=PLANE('',#399);
#36=PLANE('',#412);
#37=PLANE('',#430);
#38=PLANE('',#436);
#39=FACE_OUTER_BOUND('',#60,.T.);
#40=FACE_OUTER_BOUND('',#61,.T.);
#41=FACE_OUTER_BOUND('',#63,.T.);
#42=FACE_OUTER_BOUND('',#64,.T.);
#43=FACE_OUTER_BOUND('',#65,.T.);
#44=FACE_OUTER_BOUND('',#66,.T.);
#45=FACE_OUTER_BOUND('',#68,.T.);
#46=FACE_OUTER_BOUND('',#69,.T.);
#47=FACE_OUTER_BOUND('',#71,.T.);
#48=FACE_OUTER_BOUND('',#72,.T.);
#49=FACE_OUTER_BOUND('',#73,.T.);
#50=FACE_OUTER_BOUND('',#74,.T.);
#51=FACE_OUTER_BOUND('',#76,.T.);
#52=FACE_OUTER_BOUND('',#77,.T.);
#53=FACE_OUTER_BOUND('',#78,.T.);
#54=FACE_OUTER_BOUND('',#79,.T.);
#55=FACE_OUTER_BOUND('',#80,.T.);
#56=FACE_OUTER_BOUND('',#81,.T.);
#57=FACE_OUTER_BOUND('',#82,.T.);
#58=FACE_OUTER_BOUND('',#84,.T.);
#59=FACE_OUTER_BOUND('',#85,.T.);
#60=EDGE_LOOP('',(#232,#233,#234,#235,#236));
#61=EDGE_LOOP('',(#237));
#62=EDGE_LOOP('',(#238));
#63=EDGE_LOOP('',(#239,#240,#241,#242,#243,#244));
#64=EDGE_LOOP('',(#245,#246,#247,#248,#249));
#65=EDGE_LOOP('',(#250,#251,#252,#253,#254,#255));
#66=EDGE_LOOP('',(#256));
#67=EDGE_LOOP('',(#257,#258));
#68=EDGE_LOOP('',(#259,#260,#261,#262,#263));
#69=EDGE_LOOP('',(#264));
#70=EDGE_LOOP('',(#265));
#71=EDGE_LOOP('',(#266,#267,#268,#269,#270,#271));
#72=EDGE_LOOP('',(#272,#273,#274,#275,#276));
#73=EDGE_LOOP('',(#277,#278,#279,#280,#281,#282));
#74=EDGE_LOOP('',(#283));
#75=EDGE_LOOP('',(#284));
#76=EDGE_LOOP('',(#285,#286,#287,#288,#289));
#77=EDGE_LOOP('',(#290,#291,#292,#293,#294));
#78=EDGE_LOOP('',(#295,#296,#297,#298,#299,#300));
#79=EDGE_LOOP('',(#301,#302,#303,#304,#305));
#80=EDGE_LOOP('',(#306,#307,#308,#309,#310,#311));
#81=EDGE_LOOP('',(#312,#313,#314,#315,#316,#317));
#82=EDGE_LOOP('',(#318,#319));
#83=EDGE_LOOP('',(#320,#321));
#84=EDGE_LOOP('',(#322,#323,#324,#325,#326,#327));
#85=EDGE_LOOP('',(#328,#329));
#86=EDGE_LOOP('',(#330,#331));
#87=LINE('',#576,#97);
#88=LINE('',#587,#98);
#89=LINE('',#593,#99);
#90=LINE('',#599,#100);
#91=LINE('',#614,#101);
#92=LINE('',#624,#102);
#93=LINE('',#635,#103);
#94=LINE('',#652,#104);
#95=LINE('',#662,#105);
#96=LINE('',#673,#106);
#97=VECTOR('',#443,127.625);
#98=VECTOR('',#456,127.5);
#99=VECTOR('',#463,144.75);
#100=VECTOR('',#470,145.);
#101=VECTOR('',#487,144.75);
#102=VECTOR('',#500,145.);
#103=VECTOR('',#513,142.5);
#104=VECTOR('',#536,137.5);
#105=VECTOR('',#551,130.5);
#106=VECTOR('',#564,125.);
#107=CIRCLE('',#377,127.75);
#108=CIRCLE('',#378,127.5);
#109=CIRCLE('',#379,127.5);
#110=CIRCLE('',#381,137.);
#111=CIRCLE('',#383,127.5);
#112=CIRCLE('',#384,127.5);
#113=CIRCLE('',#386,144.5);
#114=CIRCLE('',#387,145.);
#115=CIRCLE('',#388,145.);
#116=CIRCLE('',#390,145.);
#117=CIRCLE('',#391,145.);
#118=CIRCLE('',#393,130.5);
#119=CIRCLE('',#394,130.5);
#120=CIRCLE('',#396,145.);
#121=CIRCLE('',#397,145.);
#122=CIRCLE('',#398,144.5);
#123=CIRCLE('',#400,143.);
#124=CIRCLE('',#402,145.);
#125=CIRCLE('',#403,145.);
#126=CIRCLE('',#405,142.);
#127=CIRCLE('',#406,0.5);
#128=CIRCLE('',#407,142.5);
#129=CIRCLE('',#408,142.5);
#130=CIRCLE('',#410,142.5);
#131=CIRCLE('',#411,142.5);
#132=CIRCLE('',#413,138.);
#133=CIRCLE('',#415,0.5);
#134=CIRCLE('',#417,137.5);
#135=CIRCLE('',#418,137.5);
#136=CIRCLE('',#419,0.5);
#137=CIRCLE('',#421,137.5);
#138=CIRCLE('',#422,137.5);
#139=CIRCLE('',#424,0.5);
#140=CIRCLE('',#426,2.49999999999999);
#141=CIRCLE('',#428,130.5);
#142=CIRCLE('',#429,130.5);
#143=CIRCLE('',#431,125.);
#144=CIRCLE('',#432,125.);
#145=CIRCLE('',#434,125.);
#146=CIRCLE('',#435,125.);
#147=VERTEX_POINT('',#573);
#148=VERTEX_POINT('',#575);
#149=VERTEX_POINT('',#577);
#150=VERTEX_POINT('',#581);
#151=VERTEX_POINT('',#584);
#152=VERTEX_POINT('',#585);
#153=VERTEX_POINT('',#590);
#154=VERTEX_POINT('',#592);
#155=VERTEX_POINT('',#594);
#156=VERTEX_POINT('',#598);
#157=VERTEX_POINT('',#600);
#158=VERTEX_POINT('',#604);
#159=VERTEX_POINT('',#605);
#160=VERTEX_POINT('',#609);
#161=VERTEX_POINT('',#610);
#162=VERTEX_POINT('',#613);
#163=VERTEX_POINT('',#617);
#164=VERTEX_POINT('',#620);
#165=VERTEX_POINT('',#621);
#166=VERTEX_POINT('',#626);
#167=VERTEX_POINT('',#628);
#168=VERTEX_POINT('',#630);
#169=VERTEX_POINT('',#634);
#170=VERTEX_POINT('',#636);
#171=VERTEX_POINT('',#640);
#172=VERTEX_POINT('',#645);
#173=VERTEX_POINT('',#646);
#174=VERTEX_POINT('',#651);
#175=VERTEX_POINT('',#653);
#176=VERTEX_POINT('',#661);
#177=VERTEX_POINT('',#663);
#178=VERTEX_POINT('',#667);
#179=VERTEX_POINT('',#668);
#180=VERTEX_POINT('',#672);
#181=VERTEX_POINT('',#674);
#182=EDGE_CURVE('',#147,#147,#107,.T.);
#183=EDGE_CURVE('',#147,#148,#87,.T.);
#184=EDGE_CURVE('',#148,#149,#108,.T.);
#185=EDGE_CURVE('',#149,#148,#109,.T.);
#186=EDGE_CURVE('',#150,#150,#110,.T.);
#187=EDGE_CURVE('',#151,#152,#111,.T.);
#188=EDGE_CURVE('',#152,#149,#88,.T.);
#189=EDGE_CURVE('',#152,#151,#112,.T.);
#190=EDGE_CURVE('',#153,#153,#113,.T.);
#191=EDGE_CURVE('',#153,#154,#89,.T.);
#192=EDGE_CURVE('',#154,#155,#114,.T.);
#193=EDGE_CURVE('',#155,#154,#115,.T.);
#194=EDGE_CURVE('',#155,#156,#90,.T.);
#195=EDGE_CURVE('',#156,#157,#116,.T.);
#196=EDGE_CURVE('',#157,#156,#117,.T.);
#197=EDGE_CURVE('',#158,#159,#118,.T.);
#198=EDGE_CURVE('',#159,#158,#119,.T.);
#199=EDGE_CURVE('',#160,#161,#120,.T.);
#200=EDGE_CURVE('',#161,#160,#121,.T.);
#201=EDGE_CURVE('',#160,#162,#91,.T.);
#202=EDGE_CURVE('',#162,#162,#122,.T.);
#203=EDGE_CURVE('',#163,#163,#123,.T.);
#204=EDGE_CURVE('',#164,#165,#124,.T.);
#205=EDGE_CURVE('',#165,#164,#125,.T.);
#206=EDGE_CURVE('',#165,#161,#92,.T.);
#207=EDGE_CURVE('',#166,#166,#126,.T.);
#208=EDGE_CURVE('',#166,#167,#127,.T.);
#209=EDGE_CURVE('',#167,#168,#128,.T.);
#210=EDGE_CURVE('',#168,#167,#129,.T.);
#211=EDGE_CURVE('',#168,#169,#93,.T.);
#212=EDGE_CURVE('',#170,#169,#130,.T.);
#213=EDGE_CURVE('',#169,#170,#131,.T.);
#214=EDGE_CURVE('',#171,#171,#132,.T.);
#215=EDGE_CURVE('',#163,#170,#133,.T.);
#216=EDGE_CURVE('',#172,#173,#134,.T.);
#217=EDGE_CURVE('',#173,#172,#135,.T.);
#218=EDGE_CURVE('',#172,#171,#136,.T.);
#219=EDGE_CURVE('',#173,#174,#94,.T.);
#220=EDGE_CURVE('',#175,#174,#137,.T.);
#221=EDGE_CURVE('',#174,#175,#138,.T.);
#222=EDGE_CURVE('',#175,#150,#139,.T.);
#223=EDGE_CURVE('',#164,#157,#140,.T.);
#224=EDGE_CURVE('',#159,#176,#95,.T.);
#225=EDGE_CURVE('',#177,#176,#141,.T.);
#226=EDGE_CURVE('',#176,#177,#142,.T.);
#227=EDGE_CURVE('',#178,#179,#143,.T.);
#228=EDGE_CURVE('',#179,#178,#144,.T.);
#229=EDGE_CURVE('',#179,#180,#96,.T.);
#230=EDGE_CURVE('',#181,#180,#145,.T.);
#231=EDGE_CURVE('',#180,#181,#146,.T.);
#232=ORIENTED_EDGE('',*,*,#182,.T.);
#233=ORIENTED_EDGE('',*,*,#183,.T.);
#234=ORIENTED_EDGE('',*,*,#184,.T.);
#235=ORIENTED_EDGE('',*,*,#185,.T.);
#236=ORIENTED_EDGE('',*,*,#183,.F.);
#237=ORIENTED_EDGE('',*,*,#186,.F.);
#238=ORIENTED_EDGE('',*,*,#182,.F.);
#239=ORIENTED_EDGE('',*,*,#187,.T.);
#240=ORIENTED_EDGE('',*,*,#188,.T.);
#241=ORIENTED_EDGE('',*,*,#184,.F.);
#242=ORIENTED_EDGE('',*,*,#185,.F.);
#243=ORIENTED_EDGE('',*,*,#188,.F.);
#244=ORIENTED_EDGE('',*,*,#189,.T.);
#245=ORIENTED_EDGE('',*,*,#190,.T.);
#246=ORIENTED_EDGE('',*,*,#191,.T.);
#247=ORIENTED_EDGE('',*,*,#192,.T.);
#248=ORIENTED_EDGE('',*,*,#193,.T.);
#249=ORIENTED_EDGE('',*,*,#191,.F.);
#250=ORIENTED_EDGE('',*,*,#192,.F.);
#251=ORIENTED_EDGE('',*,*,#193,.F.);
#252=ORIENTED_EDGE('',*,*,#194,.T.);
#253=ORIENTED_EDGE('',*,*,#195,.T.);
#254=ORIENTED_EDGE('',*,*,#196,.T.);
#255=ORIENTED_EDGE('',*,*,#194,.F.);
#256=ORIENTED_EDGE('',*,*,#190,.F.);
#257=ORIENTED_EDGE('',*,*,#197,.F.);
#258=ORIENTED_EDGE('',*,*,#198,.F.);
#259=ORIENTED_EDGE('',*,*,#199,.T.);
#260=ORIENTED_EDGE('',*,*,#200,.T.);
#261=ORIENTED_EDGE('',*,*,#201,.T.);
#262=ORIENTED_EDGE('',*,*,#202,.T.);
#263=ORIENTED_EDGE('',*,*,#201,.F.);
#264=ORIENTED_EDGE('',*,*,#202,.F.);
#265=ORIENTED_EDGE('',*,*,#203,.F.);
#266=ORIENTED_EDGE('',*,*,#204,.F.);
#267=ORIENTED_EDGE('',*,*,#205,.F.);
#268=ORIENTED_EDGE('',*,*,#206,.T.);
#269=ORIENTED_EDGE('',*,*,#199,.F.);
#270=ORIENTED_EDGE('',*,*,#200,.F.);
#271=ORIENTED_EDGE('',*,*,#206,.F.);
#272=ORIENTED_EDGE('',*,*,#207,.T.);
#273=ORIENTED_EDGE('',*,*,#208,.T.);
#274=ORIENTED_EDGE('',*,*,#209,.T.);
#275=ORIENTED_EDGE('',*,*,#210,.T.);
#276=ORIENTED_EDGE('',*,*,#208,.F.);
#277=ORIENTED_EDGE('',*,*,#209,.F.);
#278=ORIENTED_EDGE('',*,*,#210,.F.);
#279=ORIENTED_EDGE('',*,*,#211,.T.);
#280=ORIENTED_EDGE('',*,*,#212,.F.);
#281=ORIENTED_EDGE('',*,*,#213,.F.);
#282=ORIENTED_EDGE('',*,*,#211,.F.);
#283=ORIENTED_EDGE('',*,*,#207,.F.);
#284=ORIENTED_EDGE('',*,*,#214,.F.);
#285=ORIENTED_EDGE('',*,*,#203,.T.);
#286=ORIENTED_EDGE('',*,*,#215,.T.);
#287=ORIENTED_EDGE('',*,*,#212,.T.);
#288=ORIENTED_EDGE('',*,*,#213,.T.);
#289=ORIENTED_EDGE('',*,*,#215,.F.);
#290=ORIENTED_EDGE('',*,*,#216,.T.);
#291=ORIENTED_EDGE('',*,*,#217,.T.);
#292=ORIENTED_EDGE('',*,*,#218,.T.);
#293=ORIENTED_EDGE('',*,*,#214,.T.);
#294=ORIENTED_EDGE('',*,*,#218,.F.);
#295=ORIENTED_EDGE('',*,*,#216,.F.);
#296=ORIENTED_EDGE('',*,*,#217,.F.);
#297=ORIENTED_EDGE('',*,*,#219,.T.);
#298=ORIENTED_EDGE('',*,*,#220,.F.);
#299=ORIENTED_EDGE('',*,*,#221,.F.);
#300=ORIENTED_EDGE('',*,*,#219,.F.);
#301=ORIENTED_EDGE('',*,*,#220,.T.);
#302=ORIENTED_EDGE('',*,*,#221,.T.);
#303=ORIENTED_EDGE('',*,*,#222,.T.);
#304=ORIENTED_EDGE('',*,*,#186,.T.);
#305=ORIENTED_EDGE('',*,*,#222,.F.);
#306=ORIENTED_EDGE('',*,*,#204,.T.);
#307=ORIENTED_EDGE('',*,*,#205,.T.);
#308=ORIENTED_EDGE('',*,*,#223,.T.);
#309=ORIENTED_EDGE('',*,*,#195,.F.);
#310=ORIENTED_EDGE('',*,*,#196,.F.);
#311=ORIENTED_EDGE('',*,*,#223,.F.);
#312=ORIENTED_EDGE('',*,*,#197,.T.);
#313=ORIENTED_EDGE('',*,*,#224,.T.);
#314=ORIENTED_EDGE('',*,*,#225,.F.);
#315=ORIENTED_EDGE('',*,*,#226,.F.);
#316=ORIENTED_EDGE('',*,*,#224,.F.);
#317=ORIENTED_EDGE('',*,*,#198,.T.);
#318=ORIENTED_EDGE('',*,*,#225,.T.);
#319=ORIENTED_EDGE('',*,*,#226,.T.);
#320=ORIENTED_EDGE('',*,*,#227,.F.);
#321=ORIENTED_EDGE('',*,*,#228,.F.);
#322=ORIENTED_EDGE('',*,*,#227,.T.);
#323=ORIENTED_EDGE('',*,*,#229,.T.);
#324=ORIENTED_EDGE('',*,*,#230,.F.);
#325=ORIENTED_EDGE('',*,*,#231,.F.);
#326=ORIENTED_EDGE('',*,*,#229,.F.);
#327=ORIENTED_EDGE('',*,*,#228,.T.);
#328=ORIENTED_EDGE('',*,*,#187,.F.);
#329=ORIENTED_EDGE('',*,*,#189,.F.);
#330=ORIENTED_EDGE('',*,*,#230,.T.);
#331=ORIENTED_EDGE('',*,*,#231,.T.);
#332=CONICAL_SURFACE('',#376,127.625,0.785398163397397);
#333=CONICAL_SURFACE('',#385,144.75,0.785398163397459);
#334=CONICAL_SURFACE('',#395,144.75,0.785398163397455);
#335=ADVANCED_FACE('',(#39),#332,.F.);
#336=ADVANCED_FACE('',(#40,#27),#33,.T.);
#337=ADVANCED_FACE('',(#41),#20,.F.);
#338=ADVANCED_FACE('',(#42),#333,.T.);
#339=ADVANCED_FACE('',(#43),#21,.T.);
#340=ADVANCED_FACE('',(#44,#28),#34,.T.);
#341=ADVANCED_FACE('',(#45),#334,.T.);
#342=ADVANCED_FACE('',(#46,#29),#35,.T.);
#343=ADVANCED_FACE('',(#47),#22,.T.);
#344=ADVANCED_FACE('',(#48),#15,.F.);
#345=ADVANCED_FACE('',(#49),#23,.F.);
#346=ADVANCED_FACE('',(#50,#30),#36,.T.);
#347=ADVANCED_FACE('',(#51),#16,.T.);
#348=ADVANCED_FACE('',(#52),#17,.F.);
#349=ADVANCED_FACE('',(#53),#24,.T.);
#350=ADVANCED_FACE('',(#54),#18,.T.);
#351=ADVANCED_FACE('',(#55),#19,.F.);
#352=ADVANCED_FACE('',(#56),#25,.F.);
#353=ADVANCED_FACE('',(#57,#31),#37,.T.);
#354=ADVANCED_FACE('',(#58),#26,.F.);
#355=ADVANCED_FACE('',(#59,#32),#38,.T.);
#356=CLOSED_SHELL('',(#335,#336,#337,#338,#339,#340,#341,#342,#343,#344,
#345,#346,#347,#348,#349,#350,#351,#352,#353,#354,#355));
#357=DERIVED_UNIT_ELEMENT(#359,1.);
#358=DERIVED_UNIT_ELEMENT(#683,3.);
#359=(
MASS_UNIT()
NAMED_UNIT(*)
SI_UNIT($,.GRAM.)
);
#360=DERIVED_UNIT((#357,#358));
#361=MEASURE_REPRESENTATION_ITEM('density measure',
POSITIVE_RATIO_MEASURE(8.),#360);
#362=PROPERTY_DEFINITION_REPRESENTATION(#367,#364);
#363=PROPERTY_DEFINITION_REPRESENTATION(#368,#365);
#364=REPRESENTATION('material name',(#366),#680);
#365=REPRESENTATION('density',(#361),#680);
#366=DESCRIPTIVE_REPRESENTATION_ITEM('Stainless Steel, Austenitic',
'Stainless Steel, Austenitic');
#367=PROPERTY_DEFINITION('material property','material name',#690);
#368=PROPERTY_DEFINITION('material property','density of part',#690);
#369=DATE_TIME_ROLE('creation_date');
#370=APPLIED_DATE_AND_TIME_ASSIGNMENT(#371,#369,(#690));
#371=DATE_AND_TIME(#372,#373);
#372=CALENDAR_DATE(2014,14,8);
#373=LOCAL_TIME(15,10,58.,#374);
#374=COORDINATED_UNIVERSAL_TIME_OFFSET(0,0,.BEHIND.);
#375=AXIS2_PLACEMENT_3D('placement',#571,#437,#438);
#376=AXIS2_PLACEMENT_3D('',#572,#439,#440);
#377=AXIS2_PLACEMENT_3D('',#574,#441,#442);
#378=AXIS2_PLACEMENT_3D('',#578,#444,#445);
#379=AXIS2_PLACEMENT_3D('',#579,#446,#447);
#380=AXIS2_PLACEMENT_3D('',#580,#448,#449);
#381=AXIS2_PLACEMENT_3D('',#582,#450,#451);
#382=AXIS2_PLACEMENT_3D('',#583,#452,#453);
#383=AXIS2_PLACEMENT_3D('',#586,#454,#455);
#384=AXIS2_PLACEMENT_3D('',#588,#457,#458);
#385=AXIS2_PLACEMENT_3D('',#589,#459,#460);
#386=AXIS2_PLACEMENT_3D('',#591,#461,#462);
#387=AXIS2_PLACEMENT_3D('',#595,#464,#465);
#388=AXIS2_PLACEMENT_3D('',#596,#466,#467);
#389=AXIS2_PLACEMENT_3D('',#597,#468,#469);
#390=AXIS2_PLACEMENT_3D('',#601,#471,#472);
#391=AXIS2_PLACEMENT_3D('',#602,#473,#474);
#392=AXIS2_PLACEMENT_3D('',#603,#475,#476);
#393=AXIS2_PLACEMENT_3D('',#606,#477,#478);
#394=AXIS2_PLACEMENT_3D('',#607,#479,#480);
#395=AXIS2_PLACEMENT_3D('',#608,#481,#482);
#396=AXIS2_PLACEMENT_3D('',#611,#483,#484);
#397=AXIS2_PLACEMENT_3D('',#612,#485,#486);
#398=AXIS2_PLACEMENT_3D('',#615,#488,#489);
#399=AXIS2_PLACEMENT_3D('',#616,#490,#491);
#400=AXIS2_PLACEMENT_3D('',#618,#492,#493);
#401=AXIS2_PLACEMENT_3D('',#619,#494,#495);
#402=AXIS2_PLACEMENT_3D('',#622,#496,#497);
#403=AXIS2_PLACEMENT_3D('',#623,#498,#499);
#404=AXIS2_PLACEMENT_3D('',#625,#501,#502);
#405=AXIS2_PLACEMENT_3D('',#627,#503,#504);
#406=AXIS2_PLACEMENT_3D('',#629,#505,#506);
#407=AXIS2_PLACEMENT_3D('',#631,#507,#508);
#408=AXIS2_PLACEMENT_3D('',#632,#509,#510);
#409=AXIS2_PLACEMENT_3D('',#633,#511,#512);
#410=AXIS2_PLACEMENT_3D('',#637,#514,#515);
#411=AXIS2_PLACEMENT_3D('',#638,#516,#517);
#412=AXIS2_PLACEMENT_3D('',#639,#518,#519);
#413=AXIS2_PLACEMENT_3D('',#641,#520,#521);
#414=AXIS2_PLACEMENT_3D('',#642,#522,#523);
#415=AXIS2_PLACEMENT_3D('',#643,#524,#525);
#416=AXIS2_PLACEMENT_3D('',#644,#526,#527);
#417=AXIS2_PLACEMENT_3D('',#647,#528,#529);
#418=AXIS2_PLACEMENT_3D('',#648,#530,#531);
#419=AXIS2_PLACEMENT_3D('',#649,#532,#533);
#420=AXIS2_PLACEMENT_3D('',#650,#534,#535);
#421=AXIS2_PLACEMENT_3D('',#654,#537,#538);
#422=AXIS2_PLACEMENT_3D('',#655,#539,#540);
#423=AXIS2_PLACEMENT_3D('',#656,#541,#542);
#424=AXIS2_PLACEMENT_3D('',#657,#543,#544);
#425=AXIS2_PLACEMENT_3D('',#658,#545,#546);
#426=AXIS2_PLACEMENT_3D('',#659,#547,#548);
#427=AXIS2_PLACEMENT_3D('',#660,#549,#550);
#428=AXIS2_PLACEMENT_3D('',#664,#552,#553);
#429=AXIS2_PLACEMENT_3D('',#665,#554,#555);
#430=AXIS2_PLACEMENT_3D('',#666,#556,#557);
#431=AXIS2_PLACEMENT_3D('',#669,#558,#559);
#432=AXIS2_PLACEMENT_3D('',#670,#560,#561);
#433=AXIS2_PLACEMENT_3D('',#671,#562,#563);
#434=AXIS2_PLACEMENT_3D('',#675,#565,#566);
#435=AXIS2_PLACEMENT_3D('',#676,#567,#568);
#436=AXIS2_PLACEMENT_3D('',#677,#569,#570);
#437=DIRECTION('axis',(0.,0.,1.));
#438=DIRECTION('refdir',(1.,0.,0.));
#439=DIRECTION('center_axis',(-1.,0.,0.));
#440=DIRECTION('ref_axis',(0.,0.,-1.));
#441=DIRECTION('center_axis',(-1.,0.,0.));
#442=DIRECTION('ref_axis',(0.,0.,-1.));
#443=DIRECTION('',(0.707106781186584,-8.65956056235449E-17,-0.707106781186511));
#444=DIRECTION('center_axis',(1.,0.,0.));
#445=DIRECTION('ref_axis',(0.,0.,-1.));
#446=DIRECTION('center_axis',(1.,0.,0.));
#447=DIRECTION('ref_axis',(0.,0.,-1.));
#448=DIRECTION('center_axis',(-1.,0.,0.));
#449=DIRECTION('ref_axis',(0.,0.,1.));
#450=DIRECTION('center_axis',(1.,0.,0.));
#451=DIRECTION('ref_axis',(0.,0.,-1.));
#452=DIRECTION('center_axis',(1.,0.,0.));
#453=DIRECTION('ref_axis',(0.,0.,1.));
#454=DIRECTION('center_axis',(1.,0.,0.));
#455=DIRECTION('ref_axis',(0.,0.,-1.));
#456=DIRECTION('',(-1.,0.,0.));
#457=DIRECTION('center_axis',(1.,0.,0.));
#458=DIRECTION('ref_axis',(0.,0.,-1.));
#459=DIRECTION('center_axis',(-1.,0.,0.));
#460=DIRECTION('ref_axis',(0.,0.,-1.));
#461=DIRECTION('center_axis',(-1.,0.,0.));
#462=DIRECTION('ref_axis',(0.,0.,-1.));
#463=DIRECTION('',(-0.70710678118654,-8.65956056235503E-17,0.707106781186555));
#464=DIRECTION('center_axis',(1.,0.,0.));
#465=DIRECTION('ref_axis',(0.,0.,-1.));
#466=DIRECTION('center_axis',(1.,0.,0.));
#467=DIRECTION('ref_axis',(0.,0.,-1.));
#468=DIRECTION('center_axis',(1.,0.,0.));
#469=DIRECTION('ref_axis',(0.,0.,1.));
#470=DIRECTION('',(-1.,0.,0.));
#471=DIRECTION('center_axis',(1.,0.,0.));
#472=DIRECTION('ref_axis',(0.,0.,-1.));
#473=DIRECTION('center_axis',(1.,0.,0.));
#474=DIRECTION('ref_axis',(0.,0.,-1.));
#475=DIRECTION('center_axis',(1.,0.,0.));
#476=DIRECTION('ref_axis',(0.,0.,-1.));
#477=DIRECTION('center_axis',(1.,0.,0.));
#478=DIRECTION('ref_axis',(0.,0.,-1.));
#479=DIRECTION('center_axis',(1.,0.,0.));
#480=DIRECTION('ref_axis',(0.,0.,-1.));
#481=DIRECTION('center_axis',(1.,0.,0.));
#482=DIRECTION('ref_axis',(0.,0.,-1.));
#483=DIRECTION('center_axis',(-1.,0.,0.));
#484=DIRECTION('ref_axis',(0.,0.,-1.));
#485=DIRECTION('center_axis',(-1.,0.,0.));
#486=DIRECTION('ref_axis',(0.,0.,-1.));
#487=DIRECTION('',(-0.707106781186542,8.65956056235499E-17,-0.707106781186553));
#488=DIRECTION('center_axis',(1.,0.,0.));
#489=DIRECTION('ref_axis',(0.,0.,-1.));
#490=DIRECTION('center_axis',(-1.,0.,0.));
#491=DIRECTION('ref_axis',(0.,0.,1.));
#492=DIRECTION('center_axis',(-1.,0.,0.));
#493=DIRECTION('ref_axis',(0.,0.,-1.));
#494=DIRECTION('center_axis',(1.,0.,0.));
#495=DIRECTION('ref_axis',(0.,0.,1.));
#496=DIRECTION('center_axis',(1.,0.,0.));
#497=DIRECTION('ref_axis',(0.,0.,-1.));
#498=DIRECTION('center_axis',(1.,0.,0.));
#499=DIRECTION('ref_axis',(0.,0.,-1.));
#500=DIRECTION('',(-1.,0.,0.));
#501=DIRECTION('center_axis',(1.,0.,0.));
#502=DIRECTION('ref_axis',(0.,0.,-1.));
#503=DIRECTION('center_axis',(1.,0.,0.));
#504=DIRECTION('ref_axis',(0.,0.,-1.));
#505=DIRECTION('center_axis',(0.,-1.,-1.22464679914735E-16));
#506=DIRECTION('ref_axis',(0.,-1.22464679914735E-16,1.));
#507=DIRECTION('center_axis',(-1.,0.,0.));
#508=DIRECTION('ref_axis',(0.,0.,-1.));
#509=DIRECTION('center_axis',(-1.,0.,0.));
#510=DIRECTION('ref_axis',(0.,0.,-1.));
#511=DIRECTION('center_axis',(1.,0.,0.));
#512=DIRECTION('ref_axis',(0.,0.,1.));
#513=DIRECTION('',(-1.,0.,0.));
#514=DIRECTION('center_axis',(1.,0.,0.));
#515=DIRECTION('ref_axis',(0.,0.,-1.));
#516=DIRECTION('center_axis',(1.,0.,0.));
#517=DIRECTION('ref_axis',(0.,0.,-1.));
#518=DIRECTION('center_axis',(-1.,0.,0.));
#519=DIRECTION('ref_axis',(0.,0.,1.));
#520=DIRECTION('center_axis',(-1.,0.,0.));
#521=DIRECTION('ref_axis',(0.,0.,-1.));
#522=DIRECTION('center_axis',(1.,0.,0.));
#523=DIRECTION('ref_axis',(0.,0.,-1.));
#524=DIRECTION('center_axis',(0.,-1.,-1.22464679914735E-16));
#525=DIRECTION('ref_axis',(0.,-1.22464679914735E-16,1.));
#526=DIRECTION('center_axis',(1.,0.,0.));
#527=DIRECTION('ref_axis',(0.,0.,-1.));
#528=DIRECTION('center_axis',(1.,0.,0.));
#529=DIRECTION('ref_axis',(0.,0.,-1.));
#530=DIRECTION('center_axis',(1.,0.,0.));
#531=DIRECTION('ref_axis',(0.,0.,-1.));
#532=DIRECTION('center_axis',(0.,-1.,-1.22464679914735E-16));
#533=DIRECTION('ref_axis',(0.,-1.22464679914735E-16,1.));
#534=DIRECTION('center_axis',(1.,0.,0.));
#535=DIRECTION('ref_axis',(0.,0.,1.));
#536=DIRECTION('',(-1.,0.,0.));
#537=DIRECTION('center_axis',(-1.,0.,0.));
#538=DIRECTION('ref_axis',(0.,0.,-1.));
#539=DIRECTION('center_axis',(-1.,0.,0.));
#540=DIRECTION('ref_axis',(0.,0.,-1.));
#541=DIRECTION('center_axis',(1.,0.,0.));
#542=DIRECTION('ref_axis',(0.,0.,-1.));
#543=DIRECTION('center_axis',(0.,-1.,-1.22464679914735E-16));
#544=DIRECTION('ref_axis',(0.,-1.22464679914735E-16,1.));
#545=DIRECTION('center_axis',(1.,0.,0.));
#546=DIRECTION('ref_axis',(0.,0.,-1.));
#547=DIRECTION('center_axis',(0.,-1.,-1.22464679914735E-16));
#548=DIRECTION('ref_axis',(0.,-1.22464679914735E-16,1.));
#549=DIRECTION('center_axis',(1.,0.,0.));
#550=DIRECTION('ref_axis',(0.,0.,1.));
#551=DIRECTION('',(-1.,0.,0.));
#552=DIRECTION('center_axis',(1.,0.,0.));
#553=DIRECTION('ref_axis',(0.,0.,-1.));
#554=DIRECTION('center_axis',(1.,0.,0.));
#555=DIRECTION('ref_axis',(0.,0.,-1.));
#556=DIRECTION('center_axis',(1.,0.,0.));
#557=DIRECTION('ref_axis',(0.,0.,-1.));
#558=DIRECTION('center_axis',(1.,0.,0.));
#559=DIRECTION('ref_axis',(0.,0.,-1.));
#560=DIRECTION('center_axis',(1.,0.,0.));
#561=DIRECTION('ref_axis',(0.,0.,-1.));
#562=DIRECTION('center_axis',(1.,0.,0.));
#563=DIRECTION('ref_axis',(0.,0.,1.));
#564=DIRECTION('',(-1.,0.,0.));
#565=DIRECTION('center_axis',(1.,0.,0.));
#566=DIRECTION('ref_axis',(0.,0.,-1.));
#567=DIRECTION('center_axis',(1.,0.,0.));
#568=DIRECTION('ref_axis',(0.,0.,-1.));
#569=DIRECTION('center_axis',(-1.,0.,0.));
#570=DIRECTION('ref_axis',(0.,0.,1.));
#571=CARTESIAN_POINT('',(0.,0.,0.));
#572=CARTESIAN_POINT('Origin',(0.125000000000015,0.,0.));
#573=CARTESIAN_POINT('',(0.,1.56448628591074E-14,127.75));
#574=CARTESIAN_POINT('Origin',(0.,0.,0.));
#575=CARTESIAN_POINT('',(0.250000000000029,-1.56142466891288E-14,127.5));
#576=CARTESIAN_POINT('',(0.125000000000015,1.56295547741181E-14,127.625));
#577=CARTESIAN_POINT('',(0.250000000000029,1.56142466891288E-14,-127.5));
#578=CARTESIAN_POINT('Origin',(0.250000000000029,0.,0.));
#579=CARTESIAN_POINT('Origin',(0.250000000000029,0.,0.));
#580=CARTESIAN_POINT('Origin',(0.,0.,137.5));
#581=CARTESIAN_POINT('',(0.,-1.67776611483187E-14,137.));
#582=CARTESIAN_POINT('Origin',(0.,0.,0.));
#583=CARTESIAN_POINT('Origin',(2.8,0.,0.));
#584=CARTESIAN_POINT('',(5.59999999999997,0.,127.5));
#585=CARTESIAN_POINT('',(5.59999999999997,1.56142466891288E-14,-127.5));
#586=CARTESIAN_POINT('Origin',(5.59999999999997,0.,0.));
#587=CARTESIAN_POINT('',(2.8,1.56142466891288E-14,-127.5));
#588=CARTESIAN_POINT('Origin',(5.59999999999997,0.,0.));
#589=CARTESIAN_POINT('Origin',(11.75,0.,0.));
#590=CARTESIAN_POINT('',(12.,1.76961462476793E-14,144.5));
#591=CARTESIAN_POINT('Origin',(12.,0.,0.));
#592=CARTESIAN_POINT('',(11.5,-1.77573785876366E-14,145.));
#593=CARTESIAN_POINT('',(11.75,-1.77267624176579E-14,144.75));
#594=CARTESIAN_POINT('',(11.5,1.77573785876366E-14,-145.));
#595=CARTESIAN_POINT('Origin',(11.5,0.,0.));
#596=CARTESIAN_POINT('Origin',(11.5,0.,0.));
#597=CARTESIAN_POINT('Origin',(10.75,0.,0.));
#598=CARTESIAN_POINT('',(9.5,1.77573785876366E-14,-145.));
#599=CARTESIAN_POINT('',(10.75,1.77573785876366E-14,-145.));
#600=CARTESIAN_POINT('',(9.5,0.,145.));
#601=CARTESIAN_POINT('Origin',(9.5,0.,0.));
#602=CARTESIAN_POINT('Origin',(9.5,0.,0.));
#603=CARTESIAN_POINT('Origin',(12.,0.,130.5));
#604=CARTESIAN_POINT('',(12.,0.,130.5));
#605=CARTESIAN_POINT('',(12.,1.5981640728873E-14,-130.5));
#606=CARTESIAN_POINT('Origin',(12.,0.,0.));
#607=CARTESIAN_POINT('Origin',(12.,0.,0.));
#608=CARTESIAN_POINT('Origin',(0.25,0.,0.));
#609=CARTESIAN_POINT('',(0.5,1.77573785876366E-14,145.));
#610=CARTESIAN_POINT('',(0.5,1.77573785876366E-14,-145.));
#611=CARTESIAN_POINT('Origin',(0.5,0.,0.));
#612=CARTESIAN_POINT('Origin',(0.5,0.,0.));
#613=CARTESIAN_POINT('',(0.,-1.76961462476793E-14,144.5));
#614=CARTESIAN_POINT('',(0.25,-1.77267624176579E-14,144.75));
#615=CARTESIAN_POINT('Origin',(0.,0.,0.));
#616=CARTESIAN_POINT('Origin',(0.,0.,145.));
#617=CARTESIAN_POINT('',(0.,1.75124492278072E-14,143.));
#618=CARTESIAN_POINT('Origin',(0.,0.,0.));
#619=CARTESIAN_POINT('Origin',(2.25,0.,0.));
#620=CARTESIAN_POINT('',(4.50000000000001,0.,145.));
#621=CARTESIAN_POINT('',(4.50000000000001,1.77573785876366E-14,-145.));
#622=CARTESIAN_POINT('Origin',(4.50000000000001,0.,0.));
#623=CARTESIAN_POINT('Origin',(4.50000000000001,0.,0.));
#624=CARTESIAN_POINT('',(2.25,1.77573785876366E-14,-145.));
#625=CARTESIAN_POINT('Origin',(1.5,0.,0.));
#626=CARTESIAN_POINT('',(2.,-1.73899845478924E-14,142.));
#627=CARTESIAN_POINT('Origin',(2.,0.,0.));
#628=CARTESIAN_POINT('',(1.5,1.74512168878498E-14,142.5));
#629=CARTESIAN_POINT('Origin',(1.5,-1.73899845478924E-14,142.));
#630=CARTESIAN_POINT('',(1.5,1.74512168878498E-14,-142.5));
#631=CARTESIAN_POINT('Origin',(1.5,0.,0.));
#632=CARTESIAN_POINT('Origin',(1.5,0.,0.));
#633=CARTESIAN_POINT('Origin',(1.,0.,0.));
#634=CARTESIAN_POINT('',(0.5,1.74512168878498E-14,-142.5));
#635=CARTESIAN_POINT('',(1.,1.74512168878498E-14,-142.5));
#636=CARTESIAN_POINT('',(0.5,-1.74512168878498E-14,142.5));
#637=CARTESIAN_POINT('Origin',(0.5,0.,0.));
#638=CARTESIAN_POINT('Origin',(0.5,0.,0.));
#639=CARTESIAN_POINT('Origin',(2.,0.,142.5));
#640=CARTESIAN_POINT('',(2.,1.69001258282335E-14,138.));
#641=CARTESIAN_POINT('Origin',(2.,0.,0.));
#642=CARTESIAN_POINT('Origin',(0.5,0.,0.));
#643=CARTESIAN_POINT('Origin',(0.5,-1.75124492278072E-14,143.));
#644=CARTESIAN_POINT('Origin',(1.5,0.,0.));
#645=CARTESIAN_POINT('',(1.5,-1.68388934882761E-14,137.5));
#646=CARTESIAN_POINT('',(1.5,1.68388934882761E-14,-137.5));
#647=CARTESIAN_POINT('Origin',(1.5,0.,0.));
#648=CARTESIAN_POINT('Origin',(1.5,0.,0.));
#649=CARTESIAN_POINT('Origin',(1.5,-1.69001258282335E-14,138.));
#650=CARTESIAN_POINT('Origin',(1.,0.,0.));
#651=CARTESIAN_POINT('',(0.5,1.68388934882761E-14,-137.5));
#652=CARTESIAN_POINT('',(1.,1.68388934882761E-14,-137.5));
#653=CARTESIAN_POINT('',(0.5,1.68388934882761E-14,137.5));
#654=CARTESIAN_POINT('Origin',(0.5,0.,0.));
#655=CARTESIAN_POINT('Origin',(0.5,0.,0.));
#656=CARTESIAN_POINT('Origin',(0.5,0.,0.));
#657=CARTESIAN_POINT('Origin',(0.5,-1.67776611483187E-14,137.));
#658=CARTESIAN_POINT('Origin',(7.,0.,0.));
#659=CARTESIAN_POINT('Origin',(7.,-1.77573785876366E-14,145.));
#660=CARTESIAN_POINT('Origin',(9.79999999999998,0.,0.));
#661=CARTESIAN_POINT('',(7.59999999999997,1.5981640728873E-14,-130.5));
#662=CARTESIAN_POINT('',(9.79999999999998,1.5981640728873E-14,-130.5));
#663=CARTESIAN_POINT('',(7.59999999999997,0.,130.5));
#664=CARTESIAN_POINT('Origin',(7.59999999999997,0.,0.));
#665=CARTESIAN_POINT('Origin',(7.59999999999997,0.,0.));
#666=CARTESIAN_POINT('Origin',(7.59999999999997,0.,125.));
#667=CARTESIAN_POINT('',(7.59999999999997,0.,125.));
#668=CARTESIAN_POINT('',(7.59999999999997,1.53080849893419E-14,-125.));
#669=CARTESIAN_POINT('Origin',(7.59999999999997,0.,0.));
#670=CARTESIAN_POINT('Origin',(7.59999999999997,0.,0.));
#671=CARTESIAN_POINT('Origin',(6.59999999999997,0.,0.));
#672=CARTESIAN_POINT('',(5.59999999999997,1.53080849893419E-14,-125.));
#673=CARTESIAN_POINT('',(6.59999999999997,1.53080849893419E-14,-125.));
#674=CARTESIAN_POINT('',(5.59999999999997,0.,125.));
#675=CARTESIAN_POINT('Origin',(5.59999999999997,0.,0.));
#676=CARTESIAN_POINT('Origin',(5.59999999999997,0.,0.));
#677=CARTESIAN_POINT('Origin',(5.59999999999997,0.,127.5));
#678=UNCERTAINTY_MEASURE_WITH_UNIT(LENGTH_MEASURE(0.01),#682,
'DISTANCE_ACCURACY_VALUE',
'Maximum model space distance between geometric entities at asserted c
onnectivities');
#679=UNCERTAINTY_MEASURE_WITH_UNIT(LENGTH_MEASURE(0.01),#682,
'DISTANCE_ACCURACY_VALUE',
'Maximum model space distance between geometric entities at asserted c
onnectivities');
#680=(
GEOMETRIC_REPRESENTATION_CONTEXT(3)
GLOBAL_UNCERTAINTY_ASSIGNED_CONTEXT((#678))
GLOBAL_UNIT_ASSIGNED_CONTEXT((#682,#685,#684))
REPRESENTATION_CONTEXT('','3D')
);
#681=(
GEOMETRIC_REPRESENTATION_CONTEXT(3)
GLOBAL_UNCERTAINTY_ASSIGNED_CONTEXT((#679))
GLOBAL_UNIT_ASSIGNED_CONTEXT((#682,#685,#684))
REPRESENTATION_CONTEXT('','3D')
);
#682=(
LENGTH_UNIT()
NAMED_UNIT(*)
SI_UNIT(.MILLI.,.METRE.)
);
#683=(
LENGTH_UNIT()
NAMED_UNIT(*)
SI_UNIT(.CENTI.,.METRE.)
);
#684=(
NAMED_UNIT(*)
SI_UNIT($,.STERADIAN.)
SOLID_ANGLE_UNIT()
);
#685=(
NAMED_UNIT(*)
PLANE_ANGLE_UNIT()
SI_UNIT($,.RADIAN.)
);
#686=SHAPE_DEFINITION_REPRESENTATION(#687,#688);
#687=PRODUCT_DEFINITION_SHAPE('',$,#690);
#688=SHAPE_REPRESENTATION('',(#375),#680);
#689=PRODUCT_DEFINITION_CONTEXT('part definition',#694,'design');
#690=PRODUCT_DEFINITION('FL-250LF-W','FL-250LF-W',#691,#689);
#691=PRODUCT_DEFINITION_FORMATION('',$,#696);
#692=PRODUCT_RELATED_PRODUCT_CATEGORY('FL-250LF-W','FL-250LF-W',(#696));
#693=APPLICATION_PROTOCOL_DEFINITION('international standard',
'automotive_design',2009,#694);
#694=APPLICATION_CONTEXT(
'Core Data for Automotive Mechanical Design Process');
#695=PRODUCT_CONTEXT('part definition',#694,'mechanical');
#696=PRODUCT('FL-250LF-W','FL-250LF-W',$,(#695));
#697=PRESENTATION_STYLE_ASSIGNMENT((#698));
#698=SURFACE_STYLE_USAGE(.BOTH.,#699);
#699=SURFACE_SIDE_STYLE('',(#700));
#700=SURFACE_STYLE_FILL_AREA(#701);
#701=FILL_AREA_STYLE('',(#702));
#702=FILL_AREA_STYLE_COLOUR('',#703);
#703=COLOUR_RGB('',0.745098039215686,0.737254901960784,0.729411764705882);
ENDSEC;
END-ISO-10303-21;
