ISO-10303-21;
HEADER;
/* Generated by software containing ST-Developer
 * from STEP Tools, Inc. (www.steptools.com) 
 */

FILE_DESCRIPTION(
/* description */ (''),
/* implementation_level */ '2;1');

FILE_NAME(
/* name */ 'G:\\FLANGES & FITTINGS\\NW200LF\\Step files\\FL-200LF-W.st
p',
/* time_stamp */ '2018-07-12T09:57:07+01:00',
/* author */ ('paul'),
/* organization */ (''),
/* preprocessor_version */ 'ST-DEVELOPER v17',
/* originating_system */ 'Autodesk Inventor 2019',
/* authorisation */ '');

FILE_SCHEMA (('AUTOMOTIVE_DESIGN { 1 0 10303 214 3 1 1 }'));
ENDSEC;

DATA;
#10=MECHANICAL_DESIGN_GEOMETRIC_PRESENTATION_REPRESENTATION('',(#13),#502);
#11=SHAPE_REPRESENTATION_RELATIONSHIP('SRR','None',#509,#12);
#12=ADVANCED_BREP_SHAPE_REPRESENTATION('',(#14),#501);
#13=STYLED_ITEM('',(#518),#14);
#14=MANIFOLD_SOLID_BREP('Solid1',#262);
#15=TOROIDAL_SURFACE('',#311,120.,2.5);
#16=FACE_BOUND('',#44,.T.);
#17=FACE_BOUND('',#47,.T.);
#18=FACE_BOUND('',#50,.T.);
#19=FACE_BOUND('',#53,.T.);
#20=FACE_BOUND('',#58,.T.);
#21=FACE_BOUND('',#61,.T.);
#22=PLANE('',#287);
#23=PLANE('',#293);
#24=PLANE('',#299);
#25=PLANE('',#305);
#26=PLANE('',#318);
#27=PLANE('',#324);
#28=FACE_OUTER_BOUND('',#42,.T.);
#29=FACE_OUTER_BOUND('',#43,.T.);
#30=FACE_OUTER_BOUND('',#45,.T.);
#31=FACE_OUTER_BOUND('',#46,.T.);
#32=FACE_OUTER_BOUND('',#48,.T.);
#33=FACE_OUTER_BOUND('',#49,.T.);
#34=FACE_OUTER_BOUND('',#51,.T.);
#35=FACE_OUTER_BOUND('',#52,.T.);
#36=FACE_OUTER_BOUND('',#54,.T.);
#37=FACE_OUTER_BOUND('',#55,.T.);
#38=FACE_OUTER_BOUND('',#56,.T.);
#39=FACE_OUTER_BOUND('',#57,.T.);
#40=FACE_OUTER_BOUND('',#59,.T.);
#41=FACE_OUTER_BOUND('',#60,.T.);
#42=EDGE_LOOP('',(#169,#170,#171,#172,#173,#174));
#43=EDGE_LOOP('',(#175,#176));
#44=EDGE_LOOP('',(#177,#178));
#45=EDGE_LOOP('',(#179,#180,#181,#182,#183,#184));
#46=EDGE_LOOP('',(#185,#186));
#47=EDGE_LOOP('',(#187,#188));
#48=EDGE_LOOP('',(#189,#190,#191,#192,#193,#194));
#49=EDGE_LOOP('',(#195,#196));
#50=EDGE_LOOP('',(#197,#198));
#51=EDGE_LOOP('',(#199,#200,#201,#202,#203,#204));
#52=EDGE_LOOP('',(#205,#206));
#53=EDGE_LOOP('',(#207,#208));
#54=EDGE_LOOP('',(#209,#210,#211,#212,#213,#214));
#55=EDGE_LOOP('',(#215,#216,#217,#218,#219,#220));
#56=EDGE_LOOP('',(#221,#222,#223,#224,#225,#226));
#57=EDGE_LOOP('',(#227,#228));
#58=EDGE_LOOP('',(#229,#230));
#59=EDGE_LOOP('',(#231,#232,#233,#234,#235,#236));
#60=EDGE_LOOP('',(#237,#238));
#61=EDGE_LOOP('',(#239,#240));
#62=LINE('',#426,#69);
#63=LINE('',#438,#70);
#64=LINE('',#452,#71);
#65=LINE('',#460,#72);
#66=LINE('',#474,#73);
#67=LINE('',#486,#74);
#68=LINE('',#494,#75);
#69=VECTOR('',#331,100.);
#70=VECTOR('',#346,102.);
#71=VECTOR('',#363,109.15);
#72=VECTOR('',#372,117.5);
#73=VECTOR('',#389,120.);
#74=VECTOR('',#404,120.);
#75=VECTOR('',#413,106.5);
#76=CIRCLE('',#283,100.);
#77=CIRCLE('',#284,100.);
#78=CIRCLE('',#285,100.);
#79=CIRCLE('',#286,100.);
#80=CIRCLE('',#288,102.);
#81=CIRCLE('',#289,102.);
#82=CIRCLE('',#291,102.);
#83=CIRCLE('',#292,102.);
#84=CIRCLE('',#294,109.15);
#85=CIRCLE('',#295,109.15);
#86=CIRCLE('',#297,109.15);
#87=CIRCLE('',#298,109.15);
#88=CIRCLE('',#300,117.5);
#89=CIRCLE('',#301,117.5);
#90=CIRCLE('',#303,117.5);
#91=CIRCLE('',#304,117.5);
#92=CIRCLE('',#306,120.);
#93=CIRCLE('',#307,120.);
#94=CIRCLE('',#309,120.);
#95=CIRCLE('',#310,120.);
#96=CIRCLE('',#312,2.5);
#97=CIRCLE('',#313,120.);
#98=CIRCLE('',#314,120.);
#99=CIRCLE('',#316,120.);
#100=CIRCLE('',#317,120.);
#101=CIRCLE('',#319,106.5);
#102=CIRCLE('',#320,106.5);
#103=CIRCLE('',#322,106.5);
#104=CIRCLE('',#323,106.5);
#105=VERTEX_POINT('',#422);
#106=VERTEX_POINT('',#423);
#107=VERTEX_POINT('',#425);
#108=VERTEX_POINT('',#427);
#109=VERTEX_POINT('',#432);
#110=VERTEX_POINT('',#433);
#111=VERTEX_POINT('',#437);
#112=VERTEX_POINT('',#439);
#113=VERTEX_POINT('',#443);
#114=VERTEX_POINT('',#444);
#115=VERTEX_POINT('',#448);
#116=VERTEX_POINT('',#449);
#117=VERTEX_POINT('',#454);
#118=VERTEX_POINT('',#455);
#119=VERTEX_POINT('',#459);
#120=VERTEX_POINT('',#461);
#121=VERTEX_POINT('',#465);
#122=VERTEX_POINT('',#466);
#123=VERTEX_POINT('',#470);
#124=VERTEX_POINT('',#471);
#125=VERTEX_POINT('',#476);
#126=VERTEX_POINT('',#478);
#127=VERTEX_POINT('',#482);
#128=VERTEX_POINT('',#483);
#129=VERTEX_POINT('',#488);
#130=VERTEX_POINT('',#489);
#131=VERTEX_POINT('',#493);
#132=VERTEX_POINT('',#495);
#133=EDGE_CURVE('',#105,#106,#76,.T.);
#134=EDGE_CURVE('',#106,#107,#62,.T.);
#135=EDGE_CURVE('',#108,#107,#77,.T.);
#136=EDGE_CURVE('',#107,#108,#78,.T.);
#137=EDGE_CURVE('',#106,#105,#79,.T.);
#138=EDGE_CURVE('',#109,#110,#80,.T.);
#139=EDGE_CURVE('',#110,#109,#81,.T.);
#140=EDGE_CURVE('',#110,#111,#63,.T.);
#141=EDGE_CURVE('',#112,#111,#82,.T.);
#142=EDGE_CURVE('',#111,#112,#83,.T.);
#143=EDGE_CURVE('',#113,#114,#84,.T.);
#144=EDGE_CURVE('',#114,#113,#85,.T.);
#145=EDGE_CURVE('',#115,#116,#86,.T.);
#146=EDGE_CURVE('',#116,#115,#87,.T.);
#147=EDGE_CURVE('',#116,#114,#64,.T.);
#148=EDGE_CURVE('',#117,#118,#88,.T.);
#149=EDGE_CURVE('',#118,#117,#89,.T.);
#150=EDGE_CURVE('',#118,#119,#65,.T.);
#151=EDGE_CURVE('',#120,#119,#90,.T.);
#152=EDGE_CURVE('',#119,#120,#91,.T.);
#153=EDGE_CURVE('',#121,#122,#92,.T.);
#154=EDGE_CURVE('',#122,#121,#93,.T.);
#155=EDGE_CURVE('',#123,#124,#94,.T.);
#156=EDGE_CURVE('',#124,#123,#95,.T.);
#157=EDGE_CURVE('',#124,#122,#66,.T.);
#158=EDGE_CURVE('',#123,#125,#96,.T.);
#159=EDGE_CURVE('',#126,#125,#97,.T.);
#160=EDGE_CURVE('',#125,#126,#98,.T.);
#161=EDGE_CURVE('',#127,#128,#99,.T.);
#162=EDGE_CURVE('',#128,#127,#100,.T.);
#163=EDGE_CURVE('',#128,#126,#67,.T.);
#164=EDGE_CURVE('',#129,#130,#101,.T.);
#165=EDGE_CURVE('',#130,#129,#102,.T.);
#166=EDGE_CURVE('',#130,#131,#68,.T.);
#167=EDGE_CURVE('',#132,#131,#103,.T.);
#168=EDGE_CURVE('',#131,#132,#104,.T.);
#169=ORIENTED_EDGE('',*,*,#133,.T.);
#170=ORIENTED_EDGE('',*,*,#134,.T.);
#171=ORIENTED_EDGE('',*,*,#135,.F.);
#172=ORIENTED_EDGE('',*,*,#136,.F.);
#173=ORIENTED_EDGE('',*,*,#134,.F.);
#174=ORIENTED_EDGE('',*,*,#137,.T.);
#175=ORIENTED_EDGE('',*,*,#138,.F.);
#176=ORIENTED_EDGE('',*,*,#139,.F.);
#177=ORIENTED_EDGE('',*,*,#135,.T.);
#178=ORIENTED_EDGE('',*,*,#136,.T.);
#179=ORIENTED_EDGE('',*,*,#138,.T.);
#180=ORIENTED_EDGE('',*,*,#140,.T.);
#181=ORIENTED_EDGE('',*,*,#141,.F.);
#182=ORIENTED_EDGE('',*,*,#142,.F.);
#183=ORIENTED_EDGE('',*,*,#140,.F.);
#184=ORIENTED_EDGE('',*,*,#139,.T.);
#185=ORIENTED_EDGE('',*,*,#143,.F.);
#186=ORIENTED_EDGE('',*,*,#144,.F.);
#187=ORIENTED_EDGE('',*,*,#141,.T.);
#188=ORIENTED_EDGE('',*,*,#142,.T.);
#189=ORIENTED_EDGE('',*,*,#145,.F.);
#190=ORIENTED_EDGE('',*,*,#146,.F.);
#191=ORIENTED_EDGE('',*,*,#147,.T.);
#192=ORIENTED_EDGE('',*,*,#144,.T.);
#193=ORIENTED_EDGE('',*,*,#143,.T.);
#194=ORIENTED_EDGE('',*,*,#147,.F.);
#195=ORIENTED_EDGE('',*,*,#148,.F.);
#196=ORIENTED_EDGE('',*,*,#149,.F.);
#197=ORIENTED_EDGE('',*,*,#145,.T.);
#198=ORIENTED_EDGE('',*,*,#146,.T.);
#199=ORIENTED_EDGE('',*,*,#148,.T.);
#200=ORIENTED_EDGE('',*,*,#150,.T.);
#201=ORIENTED_EDGE('',*,*,#151,.F.);
#202=ORIENTED_EDGE('',*,*,#152,.F.);
#203=ORIENTED_EDGE('',*,*,#150,.F.);
#204=ORIENTED_EDGE('',*,*,#149,.T.);
#205=ORIENTED_EDGE('',*,*,#153,.F.);
#206=ORIENTED_EDGE('',*,*,#154,.F.);
#207=ORIENTED_EDGE('',*,*,#151,.T.);
#208=ORIENTED_EDGE('',*,*,#152,.T.);
#209=ORIENTED_EDGE('',*,*,#155,.F.);
#210=ORIENTED_EDGE('',*,*,#156,.F.);
#211=ORIENTED_EDGE('',*,*,#157,.T.);
#212=ORIENTED_EDGE('',*,*,#154,.T.);
#213=ORIENTED_EDGE('',*,*,#153,.T.);
#214=ORIENTED_EDGE('',*,*,#157,.F.);
#215=ORIENTED_EDGE('',*,*,#155,.T.);
#216=ORIENTED_EDGE('',*,*,#156,.T.);
#217=ORIENTED_EDGE('',*,*,#158,.T.);
#218=ORIENTED_EDGE('',*,*,#159,.F.);
#219=ORIENTED_EDGE('',*,*,#160,.F.);
#220=ORIENTED_EDGE('',*,*,#158,.F.);
#221=ORIENTED_EDGE('',*,*,#161,.F.);
#222=ORIENTED_EDGE('',*,*,#162,.F.);
#223=ORIENTED_EDGE('',*,*,#163,.T.);
#224=ORIENTED_EDGE('',*,*,#159,.T.);
#225=ORIENTED_EDGE('',*,*,#160,.T.);
#226=ORIENTED_EDGE('',*,*,#163,.F.);
#227=ORIENTED_EDGE('',*,*,#161,.T.);
#228=ORIENTED_EDGE('',*,*,#162,.T.);
#229=ORIENTED_EDGE('',*,*,#164,.F.);
#230=ORIENTED_EDGE('',*,*,#165,.F.);
#231=ORIENTED_EDGE('',*,*,#164,.T.);
#232=ORIENTED_EDGE('',*,*,#166,.T.);
#233=ORIENTED_EDGE('',*,*,#167,.F.);
#234=ORIENTED_EDGE('',*,*,#168,.F.);
#235=ORIENTED_EDGE('',*,*,#166,.F.);
#236=ORIENTED_EDGE('',*,*,#165,.T.);
#237=ORIENTED_EDGE('',*,*,#167,.T.);
#238=ORIENTED_EDGE('',*,*,#168,.T.);
#239=ORIENTED_EDGE('',*,*,#133,.F.);
#240=ORIENTED_EDGE('',*,*,#137,.F.);
#241=CYLINDRICAL_SURFACE('',#282,100.);
#242=CYLINDRICAL_SURFACE('',#290,102.);
#243=CYLINDRICAL_SURFACE('',#296,109.15);
#244=CYLINDRICAL_SURFACE('',#302,117.5);
#245=CYLINDRICAL_SURFACE('',#308,120.);
#246=CYLINDRICAL_SURFACE('',#315,120.);
#247=CYLINDRICAL_SURFACE('',#321,106.5);
#248=ADVANCED_FACE('',(#28),#241,.F.);
#249=ADVANCED_FACE('',(#29,#16),#22,.T.);
#250=ADVANCED_FACE('',(#30),#242,.F.);
#251=ADVANCED_FACE('',(#31,#17),#23,.T.);
#252=ADVANCED_FACE('',(#32),#243,.T.);
#253=ADVANCED_FACE('',(#33,#18),#24,.T.);
#254=ADVANCED_FACE('',(#34),#244,.F.);
#255=ADVANCED_FACE('',(#35,#19),#25,.T.);
#256=ADVANCED_FACE('',(#36),#245,.T.);
#257=ADVANCED_FACE('',(#37),#15,.F.);
#258=ADVANCED_FACE('',(#38),#246,.T.);
#259=ADVANCED_FACE('',(#39,#20),#26,.T.);
#260=ADVANCED_FACE('',(#40),#247,.F.);
#261=ADVANCED_FACE('',(#41,#21),#27,.T.);
#262=CLOSED_SHELL('',(#248,#249,#250,#251,#252,#253,#254,#255,#256,#257,
#258,#259,#260,#261));
#263=DERIVED_UNIT_ELEMENT(#265,1.);
#264=DERIVED_UNIT_ELEMENT(#504,3.);
#265=(
MASS_UNIT()
NAMED_UNIT(*)
SI_UNIT($,.GRAM.)
);
#266=DERIVED_UNIT((#263,#264));
#267=MEASURE_REPRESENTATION_ITEM('density measure',
POSITIVE_RATIO_MEASURE(8.),#266);
#268=PROPERTY_DEFINITION_REPRESENTATION(#273,#270);
#269=PROPERTY_DEFINITION_REPRESENTATION(#274,#271);
#270=REPRESENTATION('material name',(#272),#501);
#271=REPRESENTATION('density',(#267),#501);
#272=DESCRIPTIVE_REPRESENTATION_ITEM('Stainless Steel',
'Stainless Steel');
#273=PROPERTY_DEFINITION('material property','material name',#511);
#274=PROPERTY_DEFINITION('material property','density of part',#511);
#275=DATE_TIME_ROLE('creation_date');
#276=APPLIED_DATE_AND_TIME_ASSIGNMENT(#277,#275,(#511));
#277=DATE_AND_TIME(#278,#279);
#278=CALENDAR_DATE(2014,7,7);
#279=LOCAL_TIME(13,41,27.,#280);
#280=COORDINATED_UNIVERSAL_TIME_OFFSET(0,0,.BEHIND.);
#281=AXIS2_PLACEMENT_3D('placement',#420,#325,#326);
#282=AXIS2_PLACEMENT_3D('',#421,#327,#328);
#283=AXIS2_PLACEMENT_3D('',#424,#329,#330);
#284=AXIS2_PLACEMENT_3D('',#428,#332,#333);
#285=AXIS2_PLACEMENT_3D('',#429,#334,#335);
#286=AXIS2_PLACEMENT_3D('',#430,#336,#337);
#287=AXIS2_PLACEMENT_3D('',#431,#338,#339);
#288=AXIS2_PLACEMENT_3D('',#434,#340,#341);
#289=AXIS2_PLACEMENT_3D('',#435,#342,#343);
#290=AXIS2_PLACEMENT_3D('',#436,#344,#345);
#291=AXIS2_PLACEMENT_3D('',#440,#347,#348);
#292=AXIS2_PLACEMENT_3D('',#441,#349,#350);
#293=AXIS2_PLACEMENT_3D('',#442,#351,#352);
#294=AXIS2_PLACEMENT_3D('',#445,#353,#354);
#295=AXIS2_PLACEMENT_3D('',#446,#355,#356);
#296=AXIS2_PLACEMENT_3D('',#447,#357,#358);
#297=AXIS2_PLACEMENT_3D('',#450,#359,#360);
#298=AXIS2_PLACEMENT_3D('',#451,#361,#362);
#299=AXIS2_PLACEMENT_3D('',#453,#364,#365);
#300=AXIS2_PLACEMENT_3D('',#456,#366,#367);
#301=AXIS2_PLACEMENT_3D('',#457,#368,#369);
#302=AXIS2_PLACEMENT_3D('',#458,#370,#371);
#303=AXIS2_PLACEMENT_3D('',#462,#373,#374);
#304=AXIS2_PLACEMENT_3D('',#463,#375,#376);
#305=AXIS2_PLACEMENT_3D('',#464,#377,#378);
#306=AXIS2_PLACEMENT_3D('',#467,#379,#380);
#307=AXIS2_PLACEMENT_3D('',#468,#381,#382);
#308=AXIS2_PLACEMENT_3D('',#469,#383,#384);
#309=AXIS2_PLACEMENT_3D('',#472,#385,#386);
#310=AXIS2_PLACEMENT_3D('',#473,#387,#388);
#311=AXIS2_PLACEMENT_3D('',#475,#390,#391);
#312=AXIS2_PLACEMENT_3D('',#477,#392,#393);
#313=AXIS2_PLACEMENT_3D('',#479,#394,#395);
#314=AXIS2_PLACEMENT_3D('',#480,#396,#397);
#315=AXIS2_PLACEMENT_3D('',#481,#398,#399);
#316=AXIS2_PLACEMENT_3D('',#484,#400,#401);
#317=AXIS2_PLACEMENT_3D('',#485,#402,#403);
#318=AXIS2_PLACEMENT_3D('',#487,#405,#406);
#319=AXIS2_PLACEMENT_3D('',#490,#407,#408);
#320=AXIS2_PLACEMENT_3D('',#491,#409,#410);
#321=AXIS2_PLACEMENT_3D('',#492,#411,#412);
#322=AXIS2_PLACEMENT_3D('',#496,#414,#415);
#323=AXIS2_PLACEMENT_3D('',#497,#416,#417);
#324=AXIS2_PLACEMENT_3D('',#498,#418,#419);
#325=DIRECTION('axis',(0.,0.,1.));
#326=DIRECTION('refdir',(1.,0.,0.));
#327=DIRECTION('center_axis',(1.,0.,0.));
#328=DIRECTION('ref_axis',(0.,0.,1.));
#329=DIRECTION('center_axis',(1.,0.,0.));
#330=DIRECTION('ref_axis',(0.,0.,-1.));
#331=DIRECTION('',(-1.,0.,0.));
#332=DIRECTION('center_axis',(1.,0.,0.));
#333=DIRECTION('ref_axis',(0.,0.,-1.));
#334=DIRECTION('center_axis',(1.,0.,0.));
#335=DIRECTION('ref_axis',(0.,0.,-1.));
#336=DIRECTION('center_axis',(1.,0.,0.));
#337=DIRECTION('ref_axis',(0.,0.,-1.));
#338=DIRECTION('center_axis',(-1.,0.,0.));
#339=DIRECTION('ref_axis',(0.,0.,1.));
#340=DIRECTION('center_axis',(1.,0.,0.));
#341=DIRECTION('ref_axis',(0.,0.,-1.));
#342=DIRECTION('center_axis',(1.,0.,0.));
#343=DIRECTION('ref_axis',(0.,0.,-1.));
#344=DIRECTION('center_axis',(1.,0.,0.));
#345=DIRECTION('ref_axis',(0.,0.,1.));
#346=DIRECTION('',(-1.,0.,0.));
#347=DIRECTION('center_axis',(1.,0.,0.));
#348=DIRECTION('ref_axis',(0.,0.,-1.));
#349=DIRECTION('center_axis',(1.,0.,0.));
#350=DIRECTION('ref_axis',(0.,0.,-1.));
#351=DIRECTION('center_axis',(-1.,0.,0.));
#352=DIRECTION('ref_axis',(0.,0.,1.));
#353=DIRECTION('center_axis',(1.,0.,0.));
#354=DIRECTION('ref_axis',(0.,0.,-1.));
#355=DIRECTION('center_axis',(1.,0.,0.));
#356=DIRECTION('ref_axis',(0.,0.,-1.));
#357=DIRECTION('center_axis',(1.,0.,0.));
#358=DIRECTION('ref_axis',(0.,0.,1.));
#359=DIRECTION('center_axis',(1.,0.,0.));
#360=DIRECTION('ref_axis',(0.,0.,-1.));
#361=DIRECTION('center_axis',(1.,0.,0.));
#362=DIRECTION('ref_axis',(0.,0.,-1.));
#363=DIRECTION('',(-1.,0.,0.));
#364=DIRECTION('center_axis',(-1.,0.,0.));
#365=DIRECTION('ref_axis',(0.,0.,1.));
#366=DIRECTION('center_axis',(1.,0.,0.));
#367=DIRECTION('ref_axis',(0.,0.,-1.));
#368=DIRECTION('center_axis',(1.,0.,0.));
#369=DIRECTION('ref_axis',(0.,0.,-1.));
#370=DIRECTION('center_axis',(1.,0.,0.));
#371=DIRECTION('ref_axis',(0.,0.,1.));
#372=DIRECTION('',(-1.,0.,0.));
#373=DIRECTION('center_axis',(1.,0.,0.));
#374=DIRECTION('ref_axis',(0.,0.,-1.));
#375=DIRECTION('center_axis',(1.,0.,0.));
#376=DIRECTION('ref_axis',(0.,0.,-1.));
#377=DIRECTION('center_axis',(-1.,0.,0.));
#378=DIRECTION('ref_axis',(0.,0.,1.));
#379=DIRECTION('center_axis',(1.,0.,0.));
#380=DIRECTION('ref_axis',(0.,0.,-1.));
#381=DIRECTION('center_axis',(1.,0.,0.));
#382=DIRECTION('ref_axis',(0.,0.,-1.));
#383=DIRECTION('center_axis',(1.,0.,0.));
#384=DIRECTION('ref_axis',(0.,0.,1.));
#385=DIRECTION('center_axis',(1.,0.,0.));
#386=DIRECTION('ref_axis',(0.,0.,-1.));
#387=DIRECTION('center_axis',(1.,0.,0.));
#388=DIRECTION('ref_axis',(0.,0.,-1.));
#389=DIRECTION('',(-1.,0.,0.));
#390=DIRECTION('center_axis',(1.,0.,0.));
#391=DIRECTION('ref_axis',(0.,0.,-1.));
#392=DIRECTION('center_axis',(0.,-1.,-1.22464679914735E-16));
#393=DIRECTION('ref_axis',(0.,-1.22464679914735E-16,1.));
#394=DIRECTION('center_axis',(1.,0.,0.));
#395=DIRECTION('ref_axis',(0.,0.,-1.));
#396=DIRECTION('center_axis',(1.,0.,0.));
#397=DIRECTION('ref_axis',(0.,0.,-1.));
#398=DIRECTION('center_axis',(1.,0.,0.));
#399=DIRECTION('ref_axis',(0.,0.,1.));
#400=DIRECTION('center_axis',(1.,0.,0.));
#401=DIRECTION('ref_axis',(0.,0.,-1.));
#402=DIRECTION('center_axis',(1.,0.,0.));
#403=DIRECTION('ref_axis',(0.,0.,-1.));
#404=DIRECTION('',(-1.,0.,0.));
#405=DIRECTION('center_axis',(1.,0.,0.));
#406=DIRECTION('ref_axis',(0.,0.,-1.));
#407=DIRECTION('center_axis',(1.,0.,0.));
#408=DIRECTION('ref_axis',(0.,0.,-1.));
#409=DIRECTION('center_axis',(1.,0.,0.));
#410=DIRECTION('ref_axis',(0.,0.,-1.));
#411=DIRECTION('center_axis',(1.,0.,0.));
#412=DIRECTION('ref_axis',(0.,0.,1.));
#413=DIRECTION('',(-1.,0.,0.));
#414=DIRECTION('center_axis',(1.,0.,0.));
#415=DIRECTION('ref_axis',(0.,0.,-1.));
#416=DIRECTION('center_axis',(1.,0.,0.));
#417=DIRECTION('ref_axis',(0.,0.,-1.));
#418=DIRECTION('center_axis',(1.,0.,0.));
#419=DIRECTION('ref_axis',(0.,0.,-1.));
#420=CARTESIAN_POINT('',(0.,0.,0.));
#421=CARTESIAN_POINT('Origin',(-5.5,0.,0.));
#422=CARTESIAN_POINT('',(-4.5,0.,100.));
#423=CARTESIAN_POINT('',(-4.5,1.22464679914735E-14,-100.));
#424=CARTESIAN_POINT('Origin',(-4.5,0.,0.));
#425=CARTESIAN_POINT('',(-6.5,1.22464679914735E-14,-100.));
#426=CARTESIAN_POINT('',(-5.5,1.22464679914735E-14,-100.));
#427=CARTESIAN_POINT('',(-6.5,0.,100.));
#428=CARTESIAN_POINT('Origin',(-6.5,0.,0.));
#429=CARTESIAN_POINT('Origin',(-6.5,0.,0.));
#430=CARTESIAN_POINT('Origin',(-4.5,0.,0.));
#431=CARTESIAN_POINT('Origin',(-6.5,0.,102.));
#432=CARTESIAN_POINT('',(-6.5,0.,102.));
#433=CARTESIAN_POINT('',(-6.5,1.2491397351303E-14,-102.));
#434=CARTESIAN_POINT('Origin',(-6.5,0.,0.));
#435=CARTESIAN_POINT('Origin',(-6.5,0.,0.));
#436=CARTESIAN_POINT('Origin',(-9.25,0.,0.));
#437=CARTESIAN_POINT('',(-12.,1.2491397351303E-14,-102.));
#438=CARTESIAN_POINT('',(-9.25,1.2491397351303E-14,-102.));
#439=CARTESIAN_POINT('',(-12.,0.,102.));
#440=CARTESIAN_POINT('Origin',(-12.,0.,0.));
#441=CARTESIAN_POINT('Origin',(-12.,0.,0.));
#442=CARTESIAN_POINT('Origin',(-12.,0.,109.15));
#443=CARTESIAN_POINT('',(-12.,0.,109.15));
#444=CARTESIAN_POINT('',(-12.,1.33670198126934E-14,-109.15));
#445=CARTESIAN_POINT('Origin',(-12.,0.,0.));
#446=CARTESIAN_POINT('Origin',(-12.,0.,0.));
#447=CARTESIAN_POINT('Origin',(-11.125,0.,0.));
#448=CARTESIAN_POINT('',(-10.25,0.,109.15));
#449=CARTESIAN_POINT('',(-10.25,1.33670198126934E-14,-109.15));
#450=CARTESIAN_POINT('Origin',(-10.25,0.,0.));
#451=CARTESIAN_POINT('Origin',(-10.25,0.,0.));
#452=CARTESIAN_POINT('',(-11.125,1.33670198126934E-14,-109.15));
#453=CARTESIAN_POINT('Origin',(-10.25,0.,117.5));
#454=CARTESIAN_POINT('',(-10.25,0.,117.5));
#455=CARTESIAN_POINT('',(-10.25,1.43895998899814E-14,-117.5));
#456=CARTESIAN_POINT('Origin',(-10.25,0.,0.));
#457=CARTESIAN_POINT('Origin',(-10.25,0.,0.));
#458=CARTESIAN_POINT('Origin',(-11.125,0.,0.));
#459=CARTESIAN_POINT('',(-12.,1.43895998899814E-14,-117.5));
#460=CARTESIAN_POINT('',(-11.125,1.43895998899814E-14,-117.5));
#461=CARTESIAN_POINT('',(-12.,0.,117.5));
#462=CARTESIAN_POINT('Origin',(-12.,0.,0.));
#463=CARTESIAN_POINT('Origin',(-12.,0.,0.));
#464=CARTESIAN_POINT('Origin',(-12.,0.,120.));
#465=CARTESIAN_POINT('',(-12.,0.,120.));
#466=CARTESIAN_POINT('',(-12.,1.46957615897682E-14,-120.));
#467=CARTESIAN_POINT('Origin',(-12.,0.,0.));
#468=CARTESIAN_POINT('Origin',(-12.,0.,0.));
#469=CARTESIAN_POINT('Origin',(-10.25,0.,0.));
#470=CARTESIAN_POINT('',(-8.5,0.,120.));
#471=CARTESIAN_POINT('',(-8.5,1.46957615897682E-14,-120.));
#472=CARTESIAN_POINT('Origin',(-8.5,0.,0.));
#473=CARTESIAN_POINT('Origin',(-8.5,0.,0.));
#474=CARTESIAN_POINT('',(-10.25,1.46957615897682E-14,-120.));
#475=CARTESIAN_POINT('Origin',(-6.,0.,0.));
#476=CARTESIAN_POINT('',(-3.5,0.,120.));
#477=CARTESIAN_POINT('Origin',(-6.,-1.46957615897682E-14,120.));
#478=CARTESIAN_POINT('',(-3.5,1.46957615897682E-14,-120.));
#479=CARTESIAN_POINT('Origin',(-3.5,0.,0.));
#480=CARTESIAN_POINT('Origin',(-3.5,0.,0.));
#481=CARTESIAN_POINT('Origin',(-1.75,0.,0.));
#482=CARTESIAN_POINT('',(0.,0.,120.));
#483=CARTESIAN_POINT('',(0.,1.46957615897682E-14,-120.));
#484=CARTESIAN_POINT('Origin',(0.,0.,0.));
#485=CARTESIAN_POINT('Origin',(0.,0.,0.));
#486=CARTESIAN_POINT('',(-1.75,1.46957615897682E-14,-120.));
#487=CARTESIAN_POINT('Origin',(0.,0.,106.5));
#488=CARTESIAN_POINT('',(0.,0.,106.5));
#489=CARTESIAN_POINT('',(0.,1.30424884109193E-14,-106.5));
#490=CARTESIAN_POINT('Origin',(0.,0.,0.));
#491=CARTESIAN_POINT('Origin',(0.,0.,0.));
#492=CARTESIAN_POINT('Origin',(-2.25,0.,0.));
#493=CARTESIAN_POINT('',(-4.5,1.30424884109193E-14,-106.5));
#494=CARTESIAN_POINT('',(-2.25,1.30424884109193E-14,-106.5));
#495=CARTESIAN_POINT('',(-4.5,0.,106.5));
#496=CARTESIAN_POINT('Origin',(-4.5,0.,0.));
#497=CARTESIAN_POINT('Origin',(-4.5,0.,0.));
#498=CARTESIAN_POINT('Origin',(-4.5,0.,100.));
#499=UNCERTAINTY_MEASURE_WITH_UNIT(LENGTH_MEASURE(0.01),#503,
'DISTANCE_ACCURACY_VALUE',
'Maximum model space distance between geometric entities at asserted c
onnectivities');
#500=UNCERTAINTY_MEASURE_WITH_UNIT(LENGTH_MEASURE(0.01),#503,
'DISTANCE_ACCURACY_VALUE',
'Maximum model space distance between geometric entities at asserted c
onnectivities');
#501=(
GEOMETRIC_REPRESENTATION_CONTEXT(3)
GLOBAL_UNCERTAINTY_ASSIGNED_CONTEXT((#499))
GLOBAL_UNIT_ASSIGNED_CONTEXT((#503,#506,#505))
REPRESENTATION_CONTEXT('','3D')
);
#502=(
GEOMETRIC_REPRESENTATION_CONTEXT(3)
GLOBAL_UNCERTAINTY_ASSIGNED_CONTEXT((#500))
GLOBAL_UNIT_ASSIGNED_CONTEXT((#503,#506,#505))
REPRESENTATION_CONTEXT('','3D')
);
#503=(
LENGTH_UNIT()
NAMED_UNIT(*)
SI_UNIT(.MILLI.,.METRE.)
);
#504=(
LENGTH_UNIT()
NAMED_UNIT(*)
SI_UNIT(.CENTI.,.METRE.)
);
#505=(
NAMED_UNIT(*)
SI_UNIT($,.STERADIAN.)
SOLID_ANGLE_UNIT()
);
#506=(
NAMED_UNIT(*)
PLANE_ANGLE_UNIT()
SI_UNIT($,.RADIAN.)
);
#507=SHAPE_DEFINITION_REPRESENTATION(#508,#509);
#508=PRODUCT_DEFINITION_SHAPE('',$,#511);
#509=SHAPE_REPRESENTATION('',(#281),#501);
#510=PRODUCT_DEFINITION_CONTEXT('part definition',#515,'design');
#511=PRODUCT_DEFINITION('FL-200LF-W','FL-200LF-W',#512,#510);
#512=PRODUCT_DEFINITION_FORMATION('',$,#517);
#513=PRODUCT_RELATED_PRODUCT_CATEGORY('FL-200LF-W','FL-200LF-W',(#517));
#514=APPLICATION_PROTOCOL_DEFINITION('international standard',
'automotive_design',2009,#515);
#515=APPLICATION_CONTEXT(
'Core Data for Automotive Mechanical Design Process');
#516=PRODUCT_CONTEXT('part definition',#515,'mechanical');
#517=PRODUCT('FL-200LF-W','FL-200LF-W',$,(#516));
#518=PRESENTATION_STYLE_ASSIGNMENT((#519));
#519=SURFACE_STYLE_USAGE(.BOTH.,#520);
#520=SURFACE_SIDE_STYLE('',(#521));
#521=SURFACE_STYLE_FILL_AREA(#522);
#522=FILL_AREA_STYLE('',(#523));
#523=FILL_AREA_STYLE_COLOUR('',#524);
#524=COLOUR_RGB('',0.745098039215686,0.737254901960784,0.729411764705882);
ENDSEC;
END-ISO-10303-21;
