ISO-10303-21;
HEADER;
/* Generated by software containing ST-Developer
 * from STEP Tools, Inc. (www.steptools.com) 
 */

FILE_DESCRIPTION(
/* description */ (''),
/* implementation_level */ '2;1');

FILE_NAME(
/* name */ 'G:\\Flanges + FITTINGS\\NW16KF\\Step files\\FL-16KFUS.stp',

/* time_stamp */ '2018-03-26T14:42:51+01:00',
/* author */ ('paul'),
/* organization */ (''),
/* preprocessor_version */ 'ST-DEVELOPER v17',
/* originating_system */ 'Autodesk Inventor 2018',
/* authorisation */ '');

FILE_SCHEMA (('AUTOMOTIVE_DESIGN { 1 0 10303 214 3 1 1 }'));
ENDSEC;

DATA;
#10=MECHANICAL_DESIGN_GEOMETRIC_PRESENTATION_REPRESENTATION('',(#13),#387);
#11=SHAPE_REPRESENTATION_RELATIONSHIP('SRR','None',#394,#12);
#12=ADVANCED_BREP_SHAPE_REPRESENTATION('',(#14),#386);
#13=STYLED_ITEM('',(#403),#14);
#14=MANIFOLD_SOLID_BREP('Solid1',#202);
#15=FACE_BOUND('',#40,.T.);
#16=FACE_BOUND('',#46,.T.);
#17=PLANE('',#229);
#18=PLANE('',#234);
#19=PLANE('',#240);
#20=PLANE('',#252);
#21=CYLINDRICAL_SURFACE('',#226,6.25);
#22=CYLINDRICAL_SURFACE('',#239,8.6);
#23=CYLINDRICAL_SURFACE('',#243,15.);
#24=CYLINDRICAL_SURFACE('',#249,9.55);
#25=FACE_OUTER_BOUND('',#37,.T.);
#26=FACE_OUTER_BOUND('',#38,.T.);
#27=FACE_OUTER_BOUND('',#39,.T.);
#28=FACE_OUTER_BOUND('',#41,.T.);
#29=FACE_OUTER_BOUND('',#42,.T.);
#30=FACE_OUTER_BOUND('',#43,.T.);
#31=FACE_OUTER_BOUND('',#44,.T.);
#32=FACE_OUTER_BOUND('',#45,.T.);
#33=FACE_OUTER_BOUND('',#47,.T.);
#34=FACE_OUTER_BOUND('',#48,.T.);
#35=FACE_OUTER_BOUND('',#49,.T.);
#36=FACE_OUTER_BOUND('',#50,.T.);
#37=EDGE_LOOP('',(#132,#133,#134,#135,#136));
#38=EDGE_LOOP('',(#137,#138,#139,#140,#141,#142));
#39=EDGE_LOOP('',(#143,#144));
#40=EDGE_LOOP('',(#145));
#41=EDGE_LOOP('',(#146,#147,#148,#149,#150));
#42=EDGE_LOOP('',(#151));
#43=EDGE_LOOP('',(#152,#153,#154,#155,#156));
#44=EDGE_LOOP('',(#157,#158,#159,#160,#161,#162));
#45=EDGE_LOOP('',(#163,#164));
#46=EDGE_LOOP('',(#165));
#47=EDGE_LOOP('',(#166,#167,#168,#169,#170,#171));
#48=EDGE_LOOP('',(#172,#173,#174,#175,#176,#177));
#49=EDGE_LOOP('',(#178,#179,#180,#181,#182,#183));
#50=EDGE_LOOP('',(#184,#185));
#51=LINE('',#330,#59);
#52=LINE('',#336,#60);
#53=LINE('',#347,#61);
#54=LINE('',#354,#62);
#55=LINE('',#359,#63);
#56=LINE('',#370,#64);
#57=LINE('',#376,#65);
#58=LINE('',#382,#66);
#59=VECTOR('',#259,6.375);
#60=VECTOR('',#266,6.25);
#61=VECTOR('',#279,6.125);
#62=VECTOR('',#288,8.725);
#63=VECTOR('',#295,8.6);
#64=VECTOR('',#308,15.);
#65=VECTOR('',#315,12.275);
#66=VECTOR('',#322,9.55);
#67=CIRCLE('',#223,6.5);
#68=CIRCLE('',#224,6.25);
#69=CIRCLE('',#225,6.25);
#70=CIRCLE('',#227,6.25);
#71=CIRCLE('',#228,6.25);
#72=CIRCLE('',#230,8.6);
#73=CIRCLE('',#231,8.6);
#74=CIRCLE('',#233,6.);
#75=CIRCLE('',#236,8.85);
#76=CIRCLE('',#237,8.6);
#77=CIRCLE('',#238,8.6);
#78=CIRCLE('',#241,15.);
#79=CIRCLE('',#242,15.);
#80=CIRCLE('',#244,15.);
#81=CIRCLE('',#245,15.);
#82=CIRCLE('',#247,9.55);
#83=CIRCLE('',#248,9.55);
#84=CIRCLE('',#250,9.55);
#85=CIRCLE('',#251,9.55);
#86=VERTEX_POINT('',#327);
#87=VERTEX_POINT('',#329);
#88=VERTEX_POINT('',#331);
#89=VERTEX_POINT('',#335);
#90=VERTEX_POINT('',#337);
#91=VERTEX_POINT('',#341);
#92=VERTEX_POINT('',#342);
#93=VERTEX_POINT('',#346);
#94=VERTEX_POINT('',#351);
#95=VERTEX_POINT('',#353);
#96=VERTEX_POINT('',#355);
#97=VERTEX_POINT('',#361);
#98=VERTEX_POINT('',#362);
#99=VERTEX_POINT('',#366);
#100=VERTEX_POINT('',#367);
#101=VERTEX_POINT('',#372);
#102=VERTEX_POINT('',#373);
#103=VERTEX_POINT('',#378);
#104=VERTEX_POINT('',#379);
#105=EDGE_CURVE('',#86,#86,#67,.T.);
#106=EDGE_CURVE('',#86,#87,#51,.T.);
#107=EDGE_CURVE('',#87,#88,#68,.T.);
#108=EDGE_CURVE('',#88,#87,#69,.T.);
#109=EDGE_CURVE('',#88,#89,#52,.T.);
#110=EDGE_CURVE('',#90,#89,#70,.T.);
#111=EDGE_CURVE('',#89,#90,#71,.T.);
#112=EDGE_CURVE('',#91,#92,#72,.T.);
#113=EDGE_CURVE('',#92,#91,#73,.T.);
#114=EDGE_CURVE('',#90,#93,#53,.T.);
#115=EDGE_CURVE('',#93,#93,#74,.T.);
#116=EDGE_CURVE('',#94,#94,#75,.T.);
#117=EDGE_CURVE('',#94,#95,#54,.T.);
#118=EDGE_CURVE('',#95,#96,#76,.T.);
#119=EDGE_CURVE('',#96,#95,#77,.T.);
#120=EDGE_CURVE('',#92,#96,#55,.T.);
#121=EDGE_CURVE('',#97,#98,#78,.T.);
#122=EDGE_CURVE('',#98,#97,#79,.T.);
#123=EDGE_CURVE('',#99,#100,#80,.T.);
#124=EDGE_CURVE('',#100,#99,#81,.T.);
#125=EDGE_CURVE('',#100,#98,#56,.T.);
#126=EDGE_CURVE('',#101,#102,#82,.T.);
#127=EDGE_CURVE('',#102,#101,#83,.T.);
#128=EDGE_CURVE('',#102,#100,#57,.T.);
#129=EDGE_CURVE('',#103,#104,#84,.T.);
#130=EDGE_CURVE('',#104,#103,#85,.T.);
#131=EDGE_CURVE('',#104,#102,#58,.T.);
#132=ORIENTED_EDGE('',*,*,#105,.T.);
#133=ORIENTED_EDGE('',*,*,#106,.T.);
#134=ORIENTED_EDGE('',*,*,#107,.T.);
#135=ORIENTED_EDGE('',*,*,#108,.T.);
#136=ORIENTED_EDGE('',*,*,#106,.F.);
#137=ORIENTED_EDGE('',*,*,#107,.F.);
#138=ORIENTED_EDGE('',*,*,#108,.F.);
#139=ORIENTED_EDGE('',*,*,#109,.T.);
#140=ORIENTED_EDGE('',*,*,#110,.F.);
#141=ORIENTED_EDGE('',*,*,#111,.F.);
#142=ORIENTED_EDGE('',*,*,#109,.F.);
#143=ORIENTED_EDGE('',*,*,#112,.F.);
#144=ORIENTED_EDGE('',*,*,#113,.F.);
#145=ORIENTED_EDGE('',*,*,#105,.F.);
#146=ORIENTED_EDGE('',*,*,#110,.T.);
#147=ORIENTED_EDGE('',*,*,#111,.T.);
#148=ORIENTED_EDGE('',*,*,#114,.T.);
#149=ORIENTED_EDGE('',*,*,#115,.T.);
#150=ORIENTED_EDGE('',*,*,#114,.F.);
#151=ORIENTED_EDGE('',*,*,#115,.F.);
#152=ORIENTED_EDGE('',*,*,#116,.T.);
#153=ORIENTED_EDGE('',*,*,#117,.T.);
#154=ORIENTED_EDGE('',*,*,#118,.T.);
#155=ORIENTED_EDGE('',*,*,#119,.T.);
#156=ORIENTED_EDGE('',*,*,#117,.F.);
#157=ORIENTED_EDGE('',*,*,#112,.T.);
#158=ORIENTED_EDGE('',*,*,#120,.T.);
#159=ORIENTED_EDGE('',*,*,#118,.F.);
#160=ORIENTED_EDGE('',*,*,#119,.F.);
#161=ORIENTED_EDGE('',*,*,#120,.F.);
#162=ORIENTED_EDGE('',*,*,#113,.T.);
#163=ORIENTED_EDGE('',*,*,#121,.F.);
#164=ORIENTED_EDGE('',*,*,#122,.F.);
#165=ORIENTED_EDGE('',*,*,#116,.F.);
#166=ORIENTED_EDGE('',*,*,#123,.F.);
#167=ORIENTED_EDGE('',*,*,#124,.F.);
#168=ORIENTED_EDGE('',*,*,#125,.T.);
#169=ORIENTED_EDGE('',*,*,#122,.T.);
#170=ORIENTED_EDGE('',*,*,#121,.T.);
#171=ORIENTED_EDGE('',*,*,#125,.F.);
#172=ORIENTED_EDGE('',*,*,#126,.F.);
#173=ORIENTED_EDGE('',*,*,#127,.F.);
#174=ORIENTED_EDGE('',*,*,#128,.T.);
#175=ORIENTED_EDGE('',*,*,#124,.T.);
#176=ORIENTED_EDGE('',*,*,#123,.T.);
#177=ORIENTED_EDGE('',*,*,#128,.F.);
#178=ORIENTED_EDGE('',*,*,#129,.F.);
#179=ORIENTED_EDGE('',*,*,#130,.F.);
#180=ORIENTED_EDGE('',*,*,#131,.T.);
#181=ORIENTED_EDGE('',*,*,#127,.T.);
#182=ORIENTED_EDGE('',*,*,#126,.T.);
#183=ORIENTED_EDGE('',*,*,#131,.F.);
#184=ORIENTED_EDGE('',*,*,#129,.T.);
#185=ORIENTED_EDGE('',*,*,#130,.T.);
#186=CONICAL_SURFACE('',#222,6.375,0.78539816339745);
#187=CONICAL_SURFACE('',#232,6.125,0.785398163397449);
#188=CONICAL_SURFACE('',#235,8.725,0.785398163397449);
#189=CONICAL_SURFACE('',#246,12.275,1.30899693899575);
#190=ADVANCED_FACE('',(#25),#186,.T.);
#191=ADVANCED_FACE('',(#26),#21,.T.);
#192=ADVANCED_FACE('',(#27,#15),#17,.T.);
#193=ADVANCED_FACE('',(#28),#187,.T.);
#194=ADVANCED_FACE('',(#29),#18,.T.);
#195=ADVANCED_FACE('',(#30),#188,.F.);
#196=ADVANCED_FACE('',(#31),#22,.F.);
#197=ADVANCED_FACE('',(#32,#16),#19,.T.);
#198=ADVANCED_FACE('',(#33),#23,.T.);
#199=ADVANCED_FACE('',(#34),#189,.T.);
#200=ADVANCED_FACE('',(#35),#24,.T.);
#201=ADVANCED_FACE('',(#36),#20,.T.);
#202=CLOSED_SHELL('',(#190,#191,#192,#193,#194,#195,#196,#197,#198,#199,
#200,#201));
#203=DERIVED_UNIT_ELEMENT(#205,1.);
#204=DERIVED_UNIT_ELEMENT(#389,3.);
#205=(
MASS_UNIT()
NAMED_UNIT(*)
SI_UNIT($,.GRAM.)
);
#206=DERIVED_UNIT((#203,#204));
#207=MEASURE_REPRESENTATION_ITEM('density measure',
POSITIVE_RATIO_MEASURE(8.),#206);
#208=PROPERTY_DEFINITION_REPRESENTATION(#213,#210);
#209=PROPERTY_DEFINITION_REPRESENTATION(#214,#211);
#210=REPRESENTATION('material name',(#212),#386);
#211=REPRESENTATION('density',(#207),#386);
#212=DESCRIPTIVE_REPRESENTATION_ITEM('Stainless Steel AISI 304',
'Stainless Steel AISI 304');
#213=PROPERTY_DEFINITION('material property','material name',#396);
#214=PROPERTY_DEFINITION('material property','density of part',#396);
#215=DATE_TIME_ROLE('creation_date');
#216=APPLIED_DATE_AND_TIME_ASSIGNMENT(#217,#215,(#396));
#217=DATE_AND_TIME(#218,#219);
#218=CALENDAR_DATE(2014,20,11);
#219=LOCAL_TIME(11,0,44.,#220);
#220=COORDINATED_UNIVERSAL_TIME_OFFSET(0,0,.BEHIND.);
#221=AXIS2_PLACEMENT_3D('placement',#325,#253,#254);
#222=AXIS2_PLACEMENT_3D('',#326,#255,#256);
#223=AXIS2_PLACEMENT_3D('',#328,#257,#258);
#224=AXIS2_PLACEMENT_3D('',#332,#260,#261);
#225=AXIS2_PLACEMENT_3D('',#333,#262,#263);
#226=AXIS2_PLACEMENT_3D('',#334,#264,#265);
#227=AXIS2_PLACEMENT_3D('',#338,#267,#268);
#228=AXIS2_PLACEMENT_3D('',#339,#269,#270);
#229=AXIS2_PLACEMENT_3D('',#340,#271,#272);
#230=AXIS2_PLACEMENT_3D('',#343,#273,#274);
#231=AXIS2_PLACEMENT_3D('',#344,#275,#276);
#232=AXIS2_PLACEMENT_3D('',#345,#277,#278);
#233=AXIS2_PLACEMENT_3D('',#348,#280,#281);
#234=AXIS2_PLACEMENT_3D('',#349,#282,#283);
#235=AXIS2_PLACEMENT_3D('',#350,#284,#285);
#236=AXIS2_PLACEMENT_3D('',#352,#286,#287);
#237=AXIS2_PLACEMENT_3D('',#356,#289,#290);
#238=AXIS2_PLACEMENT_3D('',#357,#291,#292);
#239=AXIS2_PLACEMENT_3D('',#358,#293,#294);
#240=AXIS2_PLACEMENT_3D('',#360,#296,#297);
#241=AXIS2_PLACEMENT_3D('',#363,#298,#299);
#242=AXIS2_PLACEMENT_3D('',#364,#300,#301);
#243=AXIS2_PLACEMENT_3D('',#365,#302,#303);
#244=AXIS2_PLACEMENT_3D('',#368,#304,#305);
#245=AXIS2_PLACEMENT_3D('',#369,#306,#307);
#246=AXIS2_PLACEMENT_3D('',#371,#309,#310);
#247=AXIS2_PLACEMENT_3D('',#374,#311,#312);
#248=AXIS2_PLACEMENT_3D('',#375,#313,#314);
#249=AXIS2_PLACEMENT_3D('',#377,#316,#317);
#250=AXIS2_PLACEMENT_3D('',#380,#318,#319);
#251=AXIS2_PLACEMENT_3D('',#381,#320,#321);
#252=AXIS2_PLACEMENT_3D('',#383,#323,#324);
#253=DIRECTION('axis',(0.,0.,1.));
#254=DIRECTION('refdir',(1.,0.,0.));
#255=DIRECTION('center_axis',(0.,1.,0.));
#256=DIRECTION('ref_axis',(1.,0.,0.));
#257=DIRECTION('center_axis',(0.,-1.,0.));
#258=DIRECTION('ref_axis',(1.,0.,0.));
#259=DIRECTION('',(0.707106781186549,-0.707106781186546,-8.65956056235495E-17));
#260=DIRECTION('center_axis',(0.,1.,0.));
#261=DIRECTION('ref_axis',(1.,0.,0.));
#262=DIRECTION('center_axis',(0.,1.,0.));
#263=DIRECTION('ref_axis',(1.,0.,0.));
#264=DIRECTION('center_axis',(0.,1.,0.));
#265=DIRECTION('ref_axis',(-1.,0.,0.));
#266=DIRECTION('',(0.,-1.,0.));
#267=DIRECTION('center_axis',(0.,-1.,0.));
#268=DIRECTION('ref_axis',(1.,0.,0.));
#269=DIRECTION('center_axis',(0.,-1.,0.));
#270=DIRECTION('ref_axis',(1.,0.,0.));
#271=DIRECTION('center_axis',(0.,-1.,0.));
#272=DIRECTION('ref_axis',(0.,0.,-1.));
#273=DIRECTION('center_axis',(0.,1.,0.));
#274=DIRECTION('ref_axis',(1.,0.,0.));
#275=DIRECTION('center_axis',(0.,1.,0.));
#276=DIRECTION('ref_axis',(1.,0.,0.));
#277=DIRECTION('center_axis',(0.,1.,0.));
#278=DIRECTION('ref_axis',(1.,0.,0.));
#279=DIRECTION('',(0.707106781186548,-0.707106781186547,-8.65956056235494E-17));
#280=DIRECTION('center_axis',(0.,1.,0.));
#281=DIRECTION('ref_axis',(1.,0.,0.));
#282=DIRECTION('center_axis',(0.,-1.,0.));
#283=DIRECTION('ref_axis',(0.,0.,-1.));
#284=DIRECTION('center_axis',(0.,-1.,0.));
#285=DIRECTION('ref_axis',(1.,0.,0.));
#286=DIRECTION('center_axis',(0.,-1.,0.));
#287=DIRECTION('ref_axis',(1.,0.,0.));
#288=DIRECTION('',(0.707106781186548,0.707106781186547,8.65956056235494E-17));
#289=DIRECTION('center_axis',(0.,1.,0.));
#290=DIRECTION('ref_axis',(1.,0.,0.));
#291=DIRECTION('center_axis',(0.,1.,0.));
#292=DIRECTION('ref_axis',(1.,0.,0.));
#293=DIRECTION('center_axis',(0.,1.,0.));
#294=DIRECTION('ref_axis',(-1.,0.,0.));
#295=DIRECTION('',(0.,-1.,0.));
#296=DIRECTION('center_axis',(0.,-1.,0.));
#297=DIRECTION('ref_axis',(0.,0.,-1.));
#298=DIRECTION('center_axis',(0.,1.,0.));
#299=DIRECTION('ref_axis',(1.,0.,0.));
#300=DIRECTION('center_axis',(0.,1.,0.));
#301=DIRECTION('ref_axis',(1.,0.,0.));
#302=DIRECTION('center_axis',(0.,1.,0.));
#303=DIRECTION('ref_axis',(-1.,0.,0.));
#304=DIRECTION('center_axis',(0.,1.,0.));
#305=DIRECTION('ref_axis',(1.,0.,0.));
#306=DIRECTION('center_axis',(0.,1.,0.));
#307=DIRECTION('ref_axis',(1.,0.,0.));
#308=DIRECTION('',(0.,-1.,0.));
#309=DIRECTION('center_axis',(0.,-1.,0.));
#310=DIRECTION('ref_axis',(-1.,0.,0.));
#311=DIRECTION('center_axis',(0.,1.,0.));
#312=DIRECTION('ref_axis',(1.,0.,0.));
#313=DIRECTION('center_axis',(0.,1.,0.));
#314=DIRECTION('ref_axis',(1.,0.,0.));
#315=DIRECTION('',(0.965925826289068,-0.258819045102521,-1.18291797137867E-16));
#316=DIRECTION('center_axis',(0.,1.,0.));
#317=DIRECTION('ref_axis',(-1.,0.,0.));
#318=DIRECTION('center_axis',(0.,1.,0.));
#319=DIRECTION('ref_axis',(1.,0.,0.));
#320=DIRECTION('center_axis',(0.,1.,0.));
#321=DIRECTION('ref_axis',(1.,0.,0.));
#322=DIRECTION('',(0.,-1.,0.));
#323=DIRECTION('center_axis',(0.,1.,0.));
#324=DIRECTION('ref_axis',(0.,0.,1.));
#325=CARTESIAN_POINT('',(0.,0.,0.));
#326=CARTESIAN_POINT('Origin',(0.,2.375,0.));
#327=CARTESIAN_POINT('',(-6.5,2.5,-7.9602041944578E-16));
#328=CARTESIAN_POINT('Origin',(0.,2.5,0.));
#329=CARTESIAN_POINT('',(-6.25,2.25,7.65404249467096E-16));
#330=CARTESIAN_POINT('',(-6.375,2.375,7.80712334456438E-16));
#331=CARTESIAN_POINT('',(6.25,2.25,-7.65404249467096E-16));
#332=CARTESIAN_POINT('Origin',(0.,2.25,0.));
#333=CARTESIAN_POINT('Origin',(0.,2.25,0.));
#334=CARTESIAN_POINT('Origin',(0.,1.25,0.));
#335=CARTESIAN_POINT('',(6.25,0.25,-7.65404249467096E-16));
#336=CARTESIAN_POINT('',(6.25,1.25,-7.65404249467096E-16));
#337=CARTESIAN_POINT('',(-6.25,0.25,-7.65404249467096E-16));
#338=CARTESIAN_POINT('Origin',(0.,0.25,0.));
#339=CARTESIAN_POINT('Origin',(0.,0.25,0.));
#340=CARTESIAN_POINT('Origin',(-8.6,2.5,0.));
#341=CARTESIAN_POINT('',(-8.6,2.5,0.));
#342=CARTESIAN_POINT('',(8.6,2.5,-1.05319624726672E-15));
#343=CARTESIAN_POINT('Origin',(0.,2.5,0.));
#344=CARTESIAN_POINT('Origin',(0.,2.5,0.));
#345=CARTESIAN_POINT('Origin',(0.,0.125,0.));
#346=CARTESIAN_POINT('',(-6.,0.,7.34788079488412E-16));
#347=CARTESIAN_POINT('',(-6.125,0.125,7.50096164477754E-16));
#348=CARTESIAN_POINT('Origin',(0.,0.,0.));
#349=CARTESIAN_POINT('Origin',(-6.25,0.,0.));
#350=CARTESIAN_POINT('Origin',(0.,0.125,0.));
#351=CARTESIAN_POINT('',(-8.85,0.,-1.08381241724541E-15));
#352=CARTESIAN_POINT('Origin',(0.,0.,0.));
#353=CARTESIAN_POINT('',(-8.6,0.25,1.05319624726672E-15));
#354=CARTESIAN_POINT('',(-8.725,0.125,-1.06850433225607E-15));
#355=CARTESIAN_POINT('',(8.6,0.25,-1.05319624726672E-15));
#356=CARTESIAN_POINT('Origin',(0.,0.25,0.));
#357=CARTESIAN_POINT('Origin',(0.,0.25,0.));
#358=CARTESIAN_POINT('Origin',(0.,1.25,0.));
#359=CARTESIAN_POINT('',(8.6,1.25,-1.05319624726672E-15));
#360=CARTESIAN_POINT('Origin',(-15.,0.,0.));
#361=CARTESIAN_POINT('',(-15.,0.,0.));
#362=CARTESIAN_POINT('',(15.,0.,-1.83697019872103E-15));
#363=CARTESIAN_POINT('Origin',(0.,0.,0.));
#364=CARTESIAN_POINT('Origin',(0.,0.,0.));
#365=CARTESIAN_POINT('Origin',(0.,1.5,0.));
#366=CARTESIAN_POINT('',(-15.,3.,0.));
#367=CARTESIAN_POINT('',(15.,3.,-1.83697019872103E-15));
#368=CARTESIAN_POINT('Origin',(0.,3.,0.));
#369=CARTESIAN_POINT('Origin',(0.,3.,0.));
#370=CARTESIAN_POINT('',(15.,1.5,-1.83697019872103E-15));
#371=CARTESIAN_POINT('Origin',(0.,3.73016154937481,0.));
#372=CARTESIAN_POINT('',(-9.55,4.46032309874962,0.));
#373=CARTESIAN_POINT('',(9.55,4.46032309874962,-1.16953769318572E-15));
#374=CARTESIAN_POINT('Origin',(0.,4.46032309874962,0.));
#375=CARTESIAN_POINT('Origin',(0.,4.46032309874962,0.));
#376=CARTESIAN_POINT('',(12.275,3.73016154937481,-1.50325394595338E-15));
#377=CARTESIAN_POINT('Origin',(0.,11.7801615493748,0.));
#378=CARTESIAN_POINT('',(-9.55,19.1,0.));
#379=CARTESIAN_POINT('',(9.55,19.1,-1.16953769318572E-15));
#380=CARTESIAN_POINT('Origin',(0.,19.1,0.));
#381=CARTESIAN_POINT('Origin',(0.,19.1,0.));
#382=CARTESIAN_POINT('',(9.55,11.7801615493748,-1.16953769318572E-15));
#383=CARTESIAN_POINT('Origin',(0.,19.1,0.));
#384=UNCERTAINTY_MEASURE_WITH_UNIT(LENGTH_MEASURE(0.01),#388,
'DISTANCE_ACCURACY_VALUE',
'Maximum model space distance between geometric entities at asserted c
onnectivities');
#385=UNCERTAINTY_MEASURE_WITH_UNIT(LENGTH_MEASURE(0.01),#388,
'DISTANCE_ACCURACY_VALUE',
'Maximum model space distance between geometric entities at asserted c
onnectivities');
#386=(
GEOMETRIC_REPRESENTATION_CONTEXT(3)
GLOBAL_UNCERTAINTY_ASSIGNED_CONTEXT((#384))
GLOBAL_UNIT_ASSIGNED_CONTEXT((#388,#391,#390))
REPRESENTATION_CONTEXT('','3D')
);
#387=(
GEOMETRIC_REPRESENTATION_CONTEXT(3)
GLOBAL_UNCERTAINTY_ASSIGNED_CONTEXT((#385))
GLOBAL_UNIT_ASSIGNED_CONTEXT((#388,#391,#390))
REPRESENTATION_CONTEXT('','3D')
);
#388=(
LENGTH_UNIT()
NAMED_UNIT(*)
SI_UNIT(.MILLI.,.METRE.)
);
#389=(
LENGTH_UNIT()
NAMED_UNIT(*)
SI_UNIT(.CENTI.,.METRE.)
);
#390=(
NAMED_UNIT(*)
SI_UNIT($,.STERADIAN.)
SOLID_ANGLE_UNIT()
);
#391=(
NAMED_UNIT(*)
PLANE_ANGLE_UNIT()
SI_UNIT($,.RADIAN.)
);
#392=SHAPE_DEFINITION_REPRESENTATION(#393,#394);
#393=PRODUCT_DEFINITION_SHAPE('',$,#396);
#394=SHAPE_REPRESENTATION('',(#221),#386);
#395=PRODUCT_DEFINITION_CONTEXT('part definition',#400,'design');
#396=PRODUCT_DEFINITION('FL-16KFUS','FL-16KFUS',#397,#395);
#397=PRODUCT_DEFINITION_FORMATION('',$,#402);
#398=PRODUCT_RELATED_PRODUCT_CATEGORY('FL-16KFUS','FL-16KFUS',(#402));
#399=APPLICATION_PROTOCOL_DEFINITION('international standard',
'automotive_design',2009,#400);
#400=APPLICATION_CONTEXT(
'Core Data for Automotive Mechanical Design Process');
#401=PRODUCT_CONTEXT('part definition',#400,'mechanical');
#402=PRODUCT('FL-16KFUS','FL-16KFUS',$,(#401));
#403=PRESENTATION_STYLE_ASSIGNMENT((#404));
#404=SURFACE_STYLE_USAGE(.BOTH.,#405);
#405=SURFACE_SIDE_STYLE('',(#406));
#406=SURFACE_STYLE_FILL_AREA(#407);
#407=FILL_AREA_STYLE('',(#408));
#408=FILL_AREA_STYLE_COLOUR('',#409);
#409=COLOUR_RGB('',0.745098039215686,0.737254901960784,0.729411764705882);
ENDSEC;
END-ISO-10303-21;
