ISO-10303-21;
HEADER;
/* Generated by software containing ST-Developer
 * from STEP Tools, Inc. (www.steptools.com) 
 */

FILE_DESCRIPTION(
/* description */ (''),
/* implementation_level */ '2;1');

FILE_NAME(
/* name */ 'G:\\Flanges + FITTINGS\\NW16KF\\Step files\\FL-16KF-10W.st
p',
/* time_stamp */ '2018-03-28T12:44:27+01:00',
/* author */ ('paul'),
/* organization */ (''),
/* preprocessor_version */ 'ST-DEVELOPER v17',
/* originating_system */ 'Autodesk Inventor 2018',
/* authorisation */ '');

FILE_SCHEMA (('AUTOMOTIVE_DESIGN { 1 0 10303 214 3 1 1 }'));
ENDSEC;

DATA;
#10=MECHANICAL_DESIGN_GEOMETRIC_PRESENTATION_REPRESENTATION('',(#13),#271);
#11=SHAPE_REPRESENTATION_RELATIONSHIP('SRR','None',#278,#12);
#12=ADVANCED_BREP_SHAPE_REPRESENTATION('',(#14),#270);
#13=STYLED_ITEM('',(#287),#14);
#14=MANIFOLD_SOLID_BREP('Solid1',#139);
#15=FACE_BOUND('',#32,.T.);
#16=FACE_BOUND('',#35,.T.);
#17=FACE_BOUND('',#38,.T.);
#18=PLANE('',#167);
#19=PLANE('',#173);
#20=PLANE('',#179);
#21=CONICAL_SURFACE('',#164,11.2679491924311,1.30899693899575);
#22=FACE_OUTER_BOUND('',#29,.T.);
#23=FACE_OUTER_BOUND('',#30,.T.);
#24=FACE_OUTER_BOUND('',#31,.T.);
#25=FACE_OUTER_BOUND('',#33,.T.);
#26=FACE_OUTER_BOUND('',#34,.T.);
#27=FACE_OUTER_BOUND('',#36,.T.);
#28=FACE_OUTER_BOUND('',#37,.T.);
#29=EDGE_LOOP('',(#93,#94,#95,#96,#97,#98));
#30=EDGE_LOOP('',(#99,#100,#101,#102,#103,#104));
#31=EDGE_LOOP('',(#105,#106));
#32=EDGE_LOOP('',(#107,#108));
#33=EDGE_LOOP('',(#109,#110,#111,#112,#113,#114));
#34=EDGE_LOOP('',(#115,#116));
#35=EDGE_LOOP('',(#117,#118));
#36=EDGE_LOOP('',(#119,#120,#121,#122,#123,#124));
#37=EDGE_LOOP('',(#125,#126));
#38=EDGE_LOOP('',(#127,#128));
#39=LINE('',#235,#43);
#40=LINE('',#244,#44);
#41=LINE('',#252,#45);
#42=LINE('',#263,#46);
#43=VECTOR('',#188,15.);
#44=VECTOR('',#199,11.2679491924311);
#45=VECTOR('',#208,4.80000000000001);
#46=VECTOR('',#221,8.6);
#47=CIRCLE('',#160,15.);
#48=CIRCLE('',#161,15.);
#49=CIRCLE('',#162,15.);
#50=CIRCLE('',#163,15.);
#51=CIRCLE('',#165,7.53589838486224);
#52=CIRCLE('',#166,7.53589838486224);
#53=CIRCLE('',#168,4.8);
#54=CIRCLE('',#169,4.8);
#55=CIRCLE('',#171,4.80000000000001);
#56=CIRCLE('',#172,4.80000000000001);
#57=CIRCLE('',#174,8.6);
#58=CIRCLE('',#175,8.6);
#59=CIRCLE('',#177,8.6);
#60=CIRCLE('',#178,8.6);
#61=VERTEX_POINT('',#230);
#62=VERTEX_POINT('',#231);
#63=VERTEX_POINT('',#234);
#64=VERTEX_POINT('',#236);
#65=VERTEX_POINT('',#240);
#66=VERTEX_POINT('',#241);
#67=VERTEX_POINT('',#246);
#68=VERTEX_POINT('',#247);
#69=VERTEX_POINT('',#251);
#70=VERTEX_POINT('',#253);
#71=VERTEX_POINT('',#257);
#72=VERTEX_POINT('',#258);
#73=VERTEX_POINT('',#262);
#74=VERTEX_POINT('',#264);
#75=EDGE_CURVE('',#61,#62,#47,.T.);
#76=EDGE_CURVE('',#62,#61,#48,.T.);
#77=EDGE_CURVE('',#62,#63,#39,.T.);
#78=EDGE_CURVE('',#63,#64,#49,.T.);
#79=EDGE_CURVE('',#64,#63,#50,.T.);
#80=EDGE_CURVE('',#65,#66,#51,.T.);
#81=EDGE_CURVE('',#66,#65,#52,.T.);
#82=EDGE_CURVE('',#66,#62,#40,.T.);
#83=EDGE_CURVE('',#67,#68,#53,.T.);
#84=EDGE_CURVE('',#68,#67,#54,.T.);
#85=EDGE_CURVE('',#68,#69,#41,.T.);
#86=EDGE_CURVE('',#70,#69,#55,.T.);
#87=EDGE_CURVE('',#69,#70,#56,.T.);
#88=EDGE_CURVE('',#71,#72,#57,.T.);
#89=EDGE_CURVE('',#72,#71,#58,.T.);
#90=EDGE_CURVE('',#72,#73,#42,.T.);
#91=EDGE_CURVE('',#74,#73,#59,.T.);
#92=EDGE_CURVE('',#73,#74,#60,.T.);
#93=ORIENTED_EDGE('',*,*,#75,.F.);
#94=ORIENTED_EDGE('',*,*,#76,.F.);
#95=ORIENTED_EDGE('',*,*,#77,.T.);
#96=ORIENTED_EDGE('',*,*,#78,.T.);
#97=ORIENTED_EDGE('',*,*,#79,.T.);
#98=ORIENTED_EDGE('',*,*,#77,.F.);
#99=ORIENTED_EDGE('',*,*,#80,.F.);
#100=ORIENTED_EDGE('',*,*,#81,.F.);
#101=ORIENTED_EDGE('',*,*,#82,.T.);
#102=ORIENTED_EDGE('',*,*,#76,.T.);
#103=ORIENTED_EDGE('',*,*,#75,.T.);
#104=ORIENTED_EDGE('',*,*,#82,.F.);
#105=ORIENTED_EDGE('',*,*,#80,.T.);
#106=ORIENTED_EDGE('',*,*,#81,.T.);
#107=ORIENTED_EDGE('',*,*,#83,.F.);
#108=ORIENTED_EDGE('',*,*,#84,.F.);
#109=ORIENTED_EDGE('',*,*,#83,.T.);
#110=ORIENTED_EDGE('',*,*,#85,.T.);
#111=ORIENTED_EDGE('',*,*,#86,.F.);
#112=ORIENTED_EDGE('',*,*,#87,.F.);
#113=ORIENTED_EDGE('',*,*,#85,.F.);
#114=ORIENTED_EDGE('',*,*,#84,.T.);
#115=ORIENTED_EDGE('',*,*,#88,.F.);
#116=ORIENTED_EDGE('',*,*,#89,.F.);
#117=ORIENTED_EDGE('',*,*,#86,.T.);
#118=ORIENTED_EDGE('',*,*,#87,.T.);
#119=ORIENTED_EDGE('',*,*,#88,.T.);
#120=ORIENTED_EDGE('',*,*,#90,.T.);
#121=ORIENTED_EDGE('',*,*,#91,.F.);
#122=ORIENTED_EDGE('',*,*,#92,.F.);
#123=ORIENTED_EDGE('',*,*,#90,.F.);
#124=ORIENTED_EDGE('',*,*,#89,.T.);
#125=ORIENTED_EDGE('',*,*,#79,.F.);
#126=ORIENTED_EDGE('',*,*,#78,.F.);
#127=ORIENTED_EDGE('',*,*,#91,.T.);
#128=ORIENTED_EDGE('',*,*,#92,.T.);
#129=CYLINDRICAL_SURFACE('',#159,15.);
#130=CYLINDRICAL_SURFACE('',#170,4.80000000000001);
#131=CYLINDRICAL_SURFACE('',#176,8.6);
#132=ADVANCED_FACE('',(#22),#129,.T.);
#133=ADVANCED_FACE('',(#23),#21,.T.);
#134=ADVANCED_FACE('',(#24,#15),#18,.T.);
#135=ADVANCED_FACE('',(#25),#130,.F.);
#136=ADVANCED_FACE('',(#26,#16),#19,.T.);
#137=ADVANCED_FACE('',(#27),#131,.F.);
#138=ADVANCED_FACE('',(#28,#17),#20,.T.);
#139=CLOSED_SHELL('',(#132,#133,#134,#135,#136,#137,#138));
#140=DERIVED_UNIT_ELEMENT(#142,1.);
#141=DERIVED_UNIT_ELEMENT(#273,3.);
#142=(
MASS_UNIT()
NAMED_UNIT(*)
SI_UNIT($,.GRAM.)
);
#143=DERIVED_UNIT((#140,#141));
#144=MEASURE_REPRESENTATION_ITEM('density measure',
POSITIVE_RATIO_MEASURE(8.),#143);
#145=PROPERTY_DEFINITION_REPRESENTATION(#150,#147);
#146=PROPERTY_DEFINITION_REPRESENTATION(#151,#148);
#147=REPRESENTATION('material name',(#149),#270);
#148=REPRESENTATION('density',(#144),#270);
#149=DESCRIPTIVE_REPRESENTATION_ITEM('Stainless Steel AISI 304',
'Stainless Steel AISI 304');
#150=PROPERTY_DEFINITION('material property','material name',#280);
#151=PROPERTY_DEFINITION('material property','density of part',#280);
#152=DATE_TIME_ROLE('creation_date');
#153=APPLIED_DATE_AND_TIME_ASSIGNMENT(#154,#152,(#280));
#154=DATE_AND_TIME(#155,#156);
#155=CALENDAR_DATE(2014,20,11);
#156=LOCAL_TIME(11,0,44.,#157);
#157=COORDINATED_UNIVERSAL_TIME_OFFSET(0,0,.BEHIND.);
#158=AXIS2_PLACEMENT_3D('placement',#228,#180,#181);
#159=AXIS2_PLACEMENT_3D('',#229,#182,#183);
#160=AXIS2_PLACEMENT_3D('',#232,#184,#185);
#161=AXIS2_PLACEMENT_3D('',#233,#186,#187);
#162=AXIS2_PLACEMENT_3D('',#237,#189,#190);
#163=AXIS2_PLACEMENT_3D('',#238,#191,#192);
#164=AXIS2_PLACEMENT_3D('',#239,#193,#194);
#165=AXIS2_PLACEMENT_3D('',#242,#195,#196);
#166=AXIS2_PLACEMENT_3D('',#243,#197,#198);
#167=AXIS2_PLACEMENT_3D('',#245,#200,#201);
#168=AXIS2_PLACEMENT_3D('',#248,#202,#203);
#169=AXIS2_PLACEMENT_3D('',#249,#204,#205);
#170=AXIS2_PLACEMENT_3D('',#250,#206,#207);
#171=AXIS2_PLACEMENT_3D('',#254,#209,#210);
#172=AXIS2_PLACEMENT_3D('',#255,#211,#212);
#173=AXIS2_PLACEMENT_3D('',#256,#213,#214);
#174=AXIS2_PLACEMENT_3D('',#259,#215,#216);
#175=AXIS2_PLACEMENT_3D('',#260,#217,#218);
#176=AXIS2_PLACEMENT_3D('',#261,#219,#220);
#177=AXIS2_PLACEMENT_3D('',#265,#222,#223);
#178=AXIS2_PLACEMENT_3D('',#266,#224,#225);
#179=AXIS2_PLACEMENT_3D('',#267,#226,#227);
#180=DIRECTION('axis',(0.,0.,1.));
#181=DIRECTION('refdir',(1.,0.,0.));
#182=DIRECTION('center_axis',(0.,1.,0.));
#183=DIRECTION('ref_axis',(-1.,0.,0.));
#184=DIRECTION('center_axis',(0.,1.,0.));
#185=DIRECTION('ref_axis',(1.,0.,0.));
#186=DIRECTION('center_axis',(0.,1.,0.));
#187=DIRECTION('ref_axis',(1.,0.,0.));
#188=DIRECTION('',(0.,-1.,0.));
#189=DIRECTION('center_axis',(0.,1.,0.));
#190=DIRECTION('ref_axis',(1.,0.,0.));
#191=DIRECTION('center_axis',(0.,1.,0.));
#192=DIRECTION('ref_axis',(1.,0.,0.));
#193=DIRECTION('center_axis',(0.,-1.,0.));
#194=DIRECTION('ref_axis',(-1.,0.,0.));
#195=DIRECTION('center_axis',(0.,1.,0.));
#196=DIRECTION('ref_axis',(1.,0.,0.));
#197=DIRECTION('center_axis',(0.,1.,0.));
#198=DIRECTION('ref_axis',(1.,0.,0.));
#199=DIRECTION('',(0.965925826289068,-0.258819045102521,-1.18291797137867E-16));
#200=DIRECTION('center_axis',(0.,1.,0.));
#201=DIRECTION('ref_axis',(0.,0.,1.));
#202=DIRECTION('center_axis',(0.,1.,0.));
#203=DIRECTION('ref_axis',(1.,0.,0.));
#204=DIRECTION('center_axis',(0.,1.,0.));
#205=DIRECTION('ref_axis',(1.,0.,0.));
#206=DIRECTION('center_axis',(0.,1.,0.));
#207=DIRECTION('ref_axis',(-1.,0.,0.));
#208=DIRECTION('',(0.,-1.,0.));
#209=DIRECTION('center_axis',(0.,1.,0.));
#210=DIRECTION('ref_axis',(1.,0.,0.));
#211=DIRECTION('center_axis',(0.,1.,0.));
#212=DIRECTION('ref_axis',(1.,0.,0.));
#213=DIRECTION('center_axis',(0.,-1.,0.));
#214=DIRECTION('ref_axis',(0.,0.,-1.));
#215=DIRECTION('center_axis',(0.,1.,0.));
#216=DIRECTION('ref_axis',(1.,0.,0.));
#217=DIRECTION('center_axis',(0.,1.,0.));
#218=DIRECTION('ref_axis',(1.,0.,0.));
#219=DIRECTION('center_axis',(0.,1.,0.));
#220=DIRECTION('ref_axis',(-1.,0.,0.));
#221=DIRECTION('',(0.,-1.,0.));
#222=DIRECTION('center_axis',(0.,1.,0.));
#223=DIRECTION('ref_axis',(1.,0.,0.));
#224=DIRECTION('center_axis',(0.,1.,0.));
#225=DIRECTION('ref_axis',(1.,0.,0.));
#226=DIRECTION('center_axis',(0.,-1.,0.));
#227=DIRECTION('ref_axis',(0.,0.,-1.));
#228=CARTESIAN_POINT('',(0.,0.,0.));
#229=CARTESIAN_POINT('Origin',(0.,1.5,0.));
#230=CARTESIAN_POINT('',(-15.,3.,0.));
#231=CARTESIAN_POINT('',(15.,3.,-1.83697019872103E-15));
#232=CARTESIAN_POINT('Origin',(0.,3.,0.));
#233=CARTESIAN_POINT('Origin',(0.,3.,0.));
#234=CARTESIAN_POINT('',(15.,0.,-1.83697019872103E-15));
#235=CARTESIAN_POINT('',(15.,1.5,-1.83697019872103E-15));
#236=CARTESIAN_POINT('',(-15.,0.,0.));
#237=CARTESIAN_POINT('Origin',(0.,0.,0.));
#238=CARTESIAN_POINT('Origin',(0.,0.,0.));
#239=CARTESIAN_POINT('Origin',(0.,4.,0.));
#240=CARTESIAN_POINT('',(-7.53589838486224,5.,0.));
#241=CARTESIAN_POINT('',(7.53589838486223,5.,-9.22881383572125E-16));
#242=CARTESIAN_POINT('Origin',(0.,5.,0.));
#243=CARTESIAN_POINT('Origin',(0.,5.,0.));
#244=CARTESIAN_POINT('',(11.2679491924311,4.,-1.37992579114658E-15));
#245=CARTESIAN_POINT('Origin',(-4.8,5.,0.));
#246=CARTESIAN_POINT('',(-4.8,5.,0.));
#247=CARTESIAN_POINT('',(4.80000000000001,5.,-5.8783046359073E-16));
#248=CARTESIAN_POINT('Origin',(0.,5.,0.));
#249=CARTESIAN_POINT('Origin',(0.,5.,0.));
#250=CARTESIAN_POINT('Origin',(0.,3.75,0.));
#251=CARTESIAN_POINT('',(4.80000000000001,2.5,-5.8783046359073E-16));
#252=CARTESIAN_POINT('',(4.80000000000001,3.75,-5.8783046359073E-16));
#253=CARTESIAN_POINT('',(-4.80000000000001,2.5,0.));
#254=CARTESIAN_POINT('Origin',(0.,2.5,0.));
#255=CARTESIAN_POINT('Origin',(0.,2.5,0.));
#256=CARTESIAN_POINT('Origin',(-8.6,2.5,0.));
#257=CARTESIAN_POINT('',(-8.6,2.5,0.));
#258=CARTESIAN_POINT('',(8.6,2.5,-1.05319624726672E-15));
#259=CARTESIAN_POINT('Origin',(0.,2.5,0.));
#260=CARTESIAN_POINT('Origin',(0.,2.5,0.));
#261=CARTESIAN_POINT('Origin',(0.,1.25,0.));
#262=CARTESIAN_POINT('',(8.6,0.,-1.05319624726672E-15));
#263=CARTESIAN_POINT('',(8.6,1.25,-1.05319624726672E-15));
#264=CARTESIAN_POINT('',(-8.6,0.,0.));
#265=CARTESIAN_POINT('Origin',(0.,0.,0.));
#266=CARTESIAN_POINT('Origin',(0.,0.,0.));
#267=CARTESIAN_POINT('Origin',(-15.,0.,0.));
#268=UNCERTAINTY_MEASURE_WITH_UNIT(LENGTH_MEASURE(0.01),#272,
'DISTANCE_ACCURACY_VALUE',
'Maximum model space distance between geometric entities at asserted c
onnectivities');
#269=UNCERTAINTY_MEASURE_WITH_UNIT(LENGTH_MEASURE(0.01),#272,
'DISTANCE_ACCURACY_VALUE',
'Maximum model space distance between geometric entities at asserted c
onnectivities');
#270=(
GEOMETRIC_REPRESENTATION_CONTEXT(3)
GLOBAL_UNCERTAINTY_ASSIGNED_CONTEXT((#268))
GLOBAL_UNIT_ASSIGNED_CONTEXT((#272,#275,#274))
REPRESENTATION_CONTEXT('','3D')
);
#271=(
GEOMETRIC_REPRESENTATION_CONTEXT(3)
GLOBAL_UNCERTAINTY_ASSIGNED_CONTEXT((#269))
GLOBAL_UNIT_ASSIGNED_CONTEXT((#272,#275,#274))
REPRESENTATION_CONTEXT('','3D')
);
#272=(
LENGTH_UNIT()
NAMED_UNIT(*)
SI_UNIT(.MILLI.,.METRE.)
);
#273=(
LENGTH_UNIT()
NAMED_UNIT(*)
SI_UNIT(.CENTI.,.METRE.)
);
#274=(
NAMED_UNIT(*)
SI_UNIT($,.STERADIAN.)
SOLID_ANGLE_UNIT()
);
#275=(
NAMED_UNIT(*)
PLANE_ANGLE_UNIT()
SI_UNIT($,.RADIAN.)
);
#276=SHAPE_DEFINITION_REPRESENTATION(#277,#278);
#277=PRODUCT_DEFINITION_SHAPE('',$,#280);
#278=SHAPE_REPRESENTATION('',(#158),#270);
#279=PRODUCT_DEFINITION_CONTEXT('part definition',#284,'design');
#280=PRODUCT_DEFINITION('FL-16KF-10W','FL-16KF-10W',#281,#279);
#281=PRODUCT_DEFINITION_FORMATION('',$,#286);
#282=PRODUCT_RELATED_PRODUCT_CATEGORY('FL-16KF-10W','FL-16KF-10W',(#286));
#283=APPLICATION_PROTOCOL_DEFINITION('international standard',
'automotive_design',2009,#284);
#284=APPLICATION_CONTEXT(
'Core Data for Automotive Mechanical Design Process');
#285=PRODUCT_CONTEXT('part definition',#284,'mechanical');
#286=PRODUCT('FL-16KF-10W','FL-16KF-10W',$,(#285));
#287=PRESENTATION_STYLE_ASSIGNMENT((#288));
#288=SURFACE_STYLE_USAGE(.BOTH.,#289);
#289=SURFACE_SIDE_STYLE('',(#290));
#290=SURFACE_STYLE_FILL_AREA(#291);
#291=FILL_AREA_STYLE('',(#292));
#292=FILL_AREA_STYLE_COLOUR('',#293);
#293=COLOUR_RGB('',0.745098039215686,0.737254901960784,0.729411764705882);
ENDSEC;
END-ISO-10303-21;
