ISO-10303-21;
HEADER;
/* Generated by software containing ST-Developer
 * from STEP Tools, Inc. (www.steptools.com) 
 */

FILE_DESCRIPTION(
/* description */ (''),
/* implementation_level */ '2;1');

FILE_NAME(
/* name */ 'G:\\FLANGES & FITTINGS\\NW160LF\\Step files\\FL-160LF-W159.
stp',
/* time_stamp */ '2018-07-12T09:32:32+01:00',
/* author */ ('paul'),
/* organization */ (''),
/* preprocessor_version */ 'ST-DEVELOPER v17',
/* originating_system */ 'Autodesk Inventor 2019',
/* authorisation */ '');

FILE_SCHEMA (('AUTOMOTIVE_DESIGN { 1 0 10303 214 3 1 1 }'));
ENDSEC;

DATA;
#10=MECHANICAL_DESIGN_GEOMETRIC_PRESENTATION_REPRESENTATION('',(#13),#487);
#11=SHAPE_REPRESENTATION_RELATIONSHIP('SRR','None',#494,#12);
#12=ADVANCED_BREP_SHAPE_REPRESENTATION('',(#14),#486);
#13=STYLED_ITEM('',(#503),#14);
#14=MANIFOLD_SOLID_BREP('Solid1',#255);
#15=TOROIDAL_SURFACE('',#295,90.,2.5);
#16=FACE_BOUND('',#49,.T.);
#17=FACE_BOUND('',#53,.T.);
#18=FACE_BOUND('',#57,.T.);
#19=FACE_BOUND('',#60,.T.);
#20=FACE_BOUND('',#63,.T.);
#21=PLANE('',#282);
#22=PLANE('',#292);
#23=PLANE('',#300);
#24=PLANE('',#306);
#25=PLANE('',#312);
#26=CYLINDRICAL_SURFACE('',#279,90.);
#27=CYLINDRICAL_SURFACE('',#289,90.);
#28=CYLINDRICAL_SURFACE('',#297,76.5);
#29=CYLINDRICAL_SURFACE('',#303,79.75);
#30=CYLINDRICAL_SURFACE('',#309,81.5);
#31=CYLINDRICAL_SURFACE('',#315,87.5);
#32=FACE_OUTER_BOUND('',#46,.T.);
#33=FACE_OUTER_BOUND('',#47,.T.);
#34=FACE_OUTER_BOUND('',#48,.T.);
#35=FACE_OUTER_BOUND('',#50,.T.);
#36=FACE_OUTER_BOUND('',#51,.T.);
#37=FACE_OUTER_BOUND('',#52,.T.);
#38=FACE_OUTER_BOUND('',#54,.T.);
#39=FACE_OUTER_BOUND('',#55,.T.);
#40=FACE_OUTER_BOUND('',#56,.T.);
#41=FACE_OUTER_BOUND('',#58,.T.);
#42=FACE_OUTER_BOUND('',#59,.T.);
#43=FACE_OUTER_BOUND('',#61,.T.);
#44=FACE_OUTER_BOUND('',#62,.T.);
#45=FACE_OUTER_BOUND('',#64,.T.);
#46=EDGE_LOOP('',(#169,#170,#171,#172,#173));
#47=EDGE_LOOP('',(#174,#175,#176,#177,#178,#179));
#48=EDGE_LOOP('',(#180));
#49=EDGE_LOOP('',(#181,#182));
#50=EDGE_LOOP('',(#183,#184,#185,#186,#187));
#51=EDGE_LOOP('',(#188,#189,#190,#191,#192,#193));
#52=EDGE_LOOP('',(#194));
#53=EDGE_LOOP('',(#195,#196));
#54=EDGE_LOOP('',(#197,#198,#199,#200,#201,#202));
#55=EDGE_LOOP('',(#203,#204,#205,#206,#207,#208));
#56=EDGE_LOOP('',(#209,#210));
#57=EDGE_LOOP('',(#211,#212));
#58=EDGE_LOOP('',(#213,#214,#215,#216,#217,#218));
#59=EDGE_LOOP('',(#219,#220));
#60=EDGE_LOOP('',(#221,#222));
#61=EDGE_LOOP('',(#223,#224,#225,#226,#227,#228));
#62=EDGE_LOOP('',(#229,#230));
#63=EDGE_LOOP('',(#231,#232));
#64=EDGE_LOOP('',(#233,#234,#235,#236,#237,#238));
#65=LINE('',#413,#73);
#66=LINE('',#419,#74);
#67=LINE('',#434,#75);
#68=LINE('',#441,#76);
#69=LINE('',#451,#77);
#70=LINE('',#462,#78);
#71=LINE('',#476,#79);
#72=LINE('',#483,#80);
#73=VECTOR('',#322,89.75);
#74=VECTOR('',#329,90.);
#75=VECTOR('',#346,89.75);
#76=VECTOR('',#355,90.);
#77=VECTOR('',#368,76.5);
#78=VECTOR('',#381,79.75);
#79=VECTOR('',#398,81.5);
#80=VECTOR('',#407,87.5);
#81=CIRCLE('',#276,89.5);
#82=CIRCLE('',#277,90.);
#83=CIRCLE('',#278,90.);
#84=CIRCLE('',#280,90.);
#85=CIRCLE('',#281,90.);
#86=CIRCLE('',#283,76.5);
#87=CIRCLE('',#284,76.5);
#88=CIRCLE('',#286,90.);
#89=CIRCLE('',#287,90.);
#90=CIRCLE('',#288,89.5);
#91=CIRCLE('',#290,90.);
#92=CIRCLE('',#291,90.);
#93=CIRCLE('',#293,87.5);
#94=CIRCLE('',#294,87.5);
#95=CIRCLE('',#296,2.5);
#96=CIRCLE('',#298,76.5);
#97=CIRCLE('',#299,76.5);
#98=CIRCLE('',#301,79.75);
#99=CIRCLE('',#302,79.75);
#100=CIRCLE('',#304,79.75);
#101=CIRCLE('',#305,79.75);
#102=CIRCLE('',#307,81.5);
#103=CIRCLE('',#308,81.5);
#104=CIRCLE('',#310,81.5);
#105=CIRCLE('',#311,81.5);
#106=CIRCLE('',#313,87.5);
#107=CIRCLE('',#314,87.5);
#108=VERTEX_POINT('',#410);
#109=VERTEX_POINT('',#412);
#110=VERTEX_POINT('',#414);
#111=VERTEX_POINT('',#418);
#112=VERTEX_POINT('',#420);
#113=VERTEX_POINT('',#424);
#114=VERTEX_POINT('',#425);
#115=VERTEX_POINT('',#429);
#116=VERTEX_POINT('',#430);
#117=VERTEX_POINT('',#433);
#118=VERTEX_POINT('',#437);
#119=VERTEX_POINT('',#438);
#120=VERTEX_POINT('',#443);
#121=VERTEX_POINT('',#444);
#122=VERTEX_POINT('',#450);
#123=VERTEX_POINT('',#452);
#124=VERTEX_POINT('',#456);
#125=VERTEX_POINT('',#457);
#126=VERTEX_POINT('',#461);
#127=VERTEX_POINT('',#463);
#128=VERTEX_POINT('',#467);
#129=VERTEX_POINT('',#468);
#130=VERTEX_POINT('',#472);
#131=VERTEX_POINT('',#473);
#132=VERTEX_POINT('',#478);
#133=VERTEX_POINT('',#479);
#134=EDGE_CURVE('',#108,#108,#81,.T.);
#135=EDGE_CURVE('',#108,#109,#65,.T.);
#136=EDGE_CURVE('',#109,#110,#82,.T.);
#137=EDGE_CURVE('',#110,#109,#83,.T.);
#138=EDGE_CURVE('',#110,#111,#66,.T.);
#139=EDGE_CURVE('',#111,#112,#84,.T.);
#140=EDGE_CURVE('',#112,#111,#85,.T.);
#141=EDGE_CURVE('',#113,#114,#86,.T.);
#142=EDGE_CURVE('',#114,#113,#87,.T.);
#143=EDGE_CURVE('',#115,#116,#88,.T.);
#144=EDGE_CURVE('',#116,#115,#89,.T.);
#145=EDGE_CURVE('',#115,#117,#67,.T.);
#146=EDGE_CURVE('',#117,#117,#90,.T.);
#147=EDGE_CURVE('',#118,#119,#91,.T.);
#148=EDGE_CURVE('',#119,#118,#92,.T.);
#149=EDGE_CURVE('',#119,#116,#68,.T.);
#150=EDGE_CURVE('',#120,#121,#93,.T.);
#151=EDGE_CURVE('',#121,#120,#94,.T.);
#152=EDGE_CURVE('',#119,#111,#95,.T.);
#153=EDGE_CURVE('',#114,#122,#69,.T.);
#154=EDGE_CURVE('',#123,#122,#96,.T.);
#155=EDGE_CURVE('',#122,#123,#97,.T.);
#156=EDGE_CURVE('',#124,#125,#98,.T.);
#157=EDGE_CURVE('',#125,#124,#99,.T.);
#158=EDGE_CURVE('',#125,#126,#70,.T.);
#159=EDGE_CURVE('',#127,#126,#100,.T.);
#160=EDGE_CURVE('',#126,#127,#101,.T.);
#161=EDGE_CURVE('',#128,#129,#102,.T.);
#162=EDGE_CURVE('',#129,#128,#103,.T.);
#163=EDGE_CURVE('',#130,#131,#104,.T.);
#164=EDGE_CURVE('',#131,#130,#105,.T.);
#165=EDGE_CURVE('',#131,#129,#71,.T.);
#166=EDGE_CURVE('',#132,#133,#106,.T.);
#167=EDGE_CURVE('',#133,#132,#107,.T.);
#168=EDGE_CURVE('',#133,#121,#72,.T.);
#169=ORIENTED_EDGE('',*,*,#134,.T.);
#170=ORIENTED_EDGE('',*,*,#135,.T.);
#171=ORIENTED_EDGE('',*,*,#136,.T.);
#172=ORIENTED_EDGE('',*,*,#137,.T.);
#173=ORIENTED_EDGE('',*,*,#135,.F.);
#174=ORIENTED_EDGE('',*,*,#136,.F.);
#175=ORIENTED_EDGE('',*,*,#137,.F.);
#176=ORIENTED_EDGE('',*,*,#138,.T.);
#177=ORIENTED_EDGE('',*,*,#139,.T.);
#178=ORIENTED_EDGE('',*,*,#140,.T.);
#179=ORIENTED_EDGE('',*,*,#138,.F.);
#180=ORIENTED_EDGE('',*,*,#134,.F.);
#181=ORIENTED_EDGE('',*,*,#141,.F.);
#182=ORIENTED_EDGE('',*,*,#142,.F.);
#183=ORIENTED_EDGE('',*,*,#143,.T.);
#184=ORIENTED_EDGE('',*,*,#144,.T.);
#185=ORIENTED_EDGE('',*,*,#145,.T.);
#186=ORIENTED_EDGE('',*,*,#146,.T.);
#187=ORIENTED_EDGE('',*,*,#145,.F.);
#188=ORIENTED_EDGE('',*,*,#147,.F.);
#189=ORIENTED_EDGE('',*,*,#148,.F.);
#190=ORIENTED_EDGE('',*,*,#149,.T.);
#191=ORIENTED_EDGE('',*,*,#143,.F.);
#192=ORIENTED_EDGE('',*,*,#144,.F.);
#193=ORIENTED_EDGE('',*,*,#149,.F.);
#194=ORIENTED_EDGE('',*,*,#146,.F.);
#195=ORIENTED_EDGE('',*,*,#150,.T.);
#196=ORIENTED_EDGE('',*,*,#151,.T.);
#197=ORIENTED_EDGE('',*,*,#147,.T.);
#198=ORIENTED_EDGE('',*,*,#152,.T.);
#199=ORIENTED_EDGE('',*,*,#140,.F.);
#200=ORIENTED_EDGE('',*,*,#139,.F.);
#201=ORIENTED_EDGE('',*,*,#152,.F.);
#202=ORIENTED_EDGE('',*,*,#148,.T.);
#203=ORIENTED_EDGE('',*,*,#141,.T.);
#204=ORIENTED_EDGE('',*,*,#153,.T.);
#205=ORIENTED_EDGE('',*,*,#154,.F.);
#206=ORIENTED_EDGE('',*,*,#155,.F.);
#207=ORIENTED_EDGE('',*,*,#153,.F.);
#208=ORIENTED_EDGE('',*,*,#142,.T.);
#209=ORIENTED_EDGE('',*,*,#156,.F.);
#210=ORIENTED_EDGE('',*,*,#157,.F.);
#211=ORIENTED_EDGE('',*,*,#154,.T.);
#212=ORIENTED_EDGE('',*,*,#155,.T.);
#213=ORIENTED_EDGE('',*,*,#156,.T.);
#214=ORIENTED_EDGE('',*,*,#158,.T.);
#215=ORIENTED_EDGE('',*,*,#159,.F.);
#216=ORIENTED_EDGE('',*,*,#160,.F.);
#217=ORIENTED_EDGE('',*,*,#158,.F.);
#218=ORIENTED_EDGE('',*,*,#157,.T.);
#219=ORIENTED_EDGE('',*,*,#161,.F.);
#220=ORIENTED_EDGE('',*,*,#162,.F.);
#221=ORIENTED_EDGE('',*,*,#159,.T.);
#222=ORIENTED_EDGE('',*,*,#160,.T.);
#223=ORIENTED_EDGE('',*,*,#163,.F.);
#224=ORIENTED_EDGE('',*,*,#164,.F.);
#225=ORIENTED_EDGE('',*,*,#165,.T.);
#226=ORIENTED_EDGE('',*,*,#162,.T.);
#227=ORIENTED_EDGE('',*,*,#161,.T.);
#228=ORIENTED_EDGE('',*,*,#165,.F.);
#229=ORIENTED_EDGE('',*,*,#166,.F.);
#230=ORIENTED_EDGE('',*,*,#167,.F.);
#231=ORIENTED_EDGE('',*,*,#163,.T.);
#232=ORIENTED_EDGE('',*,*,#164,.T.);
#233=ORIENTED_EDGE('',*,*,#166,.T.);
#234=ORIENTED_EDGE('',*,*,#168,.T.);
#235=ORIENTED_EDGE('',*,*,#150,.F.);
#236=ORIENTED_EDGE('',*,*,#151,.F.);
#237=ORIENTED_EDGE('',*,*,#168,.F.);
#238=ORIENTED_EDGE('',*,*,#167,.T.);
#239=CONICAL_SURFACE('',#275,89.75,0.785398163397453);
#240=CONICAL_SURFACE('',#285,89.75,0.785398163397455);
#241=ADVANCED_FACE('',(#32),#239,.T.);
#242=ADVANCED_FACE('',(#33),#26,.T.);
#243=ADVANCED_FACE('',(#34,#16),#21,.T.);
#244=ADVANCED_FACE('',(#35),#240,.T.);
#245=ADVANCED_FACE('',(#36),#27,.T.);
#246=ADVANCED_FACE('',(#37,#17),#22,.T.);
#247=ADVANCED_FACE('',(#38),#15,.F.);
#248=ADVANCED_FACE('',(#39),#28,.F.);
#249=ADVANCED_FACE('',(#40,#18),#23,.T.);
#250=ADVANCED_FACE('',(#41),#29,.F.);
#251=ADVANCED_FACE('',(#42,#19),#24,.T.);
#252=ADVANCED_FACE('',(#43),#30,.T.);
#253=ADVANCED_FACE('',(#44,#20),#25,.T.);
#254=ADVANCED_FACE('',(#45),#31,.F.);
#255=CLOSED_SHELL('',(#241,#242,#243,#244,#245,#246,#247,#248,#249,#250,
#251,#252,#253,#254));
#256=DERIVED_UNIT_ELEMENT(#258,1.);
#257=DERIVED_UNIT_ELEMENT(#489,3.);
#258=(
MASS_UNIT()
NAMED_UNIT(*)
SI_UNIT($,.GRAM.)
);
#259=DERIVED_UNIT((#256,#257));
#260=MEASURE_REPRESENTATION_ITEM('density measure',
POSITIVE_RATIO_MEASURE(8.),#259);
#261=PROPERTY_DEFINITION_REPRESENTATION(#266,#263);
#262=PROPERTY_DEFINITION_REPRESENTATION(#267,#264);
#263=REPRESENTATION('material name',(#265),#486);
#264=REPRESENTATION('density',(#260),#486);
#265=DESCRIPTIVE_REPRESENTATION_ITEM('Stainless Steel',
'Stainless Steel');
#266=PROPERTY_DEFINITION('material property','material name',#496);
#267=PROPERTY_DEFINITION('material property','density of part',#496);
#268=DATE_TIME_ROLE('creation_date');
#269=APPLIED_DATE_AND_TIME_ASSIGNMENT(#270,#268,(#496));
#270=DATE_AND_TIME(#271,#272);
#271=CALENDAR_DATE(2014,10,6);
#272=LOCAL_TIME(7,33,43.,#273);
#273=COORDINATED_UNIVERSAL_TIME_OFFSET(0,0,.BEHIND.);
#274=AXIS2_PLACEMENT_3D('placement',#408,#316,#317);
#275=AXIS2_PLACEMENT_3D('',#409,#318,#319);
#276=AXIS2_PLACEMENT_3D('',#411,#320,#321);
#277=AXIS2_PLACEMENT_3D('',#415,#323,#324);
#278=AXIS2_PLACEMENT_3D('',#416,#325,#326);
#279=AXIS2_PLACEMENT_3D('',#417,#327,#328);
#280=AXIS2_PLACEMENT_3D('',#421,#330,#331);
#281=AXIS2_PLACEMENT_3D('',#422,#332,#333);
#282=AXIS2_PLACEMENT_3D('',#423,#334,#335);
#283=AXIS2_PLACEMENT_3D('',#426,#336,#337);
#284=AXIS2_PLACEMENT_3D('',#427,#338,#339);
#285=AXIS2_PLACEMENT_3D('',#428,#340,#341);
#286=AXIS2_PLACEMENT_3D('',#431,#342,#343);
#287=AXIS2_PLACEMENT_3D('',#432,#344,#345);
#288=AXIS2_PLACEMENT_3D('',#435,#347,#348);
#289=AXIS2_PLACEMENT_3D('',#436,#349,#350);
#290=AXIS2_PLACEMENT_3D('',#439,#351,#352);
#291=AXIS2_PLACEMENT_3D('',#440,#353,#354);
#292=AXIS2_PLACEMENT_3D('',#442,#356,#357);
#293=AXIS2_PLACEMENT_3D('',#445,#358,#359);
#294=AXIS2_PLACEMENT_3D('',#446,#360,#361);
#295=AXIS2_PLACEMENT_3D('',#447,#362,#363);
#296=AXIS2_PLACEMENT_3D('',#448,#364,#365);
#297=AXIS2_PLACEMENT_3D('',#449,#366,#367);
#298=AXIS2_PLACEMENT_3D('',#453,#369,#370);
#299=AXIS2_PLACEMENT_3D('',#454,#371,#372);
#300=AXIS2_PLACEMENT_3D('',#455,#373,#374);
#301=AXIS2_PLACEMENT_3D('',#458,#375,#376);
#302=AXIS2_PLACEMENT_3D('',#459,#377,#378);
#303=AXIS2_PLACEMENT_3D('',#460,#379,#380);
#304=AXIS2_PLACEMENT_3D('',#464,#382,#383);
#305=AXIS2_PLACEMENT_3D('',#465,#384,#385);
#306=AXIS2_PLACEMENT_3D('',#466,#386,#387);
#307=AXIS2_PLACEMENT_3D('',#469,#388,#389);
#308=AXIS2_PLACEMENT_3D('',#470,#390,#391);
#309=AXIS2_PLACEMENT_3D('',#471,#392,#393);
#310=AXIS2_PLACEMENT_3D('',#474,#394,#395);
#311=AXIS2_PLACEMENT_3D('',#475,#396,#397);
#312=AXIS2_PLACEMENT_3D('',#477,#399,#400);
#313=AXIS2_PLACEMENT_3D('',#480,#401,#402);
#314=AXIS2_PLACEMENT_3D('',#481,#403,#404);
#315=AXIS2_PLACEMENT_3D('',#482,#405,#406);
#316=DIRECTION('axis',(0.,0.,1.));
#317=DIRECTION('refdir',(1.,0.,0.));
#318=DIRECTION('center_axis',(1.,0.,0.));
#319=DIRECTION('ref_axis',(0.,0.,-1.));
#320=DIRECTION('center_axis',(1.,0.,0.));
#321=DIRECTION('ref_axis',(0.,0.,-1.));
#322=DIRECTION('',(0.707106781186544,8.65956056235497E-17,0.707106781186551));
#323=DIRECTION('center_axis',(-1.,0.,0.));
#324=DIRECTION('ref_axis',(0.,0.,-1.));
#325=DIRECTION('center_axis',(-1.,0.,0.));
#326=DIRECTION('ref_axis',(0.,0.,-1.));
#327=DIRECTION('center_axis',(-1.,0.,0.));
#328=DIRECTION('ref_axis',(0.,0.,1.));
#329=DIRECTION('',(1.,0.,0.));
#330=DIRECTION('center_axis',(-1.,0.,0.));
#331=DIRECTION('ref_axis',(0.,0.,1.));
#332=DIRECTION('center_axis',(-1.,0.,0.));
#333=DIRECTION('ref_axis',(0.,0.,1.));
#334=DIRECTION('center_axis',(-1.,0.,0.));
#335=DIRECTION('ref_axis',(0.,0.,1.));
#336=DIRECTION('center_axis',(-1.,0.,0.));
#337=DIRECTION('ref_axis',(0.,0.,1.));
#338=DIRECTION('center_axis',(-1.,0.,0.));
#339=DIRECTION('ref_axis',(0.,0.,1.));
#340=DIRECTION('center_axis',(-1.,0.,0.));
#341=DIRECTION('ref_axis',(0.,0.,-1.));
#342=DIRECTION('center_axis',(1.,0.,0.));
#343=DIRECTION('ref_axis',(0.,0.,-1.));
#344=DIRECTION('center_axis',(1.,0.,0.));
#345=DIRECTION('ref_axis',(0.,0.,-1.));
#346=DIRECTION('',(0.707106781186542,-8.65956056235499E-17,-0.707106781186553));
#347=DIRECTION('center_axis',(-1.,0.,0.));
#348=DIRECTION('ref_axis',(0.,0.,-1.));
#349=DIRECTION('center_axis',(-1.,0.,0.));
#350=DIRECTION('ref_axis',(0.,0.,1.));
#351=DIRECTION('center_axis',(-1.,0.,0.));
#352=DIRECTION('ref_axis',(0.,0.,1.));
#353=DIRECTION('center_axis',(-1.,0.,0.));
#354=DIRECTION('ref_axis',(0.,0.,1.));
#355=DIRECTION('',(1.,0.,0.));
#356=DIRECTION('center_axis',(1.,0.,0.));
#357=DIRECTION('ref_axis',(0.,0.,-1.));
#358=DIRECTION('center_axis',(-1.,0.,0.));
#359=DIRECTION('ref_axis',(0.,0.,1.));
#360=DIRECTION('center_axis',(-1.,0.,0.));
#361=DIRECTION('ref_axis',(0.,0.,1.));
#362=DIRECTION('center_axis',(-1.,0.,0.));
#363=DIRECTION('ref_axis',(0.,0.,1.));
#364=DIRECTION('center_axis',(0.,-1.,1.22464679914735E-16));
#365=DIRECTION('ref_axis',(0.,-1.22464679914735E-16,-1.));
#366=DIRECTION('center_axis',(-1.,0.,0.));
#367=DIRECTION('ref_axis',(0.,0.,1.));
#368=DIRECTION('',(1.,0.,0.));
#369=DIRECTION('center_axis',(-1.,0.,0.));
#370=DIRECTION('ref_axis',(0.,0.,1.));
#371=DIRECTION('center_axis',(-1.,0.,0.));
#372=DIRECTION('ref_axis',(0.,0.,1.));
#373=DIRECTION('center_axis',(1.,0.,0.));
#374=DIRECTION('ref_axis',(0.,0.,-1.));
#375=DIRECTION('center_axis',(-1.,0.,0.));
#376=DIRECTION('ref_axis',(0.,0.,1.));
#377=DIRECTION('center_axis',(-1.,0.,0.));
#378=DIRECTION('ref_axis',(0.,0.,1.));
#379=DIRECTION('center_axis',(-1.,0.,0.));
#380=DIRECTION('ref_axis',(0.,0.,1.));
#381=DIRECTION('',(1.,0.,0.));
#382=DIRECTION('center_axis',(-1.,0.,0.));
#383=DIRECTION('ref_axis',(0.,0.,1.));
#384=DIRECTION('center_axis',(-1.,0.,0.));
#385=DIRECTION('ref_axis',(0.,0.,1.));
#386=DIRECTION('center_axis',(1.,0.,0.));
#387=DIRECTION('ref_axis',(0.,0.,-1.));
#388=DIRECTION('center_axis',(-1.,0.,0.));
#389=DIRECTION('ref_axis',(0.,0.,1.));
#390=DIRECTION('center_axis',(-1.,0.,0.));
#391=DIRECTION('ref_axis',(0.,0.,1.));
#392=DIRECTION('center_axis',(-1.,0.,0.));
#393=DIRECTION('ref_axis',(0.,0.,1.));
#394=DIRECTION('center_axis',(-1.,0.,0.));
#395=DIRECTION('ref_axis',(0.,0.,1.));
#396=DIRECTION('center_axis',(-1.,0.,0.));
#397=DIRECTION('ref_axis',(0.,0.,1.));
#398=DIRECTION('',(1.,0.,0.));
#399=DIRECTION('center_axis',(1.,0.,0.));
#400=DIRECTION('ref_axis',(0.,0.,-1.));
#401=DIRECTION('center_axis',(-1.,0.,0.));
#402=DIRECTION('ref_axis',(0.,0.,1.));
#403=DIRECTION('center_axis',(-1.,0.,0.));
#404=DIRECTION('ref_axis',(0.,0.,1.));
#405=DIRECTION('center_axis',(-1.,0.,0.));
#406=DIRECTION('ref_axis',(0.,0.,1.));
#407=DIRECTION('',(1.,0.,0.));
#408=CARTESIAN_POINT('',(0.,0.,0.));
#409=CARTESIAN_POINT('Origin',(-11.75,0.,0.));
#410=CARTESIAN_POINT('',(-12.,-1.09605888523688E-14,89.5));
#411=CARTESIAN_POINT('Origin',(-12.,0.,0.));
#412=CARTESIAN_POINT('',(-11.5,1.10218211923262E-14,90.));
#413=CARTESIAN_POINT('',(-11.75,1.09912050223475E-14,89.75));
#414=CARTESIAN_POINT('',(-11.5,-1.10218211923262E-14,-90.));
#415=CARTESIAN_POINT('Origin',(-11.5,0.,0.));
#416=CARTESIAN_POINT('Origin',(-11.5,0.,0.));
#417=CARTESIAN_POINT('Origin',(-10.75,0.,0.));
#418=CARTESIAN_POINT('',(-9.5,-1.10218211923262E-14,-90.));
#419=CARTESIAN_POINT('',(-10.75,-1.10218211923262E-14,-90.));
#420=CARTESIAN_POINT('',(-9.5,0.,90.));
#421=CARTESIAN_POINT('Origin',(-9.5,0.,0.));
#422=CARTESIAN_POINT('Origin',(-9.5,0.,0.));
#423=CARTESIAN_POINT('Origin',(-12.,0.,76.5));
#424=CARTESIAN_POINT('',(-12.,0.,76.5));
#425=CARTESIAN_POINT('',(-12.,-9.36854801347725E-15,-76.5));
#426=CARTESIAN_POINT('Origin',(-12.,0.,0.));
#427=CARTESIAN_POINT('Origin',(-12.,0.,0.));
#428=CARTESIAN_POINT('Origin',(-0.25,0.,0.));
#429=CARTESIAN_POINT('',(-0.5,-1.10218211923262E-14,90.));
#430=CARTESIAN_POINT('',(-0.5,-1.10218211923262E-14,-90.));
#431=CARTESIAN_POINT('Origin',(-0.5,0.,0.));
#432=CARTESIAN_POINT('Origin',(-0.5,0.,0.));
#433=CARTESIAN_POINT('',(0.,1.09605888523688E-14,89.5));
#434=CARTESIAN_POINT('',(-0.25,1.09912050223475E-14,89.75));
#435=CARTESIAN_POINT('Origin',(0.,0.,0.));
#436=CARTESIAN_POINT('Origin',(-2.25,0.,0.));
#437=CARTESIAN_POINT('',(-4.5,0.,90.));
#438=CARTESIAN_POINT('',(-4.5,-1.10218211923262E-14,-90.));
#439=CARTESIAN_POINT('Origin',(-4.5,0.,0.));
#440=CARTESIAN_POINT('Origin',(-4.5,0.,0.));
#441=CARTESIAN_POINT('',(-2.25,-1.10218211923262E-14,-90.));
#442=CARTESIAN_POINT('Origin',(0.,0.,90.));
#443=CARTESIAN_POINT('',(0.,0.,87.5));
#444=CARTESIAN_POINT('',(0.,-1.07156594925393E-14,-87.5));
#445=CARTESIAN_POINT('Origin',(0.,0.,0.));
#446=CARTESIAN_POINT('Origin',(0.,0.,0.));
#447=CARTESIAN_POINT('Origin',(-7.,0.,0.));
#448=CARTESIAN_POINT('Origin',(-7.,-1.10218211923262E-14,-90.));
#449=CARTESIAN_POINT('Origin',(-9.,0.,0.));
#450=CARTESIAN_POINT('',(-6.,-9.36854801347725E-15,-76.5));
#451=CARTESIAN_POINT('',(-9.,-9.36854801347725E-15,-76.5));
#452=CARTESIAN_POINT('',(-6.,0.,76.5));
#453=CARTESIAN_POINT('Origin',(-6.,0.,0.));
#454=CARTESIAN_POINT('Origin',(-6.,0.,0.));
#455=CARTESIAN_POINT('Origin',(-6.,0.,79.75));
#456=CARTESIAN_POINT('',(-6.,0.,79.75));
#457=CARTESIAN_POINT('',(-6.,-9.76655822320014E-15,-79.75));
#458=CARTESIAN_POINT('Origin',(-6.,0.,0.));
#459=CARTESIAN_POINT('Origin',(-6.,0.,0.));
#460=CARTESIAN_POINT('Origin',(-3.,0.,0.));
#461=CARTESIAN_POINT('',(0.,-9.76655822320014E-15,-79.75));
#462=CARTESIAN_POINT('',(-3.,-9.76655822320014E-15,-79.75));
#463=CARTESIAN_POINT('',(0.,0.,79.75));
#464=CARTESIAN_POINT('Origin',(0.,0.,0.));
#465=CARTESIAN_POINT('Origin',(0.,0.,0.));
#466=CARTESIAN_POINT('Origin',(0.,0.,81.5));
#467=CARTESIAN_POINT('',(0.,0.,81.5));
#468=CARTESIAN_POINT('',(0.,-9.98087141305093E-15,-81.5));
#469=CARTESIAN_POINT('Origin',(0.,0.,0.));
#470=CARTESIAN_POINT('Origin',(0.,0.,0.));
#471=CARTESIAN_POINT('Origin',(-1.,0.,0.));
#472=CARTESIAN_POINT('',(-2.,0.,81.5));
#473=CARTESIAN_POINT('',(-2.,-9.98087141305093E-15,-81.5));
#474=CARTESIAN_POINT('Origin',(-2.,0.,0.));
#475=CARTESIAN_POINT('Origin',(-2.,0.,0.));
#476=CARTESIAN_POINT('',(-1.,-9.98087141305093E-15,-81.5));
#477=CARTESIAN_POINT('Origin',(-2.,0.,87.5));
#478=CARTESIAN_POINT('',(-2.,0.,87.5));
#479=CARTESIAN_POINT('',(-2.,-1.07156594925393E-14,-87.5));
#480=CARTESIAN_POINT('Origin',(-2.,0.,0.));
#481=CARTESIAN_POINT('Origin',(-2.,0.,0.));
#482=CARTESIAN_POINT('Origin',(-1.,0.,0.));
#483=CARTESIAN_POINT('',(-1.,-1.07156594925393E-14,-87.5));
#484=UNCERTAINTY_MEASURE_WITH_UNIT(LENGTH_MEASURE(0.01),#488,
'DISTANCE_ACCURACY_VALUE',
'Maximum model space distance between geometric entities at asserted c
onnectivities');
#485=UNCERTAINTY_MEASURE_WITH_UNIT(LENGTH_MEASURE(0.01),#488,
'DISTANCE_ACCURACY_VALUE',
'Maximum model space distance between geometric entities at asserted c
onnectivities');
#486=(
GEOMETRIC_REPRESENTATION_CONTEXT(3)
GLOBAL_UNCERTAINTY_ASSIGNED_CONTEXT((#484))
GLOBAL_UNIT_ASSIGNED_CONTEXT((#488,#491,#490))
REPRESENTATION_CONTEXT('','3D')
);
#487=(
GEOMETRIC_REPRESENTATION_CONTEXT(3)
GLOBAL_UNCERTAINTY_ASSIGNED_CONTEXT((#485))
GLOBAL_UNIT_ASSIGNED_CONTEXT((#488,#491,#490))
REPRESENTATION_CONTEXT('','3D')
);
#488=(
LENGTH_UNIT()
NAMED_UNIT(*)
SI_UNIT(.MILLI.,.METRE.)
);
#489=(
LENGTH_UNIT()
NAMED_UNIT(*)
SI_UNIT(.CENTI.,.METRE.)
);
#490=(
NAMED_UNIT(*)
SI_UNIT($,.STERADIAN.)
SOLID_ANGLE_UNIT()
);
#491=(
NAMED_UNIT(*)
PLANE_ANGLE_UNIT()
SI_UNIT($,.RADIAN.)
);
#492=SHAPE_DEFINITION_REPRESENTATION(#493,#494);
#493=PRODUCT_DEFINITION_SHAPE('',$,#496);
#494=SHAPE_REPRESENTATION('',(#274),#486);
#495=PRODUCT_DEFINITION_CONTEXT('part definition',#500,'design');
#496=PRODUCT_DEFINITION('FL-160LF-W159','FL-160LF-W159',#497,#495);
#497=PRODUCT_DEFINITION_FORMATION('',$,#502);
#498=PRODUCT_RELATED_PRODUCT_CATEGORY('FL-160LF-W159','FL-160LF-W159',(#502));
#499=APPLICATION_PROTOCOL_DEFINITION('international standard',
'automotive_design',2009,#500);
#500=APPLICATION_CONTEXT(
'Core Data for Automotive Mechanical Design Process');
#501=PRODUCT_CONTEXT('part definition',#500,'mechanical');
#502=PRODUCT('FL-160LF-W159','FL-160LF-W159',$,(#501));
#503=PRESENTATION_STYLE_ASSIGNMENT((#504));
#504=SURFACE_STYLE_USAGE(.BOTH.,#505);
#505=SURFACE_SIDE_STYLE('',(#506));
#506=SURFACE_STYLE_FILL_AREA(#507);
#507=FILL_AREA_STYLE('',(#508));
#508=FILL_AREA_STYLE_COLOUR('',#509);
#509=COLOUR_RGB('',0.745098039215686,0.737254901960784,0.729411764705882);
ENDSEC;
END-ISO-10303-21;
