ISO-10303-21;
HEADER;
/* Generated by software containing ST-Developer
 * from STEP Tools, Inc. (www.steptools.com) 
 */

FILE_DESCRIPTION(
/* description */ (''),
/* implementation_level */ '2;1');

FILE_NAME(
/* name */ 'G:\\FLANGES & FITTINGS\\NW100LF\\Step files\\FL-100LFB.stp',

/* time_stamp */ '2018-07-12T09:18:37+01:00',
/* author */ ('paul'),
/* organization */ (''),
/* preprocessor_version */ 'ST-DEVELOPER v17',
/* originating_system */ 'Autodesk Inventor 2019',
/* authorisation */ '');

FILE_SCHEMA (('AUTOMOTIVE_DESIGN { 1 0 10303 214 3 1 1 }'));
ENDSEC;

DATA;
#10=MECHANICAL_DESIGN_GEOMETRIC_PRESENTATION_REPRESENTATION('',(#13),#634);
#11=SHAPE_REPRESENTATION_RELATIONSHIP('SRR','None',#641,#12);
#12=ADVANCED_BREP_SHAPE_REPRESENTATION('',(#14),#633);
#13=STYLED_ITEM('',(#650),#14);
#14=MANIFOLD_SOLID_BREP('Solid1',#346);
#15=FACE_BOUND('',#63,.T.);
#16=FACE_BOUND('',#66,.T.);
#17=FACE_BOUND('',#67,.T.);
#18=FACE_BOUND('',#68,.T.);
#19=FACE_BOUND('',#69,.T.);
#20=FACE_BOUND('',#70,.T.);
#21=FACE_BOUND('',#71,.T.);
#22=FACE_BOUND('',#72,.T.);
#23=FACE_BOUND('',#73,.T.);
#24=FACE_BOUND('',#74,.T.);
#25=FACE_BOUND('',#77,.T.);
#26=FACE_BOUND('',#78,.T.);
#27=FACE_BOUND('',#79,.T.);
#28=FACE_BOUND('',#80,.T.);
#29=FACE_BOUND('',#81,.T.);
#30=FACE_BOUND('',#82,.T.);
#31=FACE_BOUND('',#83,.T.);
#32=FACE_BOUND('',#84,.T.);
#33=PLANE('',#398);
#34=PLANE('',#404);
#35=PLANE('',#410);
#36=PLANE('',#416);
#37=FACE_OUTER_BOUND('',#52,.T.);
#38=FACE_OUTER_BOUND('',#53,.T.);
#39=FACE_OUTER_BOUND('',#54,.T.);
#40=FACE_OUTER_BOUND('',#55,.T.);
#41=FACE_OUTER_BOUND('',#56,.T.);
#42=FACE_OUTER_BOUND('',#57,.T.);
#43=FACE_OUTER_BOUND('',#58,.T.);
#44=FACE_OUTER_BOUND('',#59,.T.);
#45=FACE_OUTER_BOUND('',#60,.T.);
#46=FACE_OUTER_BOUND('',#61,.T.);
#47=FACE_OUTER_BOUND('',#62,.T.);
#48=FACE_OUTER_BOUND('',#64,.T.);
#49=FACE_OUTER_BOUND('',#65,.T.);
#50=FACE_OUTER_BOUND('',#75,.T.);
#51=FACE_OUTER_BOUND('',#76,.T.);
#52=EDGE_LOOP('',(#226,#227,#228,#229,#230));
#53=EDGE_LOOP('',(#231,#232,#233,#234,#235));
#54=EDGE_LOOP('',(#236,#237,#238,#239,#240));
#55=EDGE_LOOP('',(#241,#242,#243,#244,#245));
#56=EDGE_LOOP('',(#246,#247,#248,#249,#250));
#57=EDGE_LOOP('',(#251,#252,#253,#254,#255));
#58=EDGE_LOOP('',(#256,#257,#258,#259,#260));
#59=EDGE_LOOP('',(#261,#262,#263,#264,#265));
#60=EDGE_LOOP('',(#266,#267));
#61=EDGE_LOOP('',(#268,#269,#270,#271,#272,#273));
#62=EDGE_LOOP('',(#274,#275));
#63=EDGE_LOOP('',(#276,#277));
#64=EDGE_LOOP('',(#278,#279,#280,#281,#282,#283));
#65=EDGE_LOOP('',(#284,#285));
#66=EDGE_LOOP('',(#286,#287));
#67=EDGE_LOOP('',(#288,#289));
#68=EDGE_LOOP('',(#290,#291));
#69=EDGE_LOOP('',(#292,#293));
#70=EDGE_LOOP('',(#294,#295));
#71=EDGE_LOOP('',(#296,#297));
#72=EDGE_LOOP('',(#298,#299));
#73=EDGE_LOOP('',(#300,#301));
#74=EDGE_LOOP('',(#302,#303));
#75=EDGE_LOOP('',(#304,#305,#306,#307,#308,#309));
#76=EDGE_LOOP('',(#310,#311));
#77=EDGE_LOOP('',(#312));
#78=EDGE_LOOP('',(#313));
#79=EDGE_LOOP('',(#314));
#80=EDGE_LOOP('',(#315));
#81=EDGE_LOOP('',(#316));
#82=EDGE_LOOP('',(#317));
#83=EDGE_LOOP('',(#318));
#84=EDGE_LOOP('',(#319));
#85=LINE('',#539,#96);
#86=LINE('',#547,#97);
#87=LINE('',#555,#98);
#88=LINE('',#563,#99);
#89=LINE('',#571,#100);
#90=LINE('',#579,#101);
#91=LINE('',#587,#102);
#92=LINE('',#595,#103);
#93=LINE('',#607,#104);
#94=LINE('',#615,#105);
#95=LINE('',#629,#106);
#96=VECTOR('',#425,4.5);
#97=VECTOR('',#434,4.5);
#98=VECTOR('',#443,4.5);
#99=VECTOR('',#452,4.5);
#100=VECTOR('',#461,4.5);
#101=VECTOR('',#470,4.5);
#102=VECTOR('',#479,4.5);
#103=VECTOR('',#488,4.5);
#104=VECTOR('',#503,46.1);
#105=VECTOR('',#512,51.);
#106=VECTOR('',#529,82.5);
#107=CIRCLE('',#367,4.5);
#108=CIRCLE('',#368,4.5);
#109=CIRCLE('',#369,4.5);
#110=CIRCLE('',#371,4.5);
#111=CIRCLE('',#372,4.5);
#112=CIRCLE('',#373,4.5);
#113=CIRCLE('',#375,4.5);
#114=CIRCLE('',#376,4.5);
#115=CIRCLE('',#377,4.5);
#116=CIRCLE('',#379,4.5);
#117=CIRCLE('',#380,4.5);
#118=CIRCLE('',#381,4.5);
#119=CIRCLE('',#383,4.5);
#120=CIRCLE('',#384,4.5);
#121=CIRCLE('',#385,4.5);
#122=CIRCLE('',#387,4.5);
#123=CIRCLE('',#388,4.5);
#124=CIRCLE('',#389,4.5);
#125=CIRCLE('',#391,4.5);
#126=CIRCLE('',#392,4.5);
#127=CIRCLE('',#393,4.5);
#128=CIRCLE('',#395,4.5);
#129=CIRCLE('',#396,4.5);
#130=CIRCLE('',#397,4.5);
#131=CIRCLE('',#399,46.1);
#132=CIRCLE('',#400,46.1);
#133=CIRCLE('',#402,46.1);
#134=CIRCLE('',#403,46.1);
#135=CIRCLE('',#405,51.);
#136=CIRCLE('',#406,51.);
#137=CIRCLE('',#408,51.);
#138=CIRCLE('',#409,51.);
#139=CIRCLE('',#411,82.4999999999999);
#140=CIRCLE('',#412,82.4999999999999);
#141=CIRCLE('',#414,82.5);
#142=CIRCLE('',#415,82.5);
#143=VERTEX_POINT('',#534);
#144=VERTEX_POINT('',#535);
#145=VERTEX_POINT('',#538);
#146=VERTEX_POINT('',#542);
#147=VERTEX_POINT('',#543);
#148=VERTEX_POINT('',#546);
#149=VERTEX_POINT('',#550);
#150=VERTEX_POINT('',#551);
#151=VERTEX_POINT('',#554);
#152=VERTEX_POINT('',#558);
#153=VERTEX_POINT('',#559);
#154=VERTEX_POINT('',#562);
#155=VERTEX_POINT('',#566);
#156=VERTEX_POINT('',#567);
#157=VERTEX_POINT('',#570);
#158=VERTEX_POINT('',#574);
#159=VERTEX_POINT('',#575);
#160=VERTEX_POINT('',#578);
#161=VERTEX_POINT('',#582);
#162=VERTEX_POINT('',#583);
#163=VERTEX_POINT('',#586);
#164=VERTEX_POINT('',#590);
#165=VERTEX_POINT('',#591);
#166=VERTEX_POINT('',#594);
#167=VERTEX_POINT('',#598);
#168=VERTEX_POINT('',#599);
#169=VERTEX_POINT('',#603);
#170=VERTEX_POINT('',#604);
#171=VERTEX_POINT('',#609);
#172=VERTEX_POINT('',#610);
#173=VERTEX_POINT('',#614);
#174=VERTEX_POINT('',#616);
#175=VERTEX_POINT('',#620);
#176=VERTEX_POINT('',#621);
#177=VERTEX_POINT('',#625);
#178=VERTEX_POINT('',#626);
#179=EDGE_CURVE('',#143,#144,#107,.T.);
#180=EDGE_CURVE('',#144,#143,#108,.T.);
#181=EDGE_CURVE('',#144,#145,#85,.T.);
#182=EDGE_CURVE('',#145,#145,#109,.T.);
#183=EDGE_CURVE('',#146,#147,#110,.T.);
#184=EDGE_CURVE('',#147,#146,#111,.T.);
#185=EDGE_CURVE('',#147,#148,#86,.T.);
#186=EDGE_CURVE('',#148,#148,#112,.T.);
#187=EDGE_CURVE('',#149,#150,#113,.T.);
#188=EDGE_CURVE('',#150,#149,#114,.T.);
#189=EDGE_CURVE('',#150,#151,#87,.T.);
#190=EDGE_CURVE('',#151,#151,#115,.T.);
#191=EDGE_CURVE('',#152,#153,#116,.T.);
#192=EDGE_CURVE('',#153,#152,#117,.T.);
#193=EDGE_CURVE('',#153,#154,#88,.T.);
#194=EDGE_CURVE('',#154,#154,#118,.T.);
#195=EDGE_CURVE('',#155,#156,#119,.T.);
#196=EDGE_CURVE('',#156,#155,#120,.T.);
#197=EDGE_CURVE('',#156,#157,#89,.T.);
#198=EDGE_CURVE('',#157,#157,#121,.T.);
#199=EDGE_CURVE('',#158,#159,#122,.T.);
#200=EDGE_CURVE('',#159,#158,#123,.T.);
#201=EDGE_CURVE('',#159,#160,#90,.T.);
#202=EDGE_CURVE('',#160,#160,#124,.T.);
#203=EDGE_CURVE('',#161,#162,#125,.T.);
#204=EDGE_CURVE('',#162,#161,#126,.T.);
#205=EDGE_CURVE('',#162,#163,#91,.T.);
#206=EDGE_CURVE('',#163,#163,#127,.T.);
#207=EDGE_CURVE('',#164,#165,#128,.T.);
#208=EDGE_CURVE('',#165,#164,#129,.T.);
#209=EDGE_CURVE('',#165,#166,#92,.T.);
#210=EDGE_CURVE('',#166,#166,#130,.T.);
#211=EDGE_CURVE('',#167,#168,#131,.T.);
#212=EDGE_CURVE('',#168,#167,#132,.T.);
#213=EDGE_CURVE('',#169,#170,#133,.T.);
#214=EDGE_CURVE('',#170,#169,#134,.T.);
#215=EDGE_CURVE('',#170,#168,#93,.T.);
#216=EDGE_CURVE('',#171,#172,#135,.T.);
#217=EDGE_CURVE('',#172,#171,#136,.T.);
#218=EDGE_CURVE('',#172,#173,#94,.T.);
#219=EDGE_CURVE('',#174,#173,#137,.T.);
#220=EDGE_CURVE('',#173,#174,#138,.T.);
#221=EDGE_CURVE('',#175,#176,#139,.T.);
#222=EDGE_CURVE('',#176,#175,#140,.T.);
#223=EDGE_CURVE('',#177,#178,#141,.T.);
#224=EDGE_CURVE('',#178,#177,#142,.T.);
#225=EDGE_CURVE('',#178,#176,#95,.T.);
#226=ORIENTED_EDGE('',*,*,#179,.F.);
#227=ORIENTED_EDGE('',*,*,#180,.F.);
#228=ORIENTED_EDGE('',*,*,#181,.T.);
#229=ORIENTED_EDGE('',*,*,#182,.F.);
#230=ORIENTED_EDGE('',*,*,#181,.F.);
#231=ORIENTED_EDGE('',*,*,#183,.F.);
#232=ORIENTED_EDGE('',*,*,#184,.F.);
#233=ORIENTED_EDGE('',*,*,#185,.T.);
#234=ORIENTED_EDGE('',*,*,#186,.F.);
#235=ORIENTED_EDGE('',*,*,#185,.F.);
#236=ORIENTED_EDGE('',*,*,#187,.F.);
#237=ORIENTED_EDGE('',*,*,#188,.F.);
#238=ORIENTED_EDGE('',*,*,#189,.T.);
#239=ORIENTED_EDGE('',*,*,#190,.F.);
#240=ORIENTED_EDGE('',*,*,#189,.F.);
#241=ORIENTED_EDGE('',*,*,#191,.F.);
#242=ORIENTED_EDGE('',*,*,#192,.F.);
#243=ORIENTED_EDGE('',*,*,#193,.T.);
#244=ORIENTED_EDGE('',*,*,#194,.F.);
#245=ORIENTED_EDGE('',*,*,#193,.F.);
#246=ORIENTED_EDGE('',*,*,#195,.F.);
#247=ORIENTED_EDGE('',*,*,#196,.F.);
#248=ORIENTED_EDGE('',*,*,#197,.T.);
#249=ORIENTED_EDGE('',*,*,#198,.F.);
#250=ORIENTED_EDGE('',*,*,#197,.F.);
#251=ORIENTED_EDGE('',*,*,#199,.F.);
#252=ORIENTED_EDGE('',*,*,#200,.F.);
#253=ORIENTED_EDGE('',*,*,#201,.T.);
#254=ORIENTED_EDGE('',*,*,#202,.F.);
#255=ORIENTED_EDGE('',*,*,#201,.F.);
#256=ORIENTED_EDGE('',*,*,#203,.F.);
#257=ORIENTED_EDGE('',*,*,#204,.F.);
#258=ORIENTED_EDGE('',*,*,#205,.T.);
#259=ORIENTED_EDGE('',*,*,#206,.F.);
#260=ORIENTED_EDGE('',*,*,#205,.F.);
#261=ORIENTED_EDGE('',*,*,#207,.F.);
#262=ORIENTED_EDGE('',*,*,#208,.F.);
#263=ORIENTED_EDGE('',*,*,#209,.T.);
#264=ORIENTED_EDGE('',*,*,#210,.F.);
#265=ORIENTED_EDGE('',*,*,#209,.F.);
#266=ORIENTED_EDGE('',*,*,#211,.F.);
#267=ORIENTED_EDGE('',*,*,#212,.F.);
#268=ORIENTED_EDGE('',*,*,#213,.F.);
#269=ORIENTED_EDGE('',*,*,#214,.F.);
#270=ORIENTED_EDGE('',*,*,#215,.T.);
#271=ORIENTED_EDGE('',*,*,#212,.T.);
#272=ORIENTED_EDGE('',*,*,#211,.T.);
#273=ORIENTED_EDGE('',*,*,#215,.F.);
#274=ORIENTED_EDGE('',*,*,#216,.F.);
#275=ORIENTED_EDGE('',*,*,#217,.F.);
#276=ORIENTED_EDGE('',*,*,#213,.T.);
#277=ORIENTED_EDGE('',*,*,#214,.T.);
#278=ORIENTED_EDGE('',*,*,#216,.T.);
#279=ORIENTED_EDGE('',*,*,#218,.T.);
#280=ORIENTED_EDGE('',*,*,#219,.F.);
#281=ORIENTED_EDGE('',*,*,#220,.F.);
#282=ORIENTED_EDGE('',*,*,#218,.F.);
#283=ORIENTED_EDGE('',*,*,#217,.T.);
#284=ORIENTED_EDGE('',*,*,#221,.F.);
#285=ORIENTED_EDGE('',*,*,#222,.F.);
#286=ORIENTED_EDGE('',*,*,#179,.T.);
#287=ORIENTED_EDGE('',*,*,#180,.T.);
#288=ORIENTED_EDGE('',*,*,#183,.T.);
#289=ORIENTED_EDGE('',*,*,#184,.T.);
#290=ORIENTED_EDGE('',*,*,#187,.T.);
#291=ORIENTED_EDGE('',*,*,#188,.T.);
#292=ORIENTED_EDGE('',*,*,#191,.T.);
#293=ORIENTED_EDGE('',*,*,#192,.T.);
#294=ORIENTED_EDGE('',*,*,#195,.T.);
#295=ORIENTED_EDGE('',*,*,#196,.T.);
#296=ORIENTED_EDGE('',*,*,#199,.T.);
#297=ORIENTED_EDGE('',*,*,#200,.T.);
#298=ORIENTED_EDGE('',*,*,#203,.T.);
#299=ORIENTED_EDGE('',*,*,#204,.T.);
#300=ORIENTED_EDGE('',*,*,#207,.T.);
#301=ORIENTED_EDGE('',*,*,#208,.T.);
#302=ORIENTED_EDGE('',*,*,#219,.T.);
#303=ORIENTED_EDGE('',*,*,#220,.T.);
#304=ORIENTED_EDGE('',*,*,#223,.F.);
#305=ORIENTED_EDGE('',*,*,#224,.F.);
#306=ORIENTED_EDGE('',*,*,#225,.T.);
#307=ORIENTED_EDGE('',*,*,#222,.T.);
#308=ORIENTED_EDGE('',*,*,#221,.T.);
#309=ORIENTED_EDGE('',*,*,#225,.F.);
#310=ORIENTED_EDGE('',*,*,#223,.T.);
#311=ORIENTED_EDGE('',*,*,#224,.T.);
#312=ORIENTED_EDGE('',*,*,#182,.T.);
#313=ORIENTED_EDGE('',*,*,#186,.T.);
#314=ORIENTED_EDGE('',*,*,#190,.T.);
#315=ORIENTED_EDGE('',*,*,#194,.T.);
#316=ORIENTED_EDGE('',*,*,#198,.T.);
#317=ORIENTED_EDGE('',*,*,#202,.T.);
#318=ORIENTED_EDGE('',*,*,#206,.T.);
#319=ORIENTED_EDGE('',*,*,#210,.T.);
#320=CYLINDRICAL_SURFACE('',#366,4.5);
#321=CYLINDRICAL_SURFACE('',#370,4.5);
#322=CYLINDRICAL_SURFACE('',#374,4.5);
#323=CYLINDRICAL_SURFACE('',#378,4.5);
#324=CYLINDRICAL_SURFACE('',#382,4.5);
#325=CYLINDRICAL_SURFACE('',#386,4.5);
#326=CYLINDRICAL_SURFACE('',#390,4.5);
#327=CYLINDRICAL_SURFACE('',#394,4.5);
#328=CYLINDRICAL_SURFACE('',#401,46.1);
#329=CYLINDRICAL_SURFACE('',#407,51.);
#330=CYLINDRICAL_SURFACE('',#413,82.5);
#331=ADVANCED_FACE('',(#37),#320,.F.);
#332=ADVANCED_FACE('',(#38),#321,.F.);
#333=ADVANCED_FACE('',(#39),#322,.F.);
#334=ADVANCED_FACE('',(#40),#323,.F.);
#335=ADVANCED_FACE('',(#41),#324,.F.);
#336=ADVANCED_FACE('',(#42),#325,.F.);
#337=ADVANCED_FACE('',(#43),#326,.F.);
#338=ADVANCED_FACE('',(#44),#327,.F.);
#339=ADVANCED_FACE('',(#45),#33,.T.);
#340=ADVANCED_FACE('',(#46),#328,.T.);
#341=ADVANCED_FACE('',(#47,#15),#34,.T.);
#342=ADVANCED_FACE('',(#48),#329,.F.);
#343=ADVANCED_FACE('',(#49,#16,#17,#18,#19,#20,#21,#22,#23,#24),#35,.T.);
#344=ADVANCED_FACE('',(#50),#330,.T.);
#345=ADVANCED_FACE('',(#51,#25,#26,#27,#28,#29,#30,#31,#32),#36,.T.);
#346=CLOSED_SHELL('',(#331,#332,#333,#334,#335,#336,#337,#338,#339,#340,
#341,#342,#343,#344,#345));
#347=DERIVED_UNIT_ELEMENT(#349,1.);
#348=DERIVED_UNIT_ELEMENT(#636,3.);
#349=(
MASS_UNIT()
NAMED_UNIT(*)
SI_UNIT($,.GRAM.)
);
#350=DERIVED_UNIT((#347,#348));
#351=MEASURE_REPRESENTATION_ITEM('density measure',
POSITIVE_RATIO_MEASURE(8.),#350);
#352=PROPERTY_DEFINITION_REPRESENTATION(#357,#354);
#353=PROPERTY_DEFINITION_REPRESENTATION(#358,#355);
#354=REPRESENTATION('material name',(#356),#633);
#355=REPRESENTATION('density',(#351),#633);
#356=DESCRIPTIVE_REPRESENTATION_ITEM('Stainless Steel AISI 304',
'Stainless Steel AISI 304');
#357=PROPERTY_DEFINITION('material property','material name',#643);
#358=PROPERTY_DEFINITION('material property','density of part',#643);
#359=DATE_TIME_ROLE('creation_date');
#360=APPLIED_DATE_AND_TIME_ASSIGNMENT(#361,#359,(#643));
#361=DATE_AND_TIME(#362,#363);
#362=CALENDAR_DATE(2014,31,7);
#363=LOCAL_TIME(8,57,10.,#364);
#364=COORDINATED_UNIVERSAL_TIME_OFFSET(0,0,.BEHIND.);
#365=AXIS2_PLACEMENT_3D('placement',#532,#417,#418);
#366=AXIS2_PLACEMENT_3D('',#533,#419,#420);
#367=AXIS2_PLACEMENT_3D('',#536,#421,#422);
#368=AXIS2_PLACEMENT_3D('',#537,#423,#424);
#369=AXIS2_PLACEMENT_3D('',#540,#426,#427);
#370=AXIS2_PLACEMENT_3D('',#541,#428,#429);
#371=AXIS2_PLACEMENT_3D('',#544,#430,#431);
#372=AXIS2_PLACEMENT_3D('',#545,#432,#433);
#373=AXIS2_PLACEMENT_3D('',#548,#435,#436);
#374=AXIS2_PLACEMENT_3D('',#549,#437,#438);
#375=AXIS2_PLACEMENT_3D('',#552,#439,#440);
#376=AXIS2_PLACEMENT_3D('',#553,#441,#442);
#377=AXIS2_PLACEMENT_3D('',#556,#444,#445);
#378=AXIS2_PLACEMENT_3D('',#557,#446,#447);
#379=AXIS2_PLACEMENT_3D('',#560,#448,#449);
#380=AXIS2_PLACEMENT_3D('',#561,#450,#451);
#381=AXIS2_PLACEMENT_3D('',#564,#453,#454);
#382=AXIS2_PLACEMENT_3D('',#565,#455,#456);
#383=AXIS2_PLACEMENT_3D('',#568,#457,#458);
#384=AXIS2_PLACEMENT_3D('',#569,#459,#460);
#385=AXIS2_PLACEMENT_3D('',#572,#462,#463);
#386=AXIS2_PLACEMENT_3D('',#573,#464,#465);
#387=AXIS2_PLACEMENT_3D('',#576,#466,#467);
#388=AXIS2_PLACEMENT_3D('',#577,#468,#469);
#389=AXIS2_PLACEMENT_3D('',#580,#471,#472);
#390=AXIS2_PLACEMENT_3D('',#581,#473,#474);
#391=AXIS2_PLACEMENT_3D('',#584,#475,#476);
#392=AXIS2_PLACEMENT_3D('',#585,#477,#478);
#393=AXIS2_PLACEMENT_3D('',#588,#480,#481);
#394=AXIS2_PLACEMENT_3D('',#589,#482,#483);
#395=AXIS2_PLACEMENT_3D('',#592,#484,#485);
#396=AXIS2_PLACEMENT_3D('',#593,#486,#487);
#397=AXIS2_PLACEMENT_3D('',#596,#489,#490);
#398=AXIS2_PLACEMENT_3D('',#597,#491,#492);
#399=AXIS2_PLACEMENT_3D('',#600,#493,#494);
#400=AXIS2_PLACEMENT_3D('',#601,#495,#496);
#401=AXIS2_PLACEMENT_3D('',#602,#497,#498);
#402=AXIS2_PLACEMENT_3D('',#605,#499,#500);
#403=AXIS2_PLACEMENT_3D('',#606,#501,#502);
#404=AXIS2_PLACEMENT_3D('',#608,#504,#505);
#405=AXIS2_PLACEMENT_3D('',#611,#506,#507);
#406=AXIS2_PLACEMENT_3D('',#612,#508,#509);
#407=AXIS2_PLACEMENT_3D('',#613,#510,#511);
#408=AXIS2_PLACEMENT_3D('',#617,#513,#514);
#409=AXIS2_PLACEMENT_3D('',#618,#515,#516);
#410=AXIS2_PLACEMENT_3D('',#619,#517,#518);
#411=AXIS2_PLACEMENT_3D('',#622,#519,#520);
#412=AXIS2_PLACEMENT_3D('',#623,#521,#522);
#413=AXIS2_PLACEMENT_3D('',#624,#523,#524);
#414=AXIS2_PLACEMENT_3D('',#627,#525,#526);
#415=AXIS2_PLACEMENT_3D('',#628,#527,#528);
#416=AXIS2_PLACEMENT_3D('',#630,#530,#531);
#417=DIRECTION('axis',(0.,0.,1.));
#418=DIRECTION('refdir',(1.,0.,0.));
#419=DIRECTION('center_axis',(1.,0.,0.));
#420=DIRECTION('ref_axis',(0.,0.707106781186548,-0.707106781186547));
#421=DIRECTION('center_axis',(-1.,0.,0.));
#422=DIRECTION('ref_axis',(0.,0.707106781186548,-0.707106781186547));
#423=DIRECTION('center_axis',(-1.,0.,0.));
#424=DIRECTION('ref_axis',(0.,0.707106781186548,-0.707106781186547));
#425=DIRECTION('',(-1.,0.,0.));
#426=DIRECTION('center_axis',(1.,0.,0.));
#427=DIRECTION('ref_axis',(0.,0.707106781186548,-0.707106781186547));
#428=DIRECTION('center_axis',(1.,0.,0.));
#429=DIRECTION('ref_axis',(0.,1.,1.85037170770859E-16));
#430=DIRECTION('center_axis',(-1.,0.,0.));
#431=DIRECTION('ref_axis',(0.,1.,1.85037170770859E-16));
#432=DIRECTION('center_axis',(-1.,0.,0.));
#433=DIRECTION('ref_axis',(0.,1.,1.85037170770859E-16));
#434=DIRECTION('',(-1.,0.,0.));
#435=DIRECTION('center_axis',(1.,0.,0.));
#436=DIRECTION('ref_axis',(0.,1.,1.85037170770859E-16));
#437=DIRECTION('center_axis',(1.,0.,0.));
#438=DIRECTION('ref_axis',(0.,0.707106781186547,0.707106781186548));
#439=DIRECTION('center_axis',(-1.,0.,0.));
#440=DIRECTION('ref_axis',(0.,0.707106781186547,0.707106781186548));
#441=DIRECTION('center_axis',(-1.,0.,0.));
#442=DIRECTION('ref_axis',(0.,0.707106781186547,0.707106781186548));
#443=DIRECTION('',(-1.,0.,0.));
#444=DIRECTION('center_axis',(1.,0.,0.));
#445=DIRECTION('ref_axis',(0.,0.707106781186547,0.707106781186548));
#446=DIRECTION('center_axis',(1.,0.,0.));
#447=DIRECTION('ref_axis',(0.,-1.85037170770859E-16,1.));
#448=DIRECTION('center_axis',(-1.,0.,0.));
#449=DIRECTION('ref_axis',(0.,-1.85037170770859E-16,1.));
#450=DIRECTION('center_axis',(-1.,0.,0.));
#451=DIRECTION('ref_axis',(0.,-1.85037170770859E-16,1.));
#452=DIRECTION('',(-1.,0.,0.));
#453=DIRECTION('center_axis',(1.,0.,0.));
#454=DIRECTION('ref_axis',(0.,-1.85037170770859E-16,1.));
#455=DIRECTION('center_axis',(1.,0.,0.));
#456=DIRECTION('ref_axis',(0.,-0.707106781186548,0.707106781186547));
#457=DIRECTION('center_axis',(-1.,0.,0.));
#458=DIRECTION('ref_axis',(0.,-0.707106781186548,0.707106781186547));
#459=DIRECTION('center_axis',(-1.,0.,0.));
#460=DIRECTION('ref_axis',(0.,-0.707106781186548,0.707106781186547));
#461=DIRECTION('',(-1.,0.,0.));
#462=DIRECTION('center_axis',(1.,0.,0.));
#463=DIRECTION('ref_axis',(0.,-0.707106781186548,0.707106781186547));
#464=DIRECTION('center_axis',(1.,0.,0.));
#465=DIRECTION('ref_axis',(0.,-1.,0.));
#466=DIRECTION('center_axis',(-1.,0.,0.));
#467=DIRECTION('ref_axis',(0.,-1.,0.));
#468=DIRECTION('center_axis',(-1.,0.,0.));
#469=DIRECTION('ref_axis',(0.,-1.,0.));
#470=DIRECTION('',(-1.,0.,0.));
#471=DIRECTION('center_axis',(1.,0.,0.));
#472=DIRECTION('ref_axis',(0.,-1.,0.));
#473=DIRECTION('center_axis',(1.,0.,0.));
#474=DIRECTION('ref_axis',(0.,-0.707106781186548,-0.707106781186548));
#475=DIRECTION('center_axis',(-1.,0.,0.));
#476=DIRECTION('ref_axis',(0.,-0.707106781186548,-0.707106781186548));
#477=DIRECTION('center_axis',(-1.,0.,0.));
#478=DIRECTION('ref_axis',(0.,-0.707106781186548,-0.707106781186548));
#479=DIRECTION('',(-1.,0.,0.));
#480=DIRECTION('center_axis',(1.,0.,0.));
#481=DIRECTION('ref_axis',(0.,-0.707106781186548,-0.707106781186548));
#482=DIRECTION('center_axis',(1.,0.,0.));
#483=DIRECTION('ref_axis',(0.,0.,-1.));
#484=DIRECTION('center_axis',(-1.,0.,0.));
#485=DIRECTION('ref_axis',(0.,0.,-1.));
#486=DIRECTION('center_axis',(-1.,0.,0.));
#487=DIRECTION('ref_axis',(0.,0.,-1.));
#488=DIRECTION('',(-1.,0.,0.));
#489=DIRECTION('center_axis',(1.,0.,0.));
#490=DIRECTION('ref_axis',(0.,0.,-1.));
#491=DIRECTION('center_axis',(1.,0.,0.));
#492=DIRECTION('ref_axis',(0.,0.,-1.));
#493=DIRECTION('center_axis',(-1.,0.,0.));
#494=DIRECTION('ref_axis',(0.,0.,1.));
#495=DIRECTION('center_axis',(-1.,0.,0.));
#496=DIRECTION('ref_axis',(0.,0.,1.));
#497=DIRECTION('center_axis',(-1.,0.,0.));
#498=DIRECTION('ref_axis',(0.,0.,1.));
#499=DIRECTION('center_axis',(-1.,0.,0.));
#500=DIRECTION('ref_axis',(0.,0.,1.));
#501=DIRECTION('center_axis',(-1.,0.,0.));
#502=DIRECTION('ref_axis',(0.,0.,1.));
#503=DIRECTION('',(1.,0.,0.));
#504=DIRECTION('center_axis',(1.,0.,0.));
#505=DIRECTION('ref_axis',(0.,0.,-1.));
#506=DIRECTION('center_axis',(-1.,0.,0.));
#507=DIRECTION('ref_axis',(0.,0.,1.));
#508=DIRECTION('center_axis',(-1.,0.,0.));
#509=DIRECTION('ref_axis',(0.,0.,1.));
#510=DIRECTION('center_axis',(-1.,0.,0.));
#511=DIRECTION('ref_axis',(0.,0.,1.));
#512=DIRECTION('',(1.,0.,0.));
#513=DIRECTION('center_axis',(-1.,0.,0.));
#514=DIRECTION('ref_axis',(0.,0.,1.));
#515=DIRECTION('center_axis',(-1.,0.,0.));
#516=DIRECTION('ref_axis',(0.,0.,1.));
#517=DIRECTION('center_axis',(1.,0.,0.));
#518=DIRECTION('ref_axis',(0.,0.,-1.));
#519=DIRECTION('center_axis',(-1.,0.,0.));
#520=DIRECTION('ref_axis',(0.,0.,1.));
#521=DIRECTION('center_axis',(-1.,0.,0.));
#522=DIRECTION('ref_axis',(0.,0.,1.));
#523=DIRECTION('center_axis',(-1.,0.,0.));
#524=DIRECTION('ref_axis',(0.,0.,1.));
#525=DIRECTION('center_axis',(-1.,0.,0.));
#526=DIRECTION('ref_axis',(0.,0.,1.));
#527=DIRECTION('center_axis',(-1.,0.,0.));
#528=DIRECTION('ref_axis',(0.,0.,1.));
#529=DIRECTION('',(1.,0.,0.));
#530=DIRECTION('center_axis',(-1.,0.,0.));
#531=DIRECTION('ref_axis',(0.,0.,1.));
#532=CARTESIAN_POINT('',(0.,0.,0.));
#533=CARTESIAN_POINT('Origin',(-233.653589743449,-51.2652416360247,51.2652416360247));
#534=CARTESIAN_POINT('',(0.,-48.0832611206853,48.0832611206852));
#535=CARTESIAN_POINT('',(0.,-54.4472221513642,54.4472221513642));
#536=CARTESIAN_POINT('Origin',(0.,-51.2652416360247,51.2652416360247));
#537=CARTESIAN_POINT('Origin',(0.,-51.2652416360247,51.2652416360247));
#538=CARTESIAN_POINT('',(-12.,-54.4472221513642,54.4472221513642));
#539=CARTESIAN_POINT('',(-233.653589743449,-54.4472221513642,54.4472221513642));
#540=CARTESIAN_POINT('Origin',(-12.,-51.2652416360247,51.2652416360247));
#541=CARTESIAN_POINT('Origin',(-233.653589743449,-72.5,-8.88178419700125E-15));
#542=CARTESIAN_POINT('',(0.,-68.,-8.88178419700125E-15));
#543=CARTESIAN_POINT('',(0.,-77.,-1.02655425250864E-14));
#544=CARTESIAN_POINT('Origin',(0.,-72.5,-8.88178419700125E-15));
#545=CARTESIAN_POINT('Origin',(0.,-72.5,-8.88178419700125E-15));
#546=CARTESIAN_POINT('',(-12.,-77.,-1.33226762955019E-14));
#547=CARTESIAN_POINT('',(-233.653589743449,-77.,-1.02655425250864E-14));
#548=CARTESIAN_POINT('Origin',(-12.,-72.5,-8.88178419700125E-15));
#549=CARTESIAN_POINT('Origin',(-233.653589743449,-51.2652416360247,-51.2652416360247));
#550=CARTESIAN_POINT('',(0.,-48.0832611206852,-48.0832611206853));
#551=CARTESIAN_POINT('',(0.,-54.4472221513642,-54.4472221513642));
#552=CARTESIAN_POINT('Origin',(0.,-51.2652416360247,-51.2652416360247));
#553=CARTESIAN_POINT('Origin',(0.,-51.2652416360247,-51.2652416360247));
#554=CARTESIAN_POINT('',(-12.,-54.4472221513642,-54.4472221513642));
#555=CARTESIAN_POINT('',(-233.653589743449,-54.4472221513642,-54.4472221513642));
#556=CARTESIAN_POINT('Origin',(-12.,-51.2652416360247,-51.2652416360247));
#557=CARTESIAN_POINT('Origin',(-233.653589743449,8.88178419700125E-15,-72.5));
#558=CARTESIAN_POINT('',(0.,8.88178419700125E-15,-68.));
#559=CARTESIAN_POINT('',(0.,1.02655425250864E-14,-77.));
#560=CARTESIAN_POINT('Origin',(0.,8.88178419700125E-15,-72.5));
#561=CARTESIAN_POINT('Origin',(0.,8.88178419700125E-15,-72.5));
#562=CARTESIAN_POINT('',(-12.,1.33226762955019E-14,-77.));
#563=CARTESIAN_POINT('',(-233.653589743449,1.02655425250864E-14,-77.));
#564=CARTESIAN_POINT('Origin',(-12.,8.88178419700125E-15,-72.5));
#565=CARTESIAN_POINT('Origin',(-233.653589743449,51.2652416360247,-51.2652416360247));
#566=CARTESIAN_POINT('',(0.,48.0832611206853,-48.0832611206852));
#567=CARTESIAN_POINT('',(0.,54.4472221513642,-54.4472221513642));
#568=CARTESIAN_POINT('Origin',(0.,51.2652416360247,-51.2652416360247));
#569=CARTESIAN_POINT('Origin',(0.,51.2652416360247,-51.2652416360247));
#570=CARTESIAN_POINT('',(-12.,54.4472221513642,-54.4472221513642));
#571=CARTESIAN_POINT('',(-233.653589743449,54.4472221513642,-54.4472221513642));
#572=CARTESIAN_POINT('Origin',(-12.,51.2652416360247,-51.2652416360247));
#573=CARTESIAN_POINT('Origin',(-233.653589743449,72.5,0.));
#574=CARTESIAN_POINT('',(0.,68.,0.));
#575=CARTESIAN_POINT('',(0.,77.,5.51091059616309E-16));
#576=CARTESIAN_POINT('Origin',(0.,72.5,0.));
#577=CARTESIAN_POINT('Origin',(0.,72.5,0.));
#578=CARTESIAN_POINT('',(-12.,77.,0.));
#579=CARTESIAN_POINT('',(-233.653589743449,77.,5.51091059616309E-16));
#580=CARTESIAN_POINT('Origin',(-12.,72.5,0.));
#581=CARTESIAN_POINT('Origin',(-233.653589743449,51.2652416360247,51.2652416360247));
#582=CARTESIAN_POINT('',(0.,48.0832611206852,48.0832611206852));
#583=CARTESIAN_POINT('',(0.,54.4472221513642,54.4472221513642));
#584=CARTESIAN_POINT('Origin',(0.,51.2652416360247,51.2652416360247));
#585=CARTESIAN_POINT('Origin',(0.,51.2652416360247,51.2652416360247));
#586=CARTESIAN_POINT('',(-12.,54.4472221513642,54.4472221513642));
#587=CARTESIAN_POINT('',(-233.653589743449,54.4472221513642,54.4472221513642));
#588=CARTESIAN_POINT('Origin',(-12.,51.2652416360247,51.2652416360247));
#589=CARTESIAN_POINT('Origin',(-233.653589743449,0.,72.5));
#590=CARTESIAN_POINT('',(0.,0.,68.));
#591=CARTESIAN_POINT('',(0.,-5.51091059616309E-16,77.));
#592=CARTESIAN_POINT('Origin',(0.,0.,72.5));
#593=CARTESIAN_POINT('Origin',(0.,0.,72.5));
#594=CARTESIAN_POINT('',(-12.,-5.51091059616309E-16,77.));
#595=CARTESIAN_POINT('',(-233.653589743449,-5.51091059616309E-16,77.));
#596=CARTESIAN_POINT('Origin',(-12.,0.,72.5));
#597=CARTESIAN_POINT('Origin',(0.,0.,46.1));
#598=CARTESIAN_POINT('',(0.,0.,46.1));
#599=CARTESIAN_POINT('',(0.,-5.6456217440693E-15,-46.1));
#600=CARTESIAN_POINT('Origin',(0.,0.,0.));
#601=CARTESIAN_POINT('Origin',(0.,0.,0.));
#602=CARTESIAN_POINT('Origin',(-2.3,0.,0.));
#603=CARTESIAN_POINT('',(-4.6,0.,46.1));
#604=CARTESIAN_POINT('',(-4.6,-5.6456217440693E-15,-46.1));
#605=CARTESIAN_POINT('Origin',(-4.6,0.,0.));
#606=CARTESIAN_POINT('Origin',(-4.6,0.,0.));
#607=CARTESIAN_POINT('',(-2.3,-5.6456217440693E-15,-46.1));
#608=CARTESIAN_POINT('Origin',(-4.6,0.,51.));
#609=CARTESIAN_POINT('',(-4.6,0.,51.));
#610=CARTESIAN_POINT('',(-4.6,-6.2456986756515E-15,-51.));
#611=CARTESIAN_POINT('Origin',(-4.6,0.,0.));
#612=CARTESIAN_POINT('Origin',(-4.6,0.,0.));
#613=CARTESIAN_POINT('Origin',(-2.3,0.,0.));
#614=CARTESIAN_POINT('',(0.,-6.2456986756515E-15,-51.));
#615=CARTESIAN_POINT('',(-2.3,-6.2456986756515E-15,-51.));
#616=CARTESIAN_POINT('',(0.,0.,51.));
#617=CARTESIAN_POINT('Origin',(0.,0.,0.));
#618=CARTESIAN_POINT('Origin',(0.,0.,0.));
#619=CARTESIAN_POINT('Origin',(-1.37263937590019E-14,0.,82.4999999999999));
#620=CARTESIAN_POINT('',(-1.37263937590019E-14,0.,82.4999999999999));
#621=CARTESIAN_POINT('',(-1.4432899320127E-14,-1.01033360929657E-14,-82.5));
#622=CARTESIAN_POINT('Origin',(-1.33226762955019E-14,0.,0.));
#623=CARTESIAN_POINT('Origin',(-1.33226762955019E-14,0.,0.));
#624=CARTESIAN_POINT('Origin',(-6.00000000000001,0.,0.));
#625=CARTESIAN_POINT('',(-12.,0.,82.5));
#626=CARTESIAN_POINT('',(-12.,-1.01033360929657E-14,-82.5));
#627=CARTESIAN_POINT('Origin',(-12.,0.,0.));
#628=CARTESIAN_POINT('Origin',(-12.,0.,0.));
#629=CARTESIAN_POINT('',(-6.00000000000001,-1.01033360929657E-14,-82.5));
#630=CARTESIAN_POINT('Origin',(-12.,0.,7.105427357601E-14));
#631=UNCERTAINTY_MEASURE_WITH_UNIT(LENGTH_MEASURE(0.01),#635,
'DISTANCE_ACCURACY_VALUE',
'Maximum model space distance between geometric entities at asserted c
onnectivities');
#632=UNCERTAINTY_MEASURE_WITH_UNIT(LENGTH_MEASURE(0.01),#635,
'DISTANCE_ACCURACY_VALUE',
'Maximum model space distance between geometric entities at asserted c
onnectivities');
#633=(
GEOMETRIC_REPRESENTATION_CONTEXT(3)
GLOBAL_UNCERTAINTY_ASSIGNED_CONTEXT((#631))
GLOBAL_UNIT_ASSIGNED_CONTEXT((#635,#638,#637))
REPRESENTATION_CONTEXT('','3D')
);
#634=(
GEOMETRIC_REPRESENTATION_CONTEXT(3)
GLOBAL_UNCERTAINTY_ASSIGNED_CONTEXT((#632))
GLOBAL_UNIT_ASSIGNED_CONTEXT((#635,#638,#637))
REPRESENTATION_CONTEXT('','3D')
);
#635=(
LENGTH_UNIT()
NAMED_UNIT(*)
SI_UNIT(.MILLI.,.METRE.)
);
#636=(
LENGTH_UNIT()
NAMED_UNIT(*)
SI_UNIT(.CENTI.,.METRE.)
);
#637=(
NAMED_UNIT(*)
SI_UNIT($,.STERADIAN.)
SOLID_ANGLE_UNIT()
);
#638=(
NAMED_UNIT(*)
PLANE_ANGLE_UNIT()
SI_UNIT($,.RADIAN.)
);
#639=SHAPE_DEFINITION_REPRESENTATION(#640,#641);
#640=PRODUCT_DEFINITION_SHAPE('',$,#643);
#641=SHAPE_REPRESENTATION('',(#365),#633);
#642=PRODUCT_DEFINITION_CONTEXT('part definition',#647,'design');
#643=PRODUCT_DEFINITION('FL-100LFB','FL-100LFB',#644,#642);
#644=PRODUCT_DEFINITION_FORMATION('',$,#649);
#645=PRODUCT_RELATED_PRODUCT_CATEGORY('FL-100LFB','FL-100LFB',(#649));
#646=APPLICATION_PROTOCOL_DEFINITION('international standard',
'automotive_design',2009,#647);
#647=APPLICATION_CONTEXT(
'Core Data for Automotive Mechanical Design Process');
#648=PRODUCT_CONTEXT('part definition',#647,'mechanical');
#649=PRODUCT('FL-100LFB','FL-100LFB',$,(#648));
#650=PRESENTATION_STYLE_ASSIGNMENT((#651));
#651=SURFACE_STYLE_USAGE(.BOTH.,#652);
#652=SURFACE_SIDE_STYLE('',(#653));
#653=SURFACE_STYLE_FILL_AREA(#654);
#654=FILL_AREA_STYLE('',(#655));
#655=FILL_AREA_STYLE_COLOUR('',#656);
#656=COLOUR_RGB('',0.745098039215686,0.737254901960784,0.729411764705882);
ENDSEC;
END-ISO-10303-21;
