ISO-10303-21;
HEADER;
/* Generated by software containing ST-Developer
 * from STEP Tools, Inc. (www.steptools.com) 
 */

FILE_DESCRIPTION(
/* description */ (''),
/* implementation_level */ '2;1');

FILE_NAME(
/* name */ 'G:\\FLANGES & FITTINGS\\NW100LF\\Step files\\FL-100LF.stp',

/* time_stamp */ '2018-07-12T09:01:06+01:00',
/* author */ ('paul'),
/* organization */ (''),
/* preprocessor_version */ 'ST-DEVELOPER v17',
/* originating_system */ 'Autodesk Inventor 2019',
/* authorisation */ '');

FILE_SCHEMA (('AUTOMOTIVE_DESIGN { 1 0 10303 214 3 1 1 }'));
ENDSEC;

DATA;
#10=MECHANICAL_DESIGN_GEOMETRIC_PRESENTATION_REPRESENTATION('',(#13),#493);
#11=SHAPE_REPRESENTATION_RELATIONSHIP('SRR','None',#500,#12);
#12=ADVANCED_BREP_SHAPE_REPRESENTATION('',(#14),#492);
#13=STYLED_ITEM('',(#509),#14);
#14=MANIFOLD_SOLID_BREP('Solid1',#257);
#15=TOROIDAL_SURFACE('',#297,65.,1.5);
#16=FACE_BOUND('',#50,.T.);
#17=FACE_BOUND('',#54,.T.);
#18=FACE_BOUND('',#58,.T.);
#19=FACE_BOUND('',#64,.T.);
#20=PLANE('',#284);
#21=PLANE('',#294);
#22=PLANE('',#302);
#23=PLANE('',#308);
#24=PLANE('',#309);
#25=PLANE('',#315);
#26=CYLINDRICAL_SURFACE('',#281,65.);
#27=CYLINDRICAL_SURFACE('',#291,65.);
#28=CYLINDRICAL_SURFACE('',#299,62.5);
#29=CYLINDRICAL_SURFACE('',#305,56.5);
#30=CYLINDRICAL_SURFACE('',#312,46.1);
#31=CYLINDRICAL_SURFACE('',#318,51.);
#32=FACE_OUTER_BOUND('',#47,.T.);
#33=FACE_OUTER_BOUND('',#48,.T.);
#34=FACE_OUTER_BOUND('',#49,.T.);
#35=FACE_OUTER_BOUND('',#51,.T.);
#36=FACE_OUTER_BOUND('',#52,.T.);
#37=FACE_OUTER_BOUND('',#53,.T.);
#38=FACE_OUTER_BOUND('',#55,.T.);
#39=FACE_OUTER_BOUND('',#56,.T.);
#40=FACE_OUTER_BOUND('',#57,.T.);
#41=FACE_OUTER_BOUND('',#59,.T.);
#42=FACE_OUTER_BOUND('',#60,.T.);
#43=FACE_OUTER_BOUND('',#61,.T.);
#44=FACE_OUTER_BOUND('',#62,.T.);
#45=FACE_OUTER_BOUND('',#63,.T.);
#46=FACE_OUTER_BOUND('',#65,.T.);
#47=EDGE_LOOP('',(#170,#171,#172,#173,#174));
#48=EDGE_LOOP('',(#175,#176,#177,#178,#179,#180));
#49=EDGE_LOOP('',(#181));
#50=EDGE_LOOP('',(#182,#183));
#51=EDGE_LOOP('',(#184,#185,#186,#187,#188));
#52=EDGE_LOOP('',(#189,#190,#191,#192,#193,#194));
#53=EDGE_LOOP('',(#195));
#54=EDGE_LOOP('',(#196,#197));
#55=EDGE_LOOP('',(#198,#199,#200,#201,#202,#203));
#56=EDGE_LOOP('',(#204,#205,#206,#207,#208,#209));
#57=EDGE_LOOP('',(#210,#211));
#58=EDGE_LOOP('',(#212,#213));
#59=EDGE_LOOP('',(#214,#215,#216,#217,#218,#219));
#60=EDGE_LOOP('',(#220,#221));
#61=EDGE_LOOP('',(#222,#223));
#62=EDGE_LOOP('',(#224,#225,#226,#227,#228,#229));
#63=EDGE_LOOP('',(#230,#231));
#64=EDGE_LOOP('',(#232,#233));
#65=EDGE_LOOP('',(#234,#235,#236,#237,#238,#239));
#66=LINE('',#418,#74);
#67=LINE('',#424,#75);
#68=LINE('',#439,#76);
#69=LINE('',#446,#77);
#70=LINE('',#456,#78);
#71=LINE('',#470,#79);
#72=LINE('',#482,#80);
#73=LINE('',#489,#81);
#74=VECTOR('',#325,64.75);
#75=VECTOR('',#332,65.);
#76=VECTOR('',#349,64.75);
#77=VECTOR('',#358,65.);
#78=VECTOR('',#371,62.5);
#79=VECTOR('',#388,56.5);
#80=VECTOR('',#403,46.1);
#81=VECTOR('',#412,51.);
#82=CIRCLE('',#278,64.5);
#83=CIRCLE('',#279,65.);
#84=CIRCLE('',#280,65.);
#85=CIRCLE('',#282,65.);
#86=CIRCLE('',#283,65.);
#87=CIRCLE('',#285,62.5);
#88=CIRCLE('',#286,62.5);
#89=CIRCLE('',#288,65.);
#90=CIRCLE('',#289,65.);
#91=CIRCLE('',#290,64.5);
#92=CIRCLE('',#292,65.);
#93=CIRCLE('',#293,65.);
#94=CIRCLE('',#295,51.);
#95=CIRCLE('',#296,51.);
#96=CIRCLE('',#298,1.5);
#97=CIRCLE('',#300,62.5);
#98=CIRCLE('',#301,62.5);
#99=CIRCLE('',#303,56.5);
#100=CIRCLE('',#304,56.5);
#101=CIRCLE('',#306,56.5);
#102=CIRCLE('',#307,56.5);
#103=CIRCLE('',#310,46.1);
#104=CIRCLE('',#311,46.1);
#105=CIRCLE('',#313,46.1);
#106=CIRCLE('',#314,46.1);
#107=CIRCLE('',#316,51.);
#108=CIRCLE('',#317,51.);
#109=VERTEX_POINT('',#415);
#110=VERTEX_POINT('',#417);
#111=VERTEX_POINT('',#419);
#112=VERTEX_POINT('',#423);
#113=VERTEX_POINT('',#425);
#114=VERTEX_POINT('',#429);
#115=VERTEX_POINT('',#430);
#116=VERTEX_POINT('',#434);
#117=VERTEX_POINT('',#435);
#118=VERTEX_POINT('',#438);
#119=VERTEX_POINT('',#442);
#120=VERTEX_POINT('',#443);
#121=VERTEX_POINT('',#448);
#122=VERTEX_POINT('',#449);
#123=VERTEX_POINT('',#455);
#124=VERTEX_POINT('',#457);
#125=VERTEX_POINT('',#461);
#126=VERTEX_POINT('',#462);
#127=VERTEX_POINT('',#466);
#128=VERTEX_POINT('',#467);
#129=VERTEX_POINT('',#473);
#130=VERTEX_POINT('',#474);
#131=VERTEX_POINT('',#478);
#132=VERTEX_POINT('',#479);
#133=VERTEX_POINT('',#484);
#134=VERTEX_POINT('',#485);
#135=EDGE_CURVE('',#109,#109,#82,.T.);
#136=EDGE_CURVE('',#109,#110,#66,.T.);
#137=EDGE_CURVE('',#110,#111,#83,.T.);
#138=EDGE_CURVE('',#111,#110,#84,.T.);
#139=EDGE_CURVE('',#111,#112,#67,.T.);
#140=EDGE_CURVE('',#112,#113,#85,.T.);
#141=EDGE_CURVE('',#113,#112,#86,.T.);
#142=EDGE_CURVE('',#114,#115,#87,.T.);
#143=EDGE_CURVE('',#115,#114,#88,.T.);
#144=EDGE_CURVE('',#116,#117,#89,.T.);
#145=EDGE_CURVE('',#117,#116,#90,.T.);
#146=EDGE_CURVE('',#116,#118,#68,.T.);
#147=EDGE_CURVE('',#118,#118,#91,.T.);
#148=EDGE_CURVE('',#119,#120,#92,.T.);
#149=EDGE_CURVE('',#120,#119,#93,.T.);
#150=EDGE_CURVE('',#120,#117,#69,.T.);
#151=EDGE_CURVE('',#121,#122,#94,.T.);
#152=EDGE_CURVE('',#122,#121,#95,.T.);
#153=EDGE_CURVE('',#120,#112,#96,.T.);
#154=EDGE_CURVE('',#115,#123,#70,.T.);
#155=EDGE_CURVE('',#124,#123,#97,.T.);
#156=EDGE_CURVE('',#123,#124,#98,.T.);
#157=EDGE_CURVE('',#125,#126,#99,.T.);
#158=EDGE_CURVE('',#126,#125,#100,.T.);
#159=EDGE_CURVE('',#127,#128,#101,.T.);
#160=EDGE_CURVE('',#128,#127,#102,.T.);
#161=EDGE_CURVE('',#128,#126,#71,.T.);
#162=EDGE_CURVE('',#129,#130,#103,.T.);
#163=EDGE_CURVE('',#130,#129,#104,.T.);
#164=EDGE_CURVE('',#131,#132,#105,.T.);
#165=EDGE_CURVE('',#132,#131,#106,.T.);
#166=EDGE_CURVE('',#132,#130,#72,.T.);
#167=EDGE_CURVE('',#133,#134,#107,.T.);
#168=EDGE_CURVE('',#134,#133,#108,.T.);
#169=EDGE_CURVE('',#134,#122,#73,.T.);
#170=ORIENTED_EDGE('',*,*,#135,.T.);
#171=ORIENTED_EDGE('',*,*,#136,.T.);
#172=ORIENTED_EDGE('',*,*,#137,.T.);
#173=ORIENTED_EDGE('',*,*,#138,.T.);
#174=ORIENTED_EDGE('',*,*,#136,.F.);
#175=ORIENTED_EDGE('',*,*,#137,.F.);
#176=ORIENTED_EDGE('',*,*,#138,.F.);
#177=ORIENTED_EDGE('',*,*,#139,.T.);
#178=ORIENTED_EDGE('',*,*,#140,.T.);
#179=ORIENTED_EDGE('',*,*,#141,.T.);
#180=ORIENTED_EDGE('',*,*,#139,.F.);
#181=ORIENTED_EDGE('',*,*,#135,.F.);
#182=ORIENTED_EDGE('',*,*,#142,.F.);
#183=ORIENTED_EDGE('',*,*,#143,.F.);
#184=ORIENTED_EDGE('',*,*,#144,.T.);
#185=ORIENTED_EDGE('',*,*,#145,.T.);
#186=ORIENTED_EDGE('',*,*,#146,.T.);
#187=ORIENTED_EDGE('',*,*,#147,.T.);
#188=ORIENTED_EDGE('',*,*,#146,.F.);
#189=ORIENTED_EDGE('',*,*,#148,.F.);
#190=ORIENTED_EDGE('',*,*,#149,.F.);
#191=ORIENTED_EDGE('',*,*,#150,.T.);
#192=ORIENTED_EDGE('',*,*,#144,.F.);
#193=ORIENTED_EDGE('',*,*,#145,.F.);
#194=ORIENTED_EDGE('',*,*,#150,.F.);
#195=ORIENTED_EDGE('',*,*,#147,.F.);
#196=ORIENTED_EDGE('',*,*,#151,.T.);
#197=ORIENTED_EDGE('',*,*,#152,.T.);
#198=ORIENTED_EDGE('',*,*,#148,.T.);
#199=ORIENTED_EDGE('',*,*,#153,.T.);
#200=ORIENTED_EDGE('',*,*,#141,.F.);
#201=ORIENTED_EDGE('',*,*,#140,.F.);
#202=ORIENTED_EDGE('',*,*,#153,.F.);
#203=ORIENTED_EDGE('',*,*,#149,.T.);
#204=ORIENTED_EDGE('',*,*,#142,.T.);
#205=ORIENTED_EDGE('',*,*,#154,.T.);
#206=ORIENTED_EDGE('',*,*,#155,.F.);
#207=ORIENTED_EDGE('',*,*,#156,.F.);
#208=ORIENTED_EDGE('',*,*,#154,.F.);
#209=ORIENTED_EDGE('',*,*,#143,.T.);
#210=ORIENTED_EDGE('',*,*,#155,.T.);
#211=ORIENTED_EDGE('',*,*,#156,.T.);
#212=ORIENTED_EDGE('',*,*,#157,.F.);
#213=ORIENTED_EDGE('',*,*,#158,.F.);
#214=ORIENTED_EDGE('',*,*,#159,.F.);
#215=ORIENTED_EDGE('',*,*,#160,.F.);
#216=ORIENTED_EDGE('',*,*,#161,.T.);
#217=ORIENTED_EDGE('',*,*,#158,.T.);
#218=ORIENTED_EDGE('',*,*,#157,.T.);
#219=ORIENTED_EDGE('',*,*,#161,.F.);
#220=ORIENTED_EDGE('',*,*,#159,.T.);
#221=ORIENTED_EDGE('',*,*,#160,.T.);
#222=ORIENTED_EDGE('',*,*,#162,.F.);
#223=ORIENTED_EDGE('',*,*,#163,.F.);
#224=ORIENTED_EDGE('',*,*,#164,.F.);
#225=ORIENTED_EDGE('',*,*,#165,.F.);
#226=ORIENTED_EDGE('',*,*,#166,.T.);
#227=ORIENTED_EDGE('',*,*,#163,.T.);
#228=ORIENTED_EDGE('',*,*,#162,.T.);
#229=ORIENTED_EDGE('',*,*,#166,.F.);
#230=ORIENTED_EDGE('',*,*,#167,.F.);
#231=ORIENTED_EDGE('',*,*,#168,.F.);
#232=ORIENTED_EDGE('',*,*,#164,.T.);
#233=ORIENTED_EDGE('',*,*,#165,.T.);
#234=ORIENTED_EDGE('',*,*,#167,.T.);
#235=ORIENTED_EDGE('',*,*,#169,.T.);
#236=ORIENTED_EDGE('',*,*,#151,.F.);
#237=ORIENTED_EDGE('',*,*,#152,.F.);
#238=ORIENTED_EDGE('',*,*,#169,.F.);
#239=ORIENTED_EDGE('',*,*,#168,.T.);
#240=CONICAL_SURFACE('',#277,64.75,0.785398163397446);
#241=CONICAL_SURFACE('',#287,64.75,0.785398163397446);
#242=ADVANCED_FACE('',(#32),#240,.T.);
#243=ADVANCED_FACE('',(#33),#26,.T.);
#244=ADVANCED_FACE('',(#34,#16),#20,.T.);
#245=ADVANCED_FACE('',(#35),#241,.T.);
#246=ADVANCED_FACE('',(#36),#27,.T.);
#247=ADVANCED_FACE('',(#37,#17),#21,.T.);
#248=ADVANCED_FACE('',(#38),#15,.F.);
#249=ADVANCED_FACE('',(#39),#28,.F.);
#250=ADVANCED_FACE('',(#40,#18),#22,.T.);
#251=ADVANCED_FACE('',(#41),#29,.T.);
#252=ADVANCED_FACE('',(#42),#23,.T.);
#253=ADVANCED_FACE('',(#43),#24,.T.);
#254=ADVANCED_FACE('',(#44),#30,.T.);
#255=ADVANCED_FACE('',(#45,#19),#25,.T.);
#256=ADVANCED_FACE('',(#46),#31,.F.);
#257=CLOSED_SHELL('',(#242,#243,#244,#245,#246,#247,#248,#249,#250,#251,
#252,#253,#254,#255,#256));
#258=DERIVED_UNIT_ELEMENT(#260,1.);
#259=DERIVED_UNIT_ELEMENT(#495,3.);
#260=(
MASS_UNIT()
NAMED_UNIT(*)
SI_UNIT($,.GRAM.)
);
#261=DERIVED_UNIT((#258,#259));
#262=MEASURE_REPRESENTATION_ITEM('density measure',
POSITIVE_RATIO_MEASURE(8.),#261);
#263=PROPERTY_DEFINITION_REPRESENTATION(#268,#265);
#264=PROPERTY_DEFINITION_REPRESENTATION(#269,#266);
#265=REPRESENTATION('material name',(#267),#492);
#266=REPRESENTATION('density',(#262),#492);
#267=DESCRIPTIVE_REPRESENTATION_ITEM('Stainless Steel AISI 304',
'Stainless Steel AISI 304');
#268=PROPERTY_DEFINITION('material property','material name',#502);
#269=PROPERTY_DEFINITION('material property','density of part',#502);
#270=DATE_TIME_ROLE('creation_date');
#271=APPLIED_DATE_AND_TIME_ASSIGNMENT(#272,#270,(#502));
#272=DATE_AND_TIME(#273,#274);
#273=CALENDAR_DATE(2014,31,7);
#274=LOCAL_TIME(8,57,10.,#275);
#275=COORDINATED_UNIVERSAL_TIME_OFFSET(0,0,.BEHIND.);
#276=AXIS2_PLACEMENT_3D('placement',#413,#319,#320);
#277=AXIS2_PLACEMENT_3D('',#414,#321,#322);
#278=AXIS2_PLACEMENT_3D('',#416,#323,#324);
#279=AXIS2_PLACEMENT_3D('',#420,#326,#327);
#280=AXIS2_PLACEMENT_3D('',#421,#328,#329);
#281=AXIS2_PLACEMENT_3D('',#422,#330,#331);
#282=AXIS2_PLACEMENT_3D('',#426,#333,#334);
#283=AXIS2_PLACEMENT_3D('',#427,#335,#336);
#284=AXIS2_PLACEMENT_3D('',#428,#337,#338);
#285=AXIS2_PLACEMENT_3D('',#431,#339,#340);
#286=AXIS2_PLACEMENT_3D('',#432,#341,#342);
#287=AXIS2_PLACEMENT_3D('',#433,#343,#344);
#288=AXIS2_PLACEMENT_3D('',#436,#345,#346);
#289=AXIS2_PLACEMENT_3D('',#437,#347,#348);
#290=AXIS2_PLACEMENT_3D('',#440,#350,#351);
#291=AXIS2_PLACEMENT_3D('',#441,#352,#353);
#292=AXIS2_PLACEMENT_3D('',#444,#354,#355);
#293=AXIS2_PLACEMENT_3D('',#445,#356,#357);
#294=AXIS2_PLACEMENT_3D('',#447,#359,#360);
#295=AXIS2_PLACEMENT_3D('',#450,#361,#362);
#296=AXIS2_PLACEMENT_3D('',#451,#363,#364);
#297=AXIS2_PLACEMENT_3D('',#452,#365,#366);
#298=AXIS2_PLACEMENT_3D('',#453,#367,#368);
#299=AXIS2_PLACEMENT_3D('',#454,#369,#370);
#300=AXIS2_PLACEMENT_3D('',#458,#372,#373);
#301=AXIS2_PLACEMENT_3D('',#459,#374,#375);
#302=AXIS2_PLACEMENT_3D('',#460,#376,#377);
#303=AXIS2_PLACEMENT_3D('',#463,#378,#379);
#304=AXIS2_PLACEMENT_3D('',#464,#380,#381);
#305=AXIS2_PLACEMENT_3D('',#465,#382,#383);
#306=AXIS2_PLACEMENT_3D('',#468,#384,#385);
#307=AXIS2_PLACEMENT_3D('',#469,#386,#387);
#308=AXIS2_PLACEMENT_3D('',#471,#389,#390);
#309=AXIS2_PLACEMENT_3D('',#472,#391,#392);
#310=AXIS2_PLACEMENT_3D('',#475,#393,#394);
#311=AXIS2_PLACEMENT_3D('',#476,#395,#396);
#312=AXIS2_PLACEMENT_3D('',#477,#397,#398);
#313=AXIS2_PLACEMENT_3D('',#480,#399,#400);
#314=AXIS2_PLACEMENT_3D('',#481,#401,#402);
#315=AXIS2_PLACEMENT_3D('',#483,#404,#405);
#316=AXIS2_PLACEMENT_3D('',#486,#406,#407);
#317=AXIS2_PLACEMENT_3D('',#487,#408,#409);
#318=AXIS2_PLACEMENT_3D('',#488,#410,#411);
#319=DIRECTION('axis',(0.,0.,1.));
#320=DIRECTION('refdir',(1.,0.,0.));
#321=DIRECTION('center_axis',(1.,0.,0.));
#322=DIRECTION('ref_axis',(0.,0.,-1.));
#323=DIRECTION('center_axis',(1.,0.,0.));
#324=DIRECTION('ref_axis',(0.,0.,-1.));
#325=DIRECTION('',(0.707106781186549,8.65956056235491E-17,0.707106781186546));
#326=DIRECTION('center_axis',(-1.,0.,0.));
#327=DIRECTION('ref_axis',(0.,0.,-1.));
#328=DIRECTION('center_axis',(-1.,0.,0.));
#329=DIRECTION('ref_axis',(0.,0.,-1.));
#330=DIRECTION('center_axis',(-1.,0.,0.));
#331=DIRECTION('ref_axis',(0.,0.,1.));
#332=DIRECTION('',(1.,0.,0.));
#333=DIRECTION('center_axis',(-1.,0.,0.));
#334=DIRECTION('ref_axis',(0.,0.,1.));
#335=DIRECTION('center_axis',(-1.,0.,0.));
#336=DIRECTION('ref_axis',(0.,0.,1.));
#337=DIRECTION('center_axis',(-1.,0.,0.));
#338=DIRECTION('ref_axis',(0.,0.,1.));
#339=DIRECTION('center_axis',(-1.,0.,0.));
#340=DIRECTION('ref_axis',(0.,0.,1.));
#341=DIRECTION('center_axis',(-1.,0.,0.));
#342=DIRECTION('ref_axis',(0.,0.,1.));
#343=DIRECTION('center_axis',(-1.,0.,0.));
#344=DIRECTION('ref_axis',(0.,0.,-1.));
#345=DIRECTION('center_axis',(1.,0.,0.));
#346=DIRECTION('ref_axis',(0.,0.,-1.));
#347=DIRECTION('center_axis',(1.,0.,0.));
#348=DIRECTION('ref_axis',(0.,0.,-1.));
#349=DIRECTION('',(0.707106781186549,-8.65956056235492E-17,-0.707106781186546));
#350=DIRECTION('center_axis',(-1.,0.,0.));
#351=DIRECTION('ref_axis',(0.,0.,-1.));
#352=DIRECTION('center_axis',(-1.,0.,0.));
#353=DIRECTION('ref_axis',(0.,0.,1.));
#354=DIRECTION('center_axis',(-1.,0.,0.));
#355=DIRECTION('ref_axis',(0.,0.,1.));
#356=DIRECTION('center_axis',(-1.,0.,0.));
#357=DIRECTION('ref_axis',(0.,0.,1.));
#358=DIRECTION('',(1.,0.,0.));
#359=DIRECTION('center_axis',(1.,0.,0.));
#360=DIRECTION('ref_axis',(0.,0.,-1.));
#361=DIRECTION('center_axis',(-1.,0.,0.));
#362=DIRECTION('ref_axis',(0.,0.,1.));
#363=DIRECTION('center_axis',(-1.,0.,0.));
#364=DIRECTION('ref_axis',(0.,0.,1.));
#365=DIRECTION('center_axis',(-1.,0.,0.));
#366=DIRECTION('ref_axis',(0.,0.,1.));
#367=DIRECTION('center_axis',(0.,-1.,1.22464679914735E-16));
#368=DIRECTION('ref_axis',(0.,-1.22464679914735E-16,-1.));
#369=DIRECTION('center_axis',(-1.,0.,0.));
#370=DIRECTION('ref_axis',(0.,0.,1.));
#371=DIRECTION('',(1.,0.,0.));
#372=DIRECTION('center_axis',(-1.,0.,0.));
#373=DIRECTION('ref_axis',(0.,0.,1.));
#374=DIRECTION('center_axis',(-1.,0.,0.));
#375=DIRECTION('ref_axis',(0.,0.,1.));
#376=DIRECTION('center_axis',(-1.,0.,0.));
#377=DIRECTION('ref_axis',(0.,0.,1.));
#378=DIRECTION('center_axis',(-1.,0.,0.));
#379=DIRECTION('ref_axis',(0.,0.,1.));
#380=DIRECTION('center_axis',(-1.,0.,0.));
#381=DIRECTION('ref_axis',(0.,0.,1.));
#382=DIRECTION('center_axis',(-1.,0.,0.));
#383=DIRECTION('ref_axis',(0.,0.,1.));
#384=DIRECTION('center_axis',(-1.,0.,0.));
#385=DIRECTION('ref_axis',(0.,0.,1.));
#386=DIRECTION('center_axis',(-1.,0.,0.));
#387=DIRECTION('ref_axis',(0.,0.,1.));
#388=DIRECTION('',(1.,0.,0.));
#389=DIRECTION('center_axis',(-1.,0.,0.));
#390=DIRECTION('ref_axis',(0.,0.,1.));
#391=DIRECTION('center_axis',(1.,0.,0.));
#392=DIRECTION('ref_axis',(0.,0.,-1.));
#393=DIRECTION('center_axis',(-1.,0.,0.));
#394=DIRECTION('ref_axis',(0.,0.,1.));
#395=DIRECTION('center_axis',(-1.,0.,0.));
#396=DIRECTION('ref_axis',(0.,0.,1.));
#397=DIRECTION('center_axis',(-1.,0.,0.));
#398=DIRECTION('ref_axis',(0.,0.,1.));
#399=DIRECTION('center_axis',(-1.,0.,0.));
#400=DIRECTION('ref_axis',(0.,0.,1.));
#401=DIRECTION('center_axis',(-1.,0.,0.));
#402=DIRECTION('ref_axis',(0.,0.,1.));
#403=DIRECTION('',(1.,0.,0.));
#404=DIRECTION('center_axis',(1.,0.,0.));
#405=DIRECTION('ref_axis',(0.,0.,-1.));
#406=DIRECTION('center_axis',(-1.,0.,0.));
#407=DIRECTION('ref_axis',(0.,0.,1.));
#408=DIRECTION('center_axis',(-1.,0.,0.));
#409=DIRECTION('ref_axis',(0.,0.,1.));
#410=DIRECTION('center_axis',(-1.,0.,0.));
#411=DIRECTION('ref_axis',(0.,0.,1.));
#412=DIRECTION('',(1.,0.,0.));
#413=CARTESIAN_POINT('',(0.,0.,0.));
#414=CARTESIAN_POINT('Origin',(-11.75,0.,0.));
#415=CARTESIAN_POINT('',(-12.,-7.89897185450043E-15,64.5));
#416=CARTESIAN_POINT('Origin',(-12.,0.,0.));
#417=CARTESIAN_POINT('',(-11.5,7.9602041944578E-15,65.));
#418=CARTESIAN_POINT('',(-11.75,7.92958802447911E-15,64.75));
#419=CARTESIAN_POINT('',(-11.5,-7.9602041944578E-15,-65.));
#420=CARTESIAN_POINT('Origin',(-11.5,0.,0.));
#421=CARTESIAN_POINT('Origin',(-11.5,0.,0.));
#422=CARTESIAN_POINT('Origin',(-9.25,0.,0.));
#423=CARTESIAN_POINT('',(-6.5,-7.9602041944578E-15,-65.));
#424=CARTESIAN_POINT('',(-9.25,-7.9602041944578E-15,-65.));
#425=CARTESIAN_POINT('',(-6.5,0.,65.));
#426=CARTESIAN_POINT('Origin',(-6.5,0.,0.));
#427=CARTESIAN_POINT('Origin',(-6.5,0.,0.));
#428=CARTESIAN_POINT('Origin',(-12.,0.,62.5));
#429=CARTESIAN_POINT('',(-12.,0.,62.5));
#430=CARTESIAN_POINT('',(-12.,-7.65404249467096E-15,-62.5));
#431=CARTESIAN_POINT('Origin',(-12.,0.,0.));
#432=CARTESIAN_POINT('Origin',(-12.,0.,0.));
#433=CARTESIAN_POINT('Origin',(-0.25,0.,0.));
#434=CARTESIAN_POINT('',(-0.5,-7.9602041944578E-15,65.));
#435=CARTESIAN_POINT('',(-0.5,-7.9602041944578E-15,-65.));
#436=CARTESIAN_POINT('Origin',(-0.5,0.,0.));
#437=CARTESIAN_POINT('Origin',(-0.5,0.,0.));
#438=CARTESIAN_POINT('',(0.,7.89897185450043E-15,64.5));
#439=CARTESIAN_POINT('',(-0.25,7.92958802447911E-15,64.75));
#440=CARTESIAN_POINT('Origin',(0.,0.,0.));
#441=CARTESIAN_POINT('Origin',(-1.75,0.,0.));
#442=CARTESIAN_POINT('',(-3.5,0.,65.));
#443=CARTESIAN_POINT('',(-3.5,-7.9602041944578E-15,-65.));
#444=CARTESIAN_POINT('Origin',(-3.5,0.,0.));
#445=CARTESIAN_POINT('Origin',(-3.5,0.,0.));
#446=CARTESIAN_POINT('',(-1.75,-7.9602041944578E-15,-65.));
#447=CARTESIAN_POINT('Origin',(0.,0.,65.));
#448=CARTESIAN_POINT('',(-1.04345436720015E-15,0.,51.));
#449=CARTESIAN_POINT('',(-8.32667268468867E-16,-6.2456986756515E-15,-51.));
#450=CARTESIAN_POINT('Origin',(-1.04345436720015E-15,0.,0.));
#451=CARTESIAN_POINT('Origin',(-1.04345436720015E-15,0.,0.));
#452=CARTESIAN_POINT('Origin',(-5.,0.,0.));
#453=CARTESIAN_POINT('Origin',(-5.,-7.9602041944578E-15,-65.));
#454=CARTESIAN_POINT('Origin',(-11.,0.,0.));
#455=CARTESIAN_POINT('',(-10.,-7.65404249467096E-15,-62.5));
#456=CARTESIAN_POINT('',(-11.,-7.65404249467096E-15,-62.5));
#457=CARTESIAN_POINT('',(-10.,0.,62.5));
#458=CARTESIAN_POINT('Origin',(-10.,0.,0.));
#459=CARTESIAN_POINT('Origin',(-10.,0.,0.));
#460=CARTESIAN_POINT('Origin',(-10.,0.,56.5));
#461=CARTESIAN_POINT('',(-10.,0.,56.5));
#462=CARTESIAN_POINT('',(-10.,-6.91925441518255E-15,-56.5));
#463=CARTESIAN_POINT('Origin',(-10.,0.,0.));
#464=CARTESIAN_POINT('Origin',(-10.,0.,0.));
#465=CARTESIAN_POINT('Origin',(-11.,0.,0.));
#466=CARTESIAN_POINT('',(-12.,0.,56.5));
#467=CARTESIAN_POINT('',(-12.,-6.91925441518255E-15,-56.5));
#468=CARTESIAN_POINT('Origin',(-12.,0.,0.));
#469=CARTESIAN_POINT('Origin',(-12.,0.,0.));
#470=CARTESIAN_POINT('',(-11.,-6.91925441518255E-15,-56.5));
#471=CARTESIAN_POINT('Origin',(-12.,0.,0.));
#472=CARTESIAN_POINT('Origin',(0.,0.,46.1));
#473=CARTESIAN_POINT('',(0.,0.,46.1));
#474=CARTESIAN_POINT('',(0.,-5.6456217440693E-15,-46.1));
#475=CARTESIAN_POINT('Origin',(0.,0.,0.));
#476=CARTESIAN_POINT('Origin',(0.,0.,0.));
#477=CARTESIAN_POINT('Origin',(-2.3,0.,0.));
#478=CARTESIAN_POINT('',(-4.6,0.,46.1));
#479=CARTESIAN_POINT('',(-4.6,-5.6456217440693E-15,-46.1));
#480=CARTESIAN_POINT('Origin',(-4.6,0.,0.));
#481=CARTESIAN_POINT('Origin',(-4.6,0.,0.));
#482=CARTESIAN_POINT('',(-2.3,-5.6456217440693E-15,-46.1));
#483=CARTESIAN_POINT('Origin',(-4.6,0.,51.));
#484=CARTESIAN_POINT('',(-4.6,0.,51.));
#485=CARTESIAN_POINT('',(-4.6,-6.2456986756515E-15,-51.));
#486=CARTESIAN_POINT('Origin',(-4.6,0.,0.));
#487=CARTESIAN_POINT('Origin',(-4.6,0.,0.));
#488=CARTESIAN_POINT('Origin',(-2.3,0.,0.));
#489=CARTESIAN_POINT('',(-2.3,-6.2456986756515E-15,-51.));
#490=UNCERTAINTY_MEASURE_WITH_UNIT(LENGTH_MEASURE(0.01),#494,
'DISTANCE_ACCURACY_VALUE',
'Maximum model space distance between geometric entities at asserted c
onnectivities');
#491=UNCERTAINTY_MEASURE_WITH_UNIT(LENGTH_MEASURE(0.01),#494,
'DISTANCE_ACCURACY_VALUE',
'Maximum model space distance between geometric entities at asserted c
onnectivities');
#492=(
GEOMETRIC_REPRESENTATION_CONTEXT(3)
GLOBAL_UNCERTAINTY_ASSIGNED_CONTEXT((#490))
GLOBAL_UNIT_ASSIGNED_CONTEXT((#494,#497,#496))
REPRESENTATION_CONTEXT('','3D')
);
#493=(
GEOMETRIC_REPRESENTATION_CONTEXT(3)
GLOBAL_UNCERTAINTY_ASSIGNED_CONTEXT((#491))
GLOBAL_UNIT_ASSIGNED_CONTEXT((#494,#497,#496))
REPRESENTATION_CONTEXT('','3D')
);
#494=(
LENGTH_UNIT()
NAMED_UNIT(*)
SI_UNIT(.MILLI.,.METRE.)
);
#495=(
LENGTH_UNIT()
NAMED_UNIT(*)
SI_UNIT(.CENTI.,.METRE.)
);
#496=(
NAMED_UNIT(*)
SI_UNIT($,.STERADIAN.)
SOLID_ANGLE_UNIT()
);
#497=(
NAMED_UNIT(*)
PLANE_ANGLE_UNIT()
SI_UNIT($,.RADIAN.)
);
#498=SHAPE_DEFINITION_REPRESENTATION(#499,#500);
#499=PRODUCT_DEFINITION_SHAPE('',$,#502);
#500=SHAPE_REPRESENTATION('',(#276),#492);
#501=PRODUCT_DEFINITION_CONTEXT('part definition',#506,'design');
#502=PRODUCT_DEFINITION('FL-100LF','FL-100LF',#503,#501);
#503=PRODUCT_DEFINITION_FORMATION('',$,#508);
#504=PRODUCT_RELATED_PRODUCT_CATEGORY('FL-100LF','FL-100LF',(#508));
#505=APPLICATION_PROTOCOL_DEFINITION('international standard',
'automotive_design',2009,#506);
#506=APPLICATION_CONTEXT(
'Core Data for Automotive Mechanical Design Process');
#507=PRODUCT_CONTEXT('part definition',#506,'mechanical');
#508=PRODUCT('FL-100LF','FL-100LF',$,(#507));
#509=PRESENTATION_STYLE_ASSIGNMENT((#510));
#510=SURFACE_STYLE_USAGE(.BOTH.,#511);
#511=SURFACE_SIDE_STYLE('',(#512));
#512=SURFACE_STYLE_FILL_AREA(#513);
#513=FILL_AREA_STYLE('',(#514));
#514=FILL_AREA_STYLE_COLOUR('',#515);
#515=COLOUR_RGB('',0.745098039215686,0.737254901960784,0.729411764705882);
ENDSEC;
END-ISO-10303-21;
