ISO-10303-21;
HEADER;
FILE_DESCRIPTION (( 'STEP AP203' ),
    '1' );
FILE_NAME ('A1429-2-C.STEP',
    '2013-11-12T13:44:13',
    ( '' ),
    ( '' ),
    'SwSTEP 2.0',
    'SolidWorks 2012',
    '' );
FILE_SCHEMA (( 'CONFIG_CONTROL_DESIGN' ));
ENDSEC;

DATA;
#1 = AXIS2_PLACEMENT_3D ( 'NONE', #180, #202, #207 ) ;
#2 = AXIS2_PLACEMENT_3D ( 'NONE', #192, #198, #190 ) ;
#3 = AXIS2_PLACEMENT_3D ( 'NONE', #187, #188, #179 ) ;
#4 = AXIS2_PLACEMENT_3D ( 'NONE', #156, #194, #155 ) ;
#5 = AXIS2_PLACEMENT_3D ( 'NONE', #191, #204, #186 ) ;
#6 = AXIS2_PLACEMENT_3D ( 'NONE', #208, #197, #196 ) ;
#7 = AXIS2_PLACEMENT_3D ( 'NONE', #206, #95, #85 ) ;
#8 = AXIS2_PLACEMENT_3D ( 'NONE', #209, #86, #98 ) ;
#9 = PRODUCT_RELATED_PRODUCT_CATEGORY ( 'detail', '', ( #70 ) ) ;
#10 = CC_DESIGN_SECURITY_CLASSIFICATION ( #15, ( #20 ) ) ;
#11 = CC_DESIGN_APPROVAL ( #12, ( #15 ) ) ;
#12 = APPROVAL ( #121, 'UNSPECIFIED' ) ;
#13 = CC_DESIGN_DATE_AND_TIME_ASSIGNMENT ( #304, #127, ( #15 ) ) ;
#14 = CC_DESIGN_PERSON_AND_ORGANIZATION_ASSIGNMENT ( #308, #128, ( #15 ) ) ;
#15 = SECURITY_CLASSIFICATION ( '', '', #129 ) ;
#16 = CC_DESIGN_PERSON_AND_ORGANIZATION_ASSIGNMENT ( #309, #130, ( #20 ) ) ;
#17 = CC_DESIGN_PERSON_AND_ORGANIZATION_ASSIGNMENT ( #310, #131, ( #20 ) ) ;
#18 = CC_DESIGN_APPROVAL ( #19, ( #20 ) ) ;
#19 = APPROVAL ( #133, 'UNSPECIFIED' ) ;
#20 = PRODUCT_DEFINITION_FORMATION_WITH_SPECIFIED_SOURCE ( 'ANY', '', #70, .NOT_KNOWN. ) ;
#21 = CC_DESIGN_DATE_AND_TIME_ASSIGNMENT ( #320, #136, ( #35 ) ) ;
#22 = CC_DESIGN_PERSON_AND_ORGANIZATION_ASSIGNMENT ( #324, #137, ( #35 ) ) ;
#23 = AXIS2_PLACEMENT_3D ( 'NONE', #152, #90, #88 ) ;
#24 = CC_DESIGN_APPROVAL ( #34, ( #35 ) ) ;
#25 = AXIS2_PLACEMENT_3D ( 'NONE', #103, #91, #113 ) ;
#26 = AXIS2_PLACEMENT_3D ( 'NONE', #99, #111, #119 ) ;
#27 = AXIS2_PLACEMENT_3D ( 'NONE', #116, #92, #104 ) ;
#28 =( GEOMETRIC_REPRESENTATION_CONTEXT ( 3 ) GLOBAL_UNCERTAINTY_ASSIGNED_CONTEXT ( ( #67 ) ) GLOBAL_UNIT_ASSIGNED_CONTEXT ( ( #154, #153, #151 ) ) REPRESENTATION_CONTEXT ( 'NONE', 'WORKASPACE' ) );
#29 = AXIS2_PLACEMENT_3D ( 'NONE', #108, #107, #105 ) ;
#30 = AXIS2_PLACEMENT_3D ( 'NONE', #115, #117, #114 ) ;
#31 = AXIS2_PLACEMENT_3D ( 'NONE', #122, #120, #134 ) ;
#32 = AXIS2_PLACEMENT_3D ( 'NONE', #125, #126, #124 ) ;
#33 = AXIS2_PLACEMENT_3D ( 'NONE', #205, #203, #199 ) ;
#34 = APPROVAL ( #139, 'UNSPECIFIED' ) ;
#35 = PRODUCT_DEFINITION ( 'UNKNOWN', '', #20, #72 ) ;
#36 = CC_DESIGN_PERSON_AND_ORGANIZATION_ASSIGNMENT ( #332, #144, ( #70 ) ) ;
#37 = AXIS2_PLACEMENT_3D ( 'NONE', #165, #159, #147 ) ;
#38 = EDGE_CURVE ( 'NONE', #290, #277, #211, .T. ) ;
#39 = EDGE_CURVE ( 'NONE', #283, #268, #292, .T. ) ;
#40 = EDGE_CURVE ( 'NONE', #280, #285, #225, .T. ) ;
#41 = EDGE_CURVE ( 'NONE', #272, #286, #226, .T. ) ;
#42 = EDGE_CURVE ( 'NONE', #268, #288, #219, .T. ) ;
#43 = EDGE_CURVE ( 'NONE', #287, #341, #242, .T. ) ;
#44 = EDGE_CURVE ( 'NONE', #341, #285, #240, .T. ) ;
#45 = AXIS2_PLACEMENT_3D ( 'NONE', #195, #109, #201 ) ;
#46 = EDGE_CURVE ( 'NONE', #287, #280, #217, .T. ) ;
#47 = EDGE_CURVE ( 'NONE', #277, #290, #230, .T. ) ;
#48 = EDGE_CURVE ( 'NONE', #285, #280, #355, .T. ) ;
#49 = EDGE_CURVE ( 'NONE', #285, #277, #220, .T. ) ;
#50 = EDGE_CURVE ( 'NONE', #280, #290, #244, .T. ) ;
#51 = AXIS2_PLACEMENT_3D ( 'NONE', #100, #169, #106 ) ;
#52 = AXIS2_PLACEMENT_3D ( 'NONE', #101, #110, #146 ) ;
#53 = EDGE_CURVE ( 'NONE', #283, #286, #221, .T. ) ;
#54 = AXIS2_PLACEMENT_3D ( 'NONE', #97, #94, #89 ) ;
#55 = AXIS2_PLACEMENT_3D ( 'NONE', #102, #158, #142 ) ;
#56 = AXIS2_PLACEMENT_3D ( 'NONE', #87, #166, #164 ) ;
#57 = AXIS2_PLACEMENT_3D ( 'NONE', #177, #174, #172 ) ;
#58 = EDGE_CURVE ( 'NONE', #268, #272, #224, .T. ) ;
#59 = EDGE_CURVE ( 'NONE', #281, #288, #215, .T. ) ;
#60 = AXIS2_PLACEMENT_3D ( 'NONE', #167, #123, #135 ) ;
#61 = AXIS2_PLACEMENT_3D ( 'NONE', #189, #149, #143 ) ;
#62 = EDGE_CURVE ( 'NONE', #286, #272, #234, .T. ) ;
#63 = EDGE_CURVE ( 'NONE', #268, #283, #214, .T. ) ;
#64 = EDGE_CURVE ( 'NONE', #288, #281, #223, .T. ) ;
#65 = EDGE_CURVE ( 'NONE', #341, #287, #247, .T. ) ;
#66 = EDGE_CURVE ( 'NONE', #283, #281, #228, .T. ) ;
#67 = UNCERTAINTY_MEASURE_WITH_UNIT (LENGTH_MEASURE( 1.000000000000000100E-005 ), #154, 'distance_accuracy_value', 'NONE');
#68 = ADVANCED_BREP_SHAPE_REPRESENTATION ( 'A1429-2-C', ( #69, #37 ), #28 ) ;
#69 = MANIFOLD_SOLID_BREP ( 'Cut-Revolve1', #252 ) ;
#70 = PRODUCT ( 'A1429-2-C', 'A1429-2-C', '', ( #145 ) ) ;
#71 = PERSON ( 'UNSPECIFIED', 'UNSPECIFIED', 'UNSPECIFIED', ('UNSPECIFIED'), ('UNSPECIFIED'), ('UNSPECIFIED') ) ;
#72 = DESIGN_CONTEXT ( 'detailed design', #141, 'design' ) ;
#73 = PRODUCT_DEFINITION_SHAPE ( 'NONE', 'NONE',  #35 ) ;
#74 = ADVANCED_FACE ( 'NONE', ( #229 ), #264, .F. ) ;
#75 = ADVANCED_FACE ( 'NONE', ( #297 ), #350, .T. ) ;
#76 = ADVANCED_FACE ( 'NONE', ( #295, #349 ), #93, .F. ) ;
#77 = ADVANCED_FACE ( 'NONE', ( #344 ), #294, .F. ) ;
#78 = ADVANCED_FACE ( 'NONE', ( #353 ), #352, .F. ) ;
#79 = ADVANCED_FACE ( 'NONE', ( #318 ), #340, .T. ) ;
#80 = ADVANCED_FACE ( 'NONE', ( #315, #342 ), #200, .T. ) ;
#81 = ADVANCED_FACE ( 'NONE', ( #293 ), #339, .T. ) ;
#82 = DIMENSIONAL_EXPONENTS ( 1.000000000000000000, 0.0000000000000000000, 0.0000000000000000000, 0.0000000000000000000, 0.0000000000000000000, 0.0000000000000000000, 0.0000000000000000000 ) ;
#83 = ADVANCED_FACE ( 'NONE', ( #348 ), #343, .F. ) ;
#84 = ADVANCED_FACE ( 'NONE', ( #336 ), #347, .T. ) ;
#85 = DIRECTION ( 'NONE',  ( -1.000000000000000000, 0.0000000000000000000, 0.0000000000000000000 ) ) ;
#86 = DIRECTION ( 'NONE',  ( -0.0000000000000000000, -0.0000000000000000000, -1.000000000000000000 ) ) ;
#87 = CARTESIAN_POINT ( 'NONE',  ( 0.0000000000000000000, 0.0000000000000000000, 0.0000000000000000000 ) ) ;
#88 = DIRECTION ( 'NONE',  ( -1.000000000000000000, 0.0000000000000000000, 0.0000000000000000000 ) ) ;
#89 = DIRECTION ( 'NONE',  ( -1.000000000000000000, 0.0000000000000000000, 0.0000000000000000000 ) ) ;
#90 = DIRECTION ( 'NONE',  ( -0.0000000000000000000, -0.0000000000000000000, -1.000000000000000000 ) ) ;
#91 = DIRECTION ( 'NONE',  ( 0.0000000000000000000, 0.0000000000000000000, 1.000000000000000000 ) ) ;
#92 = DIRECTION ( 'NONE',  ( -0.0000000000000000000, -0.0000000000000000000, -1.000000000000000000 ) ) ;
#93 = PLANE ( 'NONE',  #25 ) ;
#94 = DIRECTION ( 'NONE',  ( -0.0000000000000000000, -0.0000000000000000000, -1.000000000000000000 ) ) ;
#95 = DIRECTION ( 'NONE',  ( -0.0000000000000000000, -0.0000000000000000000, -1.000000000000000000 ) ) ;
#96 = DIRECTION ( 'NONE',  ( -0.0000000000000000000, -0.0000000000000000000, -1.000000000000000000 ) ) ;
#97 = CARTESIAN_POINT ( 'NONE',  ( 0.0000000000000000000, 0.0000000000000000000, 0.02743613449619597400 ) ) ;
#98 = DIRECTION ( 'NONE',  ( -1.000000000000000000, 0.0000000000000000000, 0.0000000000000000000 ) ) ;
#99 = CARTESIAN_POINT ( 'NONE',  ( 0.0000000000000000000, 0.0000000000000000000, 0.1850000000000000000 ) ) ;
#100 = CARTESIAN_POINT ( 'NONE',  ( 0.0000000000000000000, 0.0000000000000000000, 0.1450000000000000200 ) ) ;
#101 = CARTESIAN_POINT ( 'NONE',  ( 0.0000000000000000000, 0.0000000000000000000, 0.0000000000000000000 ) ) ;
#102 = CARTESIAN_POINT ( 'NONE',  ( 0.0000000000000000000, 0.0000000000000000000, 0.0000000000000000000 ) ) ;
#103 = CARTESIAN_POINT ( 'NONE',  ( 0.0000000000000000000, 0.0000000000000000000, 0.0000000000000000000 ) ) ;
#104 = DIRECTION ( 'NONE',  ( -1.000000000000000000, 0.0000000000000000000, 0.0000000000000000000 ) ) ;
#105 = DIRECTION ( 'NONE',  ( 0.0000000000000000000, 0.0000000000000000000, -1.000000000000000000 ) ) ;
#106 = DIRECTION ( 'NONE',  ( 1.000000000000000000, 0.0000000000000000000, 0.0000000000000000000 ) ) ;
#107 = DIRECTION ( 'NONE',  ( 0.0000000000000000000, -1.000000000000000000, 0.0000000000000000000 ) ) ;
#108 = CARTESIAN_POINT ( 'NONE',  ( 0.05150000000000001800, 0.0000000000000000000, 0.1450000000000000200 ) ) ;
#109 = DIRECTION ( 'NONE',  ( 1.224646799147353200E-016, 1.000000000000000000, -0.0000000000000000000 ) ) ;
#110 = DIRECTION ( 'NONE',  ( -0.0000000000000000000, -0.0000000000000000000, -1.000000000000000000 ) ) ;
#111 = DIRECTION ( 'NONE',  ( -0.0000000000000000000, -0.0000000000000000000, -1.000000000000000000 ) ) ;
#112 = CARTESIAN_POINT ( 'NONE',  ( 0.09150000000000001200, 1.120551821219828500E-017, 0.1850000000000000000 ) ) ;
#113 = DIRECTION ( 'NONE',  ( 1.000000000000000000, 0.0000000000000000000, -0.0000000000000000000 ) ) ;
#114 = DIRECTION ( 'NONE',  ( 1.000000000000000000, 0.0000000000000000000, 0.0000000000000000000 ) ) ;
#115 = CARTESIAN_POINT ( 'NONE',  ( 0.0000000000000000000, 0.0000000000000000000, 0.1850000000000000000 ) ) ;
#116 = CARTESIAN_POINT ( 'NONE',  ( 0.0000000000000000000, 0.0000000000000000000, -0.04033290731812560300 ) ) ;
#117 = DIRECTION ( 'NONE',  ( 0.0000000000000000000, 0.0000000000000000000, 1.000000000000000000 ) ) ;
#118 = APPROVAL_ROLE ( '' ) ;
#119 = DIRECTION ( 'NONE',  ( -1.000000000000000000, 0.0000000000000000000, 0.0000000000000000000 ) ) ;
#120 = DIRECTION ( 'NONE',  ( 0.0000000000000000000, 0.0000000000000000000, 1.000000000000000000 ) ) ;
#121 = APPROVAL_STATUS ( 'not_yet_approved' ) ;
#122 = CARTESIAN_POINT ( 'NONE',  ( 0.0000000000000000000, 0.0000000000000000000, 0.1850000000000000000 ) ) ;
#123 = DIRECTION ( 'NONE',  ( -0.0000000000000000000, -0.0000000000000000000, -1.000000000000000000 ) ) ;
#124 = DIRECTION ( 'NONE',  ( 1.000000000000000000, 0.0000000000000000000, 0.0000000000000000000 ) ) ;
#125 = CARTESIAN_POINT ( 'NONE',  ( 0.0000000000000000000, 0.0000000000000000000, 0.1450000000000000200 ) ) ;
#126 = DIRECTION ( 'NONE',  ( -0.0000000000000000000, -0.0000000000000000000, -1.000000000000000000 ) ) ;
#127 = DATE_TIME_ROLE ( 'classification_date' ) ;
#128 = PERSON_AND_ORGANIZATION_ROLE ( 'classification_officer' ) ;
#129 = SECURITY_CLASSIFICATION_LEVEL ( 'unclassified' ) ;
#130 = PERSON_AND_ORGANIZATION_ROLE ( 'design_supplier' ) ;
#131 = PERSON_AND_ORGANIZATION_ROLE ( 'creator' ) ;
#132 = APPROVAL_ROLE ( '' ) ;
#133 = APPROVAL_STATUS ( 'not_yet_approved' ) ;
#134 = DIRECTION ( 'NONE',  ( 1.000000000000000000, 0.0000000000000000000, 0.0000000000000000000 ) ) ;
#135 = DIRECTION ( 'NONE',  ( -1.000000000000000000, 0.0000000000000000000, 0.0000000000000000000 ) ) ;
#136 = DATE_TIME_ROLE ( 'creation_date' ) ;
#137 = PERSON_AND_ORGANIZATION_ROLE ( 'creator' ) ;
#138 = APPROVAL_ROLE ( '' ) ;
#139 = APPROVAL_STATUS ( 'not_yet_approved' ) ;
#140 = APPLICATION_PROTOCOL_DEFINITION ( 'international standard', 'config_control_design', 1994, #141 ) ;
#141 = APPLICATION_CONTEXT ( 'configuration controlled 3d designs of mechanical parts and assemblies' ) ;
#142 = DIRECTION ( 'NONE',  ( 1.000000000000000000, 0.0000000000000000000, 0.0000000000000000000 ) ) ;
#143 = DIRECTION ( 'NONE',  ( 1.000000000000000000, 0.0000000000000000000, 0.0000000000000000000 ) ) ;
#144 = PERSON_AND_ORGANIZATION_ROLE ( 'design_owner' ) ;
#145 = MECHANICAL_CONTEXT ( 'NONE', #148, 'mechanical' ) ;
#146 = DIRECTION ( 'NONE',  ( -1.000000000000000000, 0.0000000000000000000, 0.0000000000000000000 ) ) ;
#147 = DIRECTION ( 'NONE',  ( 1.000000000000000000, 0.0000000000000000000, 0.0000000000000000000 ) ) ;
#148 = APPLICATION_CONTEXT ( 'configuration controlled 3d designs of mechanical parts and assemblies' ) ;
#149 = DIRECTION ( 'NONE',  ( 0.0000000000000000000, 0.0000000000000000000, 1.000000000000000000 ) ) ;
#150 = APPLICATION_PROTOCOL_DEFINITION ( 'international standard', 'config_control_design', 1994, #148 ) ;
#151 =( NAMED_UNIT ( * ) SI_UNIT ( $, .STERADIAN. ) SOLID_ANGLE_UNIT ( ) );
#152 = CARTESIAN_POINT ( 'NONE',  ( 0.0000000000000000000, 0.0000000000000000000, 0.1850000000000000000 ) ) ;
#153 =( NAMED_UNIT ( * ) PLANE_ANGLE_UNIT ( ) SI_UNIT ( $, .RADIAN. ) );
#154 =( CONVERSION_BASED_UNIT ( 'INCH', #335 ) LENGTH_UNIT ( ) NAMED_UNIT ( #82 ) );
#155 = DIRECTION ( 'NONE',  ( 1.000000000000000000, 0.0000000000000000000, 0.0000000000000000000 ) ) ;
#156 = CARTESIAN_POINT ( 'NONE',  ( 0.0000000000000000000, 0.0000000000000000000, 0.1850000000000000000 ) ) ;
#157 =( LENGTH_UNIT ( ) NAMED_UNIT ( * ) SI_UNIT ( $, .METRE. ) );
#158 = DIRECTION ( 'NONE',  ( 0.0000000000000000000, 0.0000000000000000000, 1.000000000000000000 ) ) ;
#159 = DIRECTION ( 'NONE',  ( 0.0000000000000000000, 0.0000000000000000000, 1.000000000000000000 ) ) ;
#160 = CARTESIAN_POINT ( 'NONE',  ( 0.04350000000000000400, 5.327213576290987000E-018, 0.1850000000000000000 ) ) ;
#161 = DIRECTION ( 'NONE',  ( -0.0000000000000000000, -0.0000000000000000000, -1.000000000000000000 ) ) ;
#162 = CARTESIAN_POINT ( 'NONE',  ( -0.05150000000000001800, 8.756224613903577600E-018, 0.1850000000000000000 ) ) ;
#163 = CARTESIAN_POINT ( 'NONE',  ( -0.04350000000000000400, 0.0000000000000000000, 0.1850000000000000000 ) ) ;
#164 = DIRECTION ( 'NONE',  ( -1.000000000000000000, 0.0000000000000000000, 0.0000000000000000000 ) ) ;
#165 = CARTESIAN_POINT ( 'NONE',  ( 0.0000000000000000000, 0.0000000000000000000, 0.0000000000000000000 ) ) ;
#166 = DIRECTION ( 'NONE',  ( -0.0000000000000000000, -0.0000000000000000000, -1.000000000000000000 ) ) ;
#167 = CARTESIAN_POINT ( 'NONE',  ( 0.0000000000000000000, 0.0000000000000000000, 0.02743613449619597400 ) ) ;
#168 = CARTESIAN_POINT ( 'NONE',  ( -0.08709607392837259700, 0.0000000000000000000, 0.0000000000000000000 ) ) ;
#169 = DIRECTION ( 'NONE',  ( -0.0000000000000000000, -0.0000000000000000000, -1.000000000000000000 ) ) ;
#170 = CARTESIAN_POINT ( 'NONE',  ( 0.09150000000000001200, 1.120551821219828500E-017, 0.0000000000000000000 ) ) ;
#171 = CARTESIAN_POINT ( 'NONE',  ( -0.04350000000000000400, 0.0000000000000000000, 0.02743613449619597400 ) ) ;
#172 = DIRECTION ( 'NONE',  ( 0.0000000000000000000, 0.0000000000000000000, -1.000000000000000000 ) ) ;
#173 = CARTESIAN_POINT ( 'NONE',  ( 0.04350000000000000400, 5.327213576290987000E-018, 0.02743613449619597400 ) ) ;
#174 = DIRECTION ( 'NONE',  ( 0.0000000000000000000, -1.000000000000000000, 0.0000000000000000000 ) ) ;
#175 = CARTESIAN_POINT ( 'NONE',  ( 0.08709607392837259700, 1.066619281546827600E-017, 0.0000000000000000000 ) ) ;
#176 = CARTESIAN_POINT ( 'NONE',  ( -0.09150000000000001200, 0.0000000000000000000, 0.1450000000000000200 ) ) ;
#177 = CARTESIAN_POINT ( 'NONE',  ( -0.03128236366558074400, 0.0000000000000000000, -0.04033290731812560300 ) ) ;
#178 = CARTESIAN_POINT ( 'NONE',  ( -0.09150000000000001200, 0.0000000000000000000, 0.0000000000000000000 ) ) ;
#179 = DIRECTION ( 'NONE',  ( 1.000000000000000000, 0.0000000000000000000, 0.0000000000000000000 ) ) ;
#180 = CARTESIAN_POINT ( 'NONE',  ( 0.0000000000000000000, 0.0000000000000000000, 0.1850000000000000000 ) ) ;
#181 = CARTESIAN_POINT ( 'NONE',  ( -0.04350000000000000400, 0.0000000000000000000, 0.1850000000000000000 ) ) ;
#182 = CARTESIAN_POINT ( 'NONE',  ( 0.05150000000000001800, 0.0000000000000000000, 0.1850000000000000000 ) ) ;
#183 = DIRECTION ( 'NONE',  ( -0.0000000000000000000, -0.0000000000000000000, -1.000000000000000000 ) ) ;
#184 = CARTESIAN_POINT ( 'NONE',  ( 0.04350000000000000400, 5.327213576290987000E-018, 0.1850000000000000000 ) ) ;
#185 = CARTESIAN_POINT ( 'NONE',  ( 0.09150000000000001200, 1.120551821219828500E-017, 0.1450000000000000200 ) ) ;
#186 = DIRECTION ( 'NONE',  ( -1.000000000000000000, 0.0000000000000000000, 0.0000000000000000000 ) ) ;
#187 = CARTESIAN_POINT ( 'NONE',  ( 0.0000000000000000000, 0.0000000000000000000, 0.1450000000000000200 ) ) ;
#188 = DIRECTION ( 'NONE',  ( 0.0000000000000000000, 0.0000000000000000000, 1.000000000000000000 ) ) ;
#189 = CARTESIAN_POINT ( 'NONE',  ( 0.0000000000000000000, 0.0000000000000000000, 0.0000000000000000000 ) ) ;
#190 = DIRECTION ( 'NONE',  ( 1.000000000000000000, 0.0000000000000000000, 0.0000000000000000000 ) ) ;
#191 = CARTESIAN_POINT ( 'NONE',  ( 0.0000000000000000000, 0.0000000000000000000, -0.04033290731812560300 ) ) ;
#192 = CARTESIAN_POINT ( 'NONE',  ( 0.0000000000000000000, 0.0000000000000000000, 0.1450000000000000200 ) ) ;
#193 = CARTESIAN_POINT ( 'NONE',  ( -0.09150000000000001200, 0.0000000000000000000, 0.1850000000000000000 ) ) ;
#194 = DIRECTION ( 'NONE',  ( 0.0000000000000000000, 0.0000000000000000000, 1.000000000000000000 ) ) ;
#195 = CARTESIAN_POINT ( 'NONE',  ( -0.05150000000000001800, 6.306931015608871200E-018, 0.1450000000000000200 ) ) ;
#196 = DIRECTION ( 'NONE',  ( 1.000000000000000000, 0.0000000000000000000, -0.0000000000000000000 ) ) ;
#197 = DIRECTION ( 'NONE',  ( 0.0000000000000000000, 0.0000000000000000000, 1.000000000000000000 ) ) ;
#198 = DIRECTION ( 'NONE',  ( 0.0000000000000000000, 0.0000000000000000000, 1.000000000000000000 ) ) ;
#199 = DIRECTION ( 'NONE',  ( -1.000000000000000000, -1.224646799147353000E-016, 0.0000000000000000000 ) ) ;
#200 = PLANE ( 'NONE',  #6 ) ;
#201 = DIRECTION ( 'NONE',  ( -1.000000000000000000, 1.224646799147353500E-016, 0.0000000000000000000 ) ) ;
#202 = DIRECTION ( 'NONE',  ( 0.0000000000000000000, 0.0000000000000000000, 1.000000000000000000 ) ) ;
#203 = DIRECTION ( 'NONE',  ( -1.224646799147353200E-016, 1.000000000000000000, 0.0000000000000000000 ) ) ;
#204 = DIRECTION ( 'NONE',  ( -0.0000000000000000000, -0.0000000000000000000, -1.000000000000000000 ) ) ;
#205 = CARTESIAN_POINT ( 'NONE',  ( 0.03128236366558074400, 3.830984653281691800E-018, -0.04033290731812560300 ) ) ;
#206 = CARTESIAN_POINT ( 'NONE',  ( 0.0000000000000000000, 0.0000000000000000000, 0.1850000000000000000 ) ) ;
#207 = DIRECTION ( 'NONE',  ( 1.000000000000000000, 0.0000000000000000000, 0.0000000000000000000 ) ) ;
#208 = CARTESIAN_POINT ( 'NONE',  ( 0.0000000000000000000, 0.0000000000000000000, 0.1850000000000000000 ) ) ;
#209 = CARTESIAN_POINT ( 'NONE',  ( 0.0000000000000000000, 0.0000000000000000000, 0.1850000000000000000 ) ) ;
#210 = DIRECTION ( 'NONE',  ( -0.0000000000000000000, -0.0000000000000000000, -1.000000000000000000 ) ) ;
#211 = CIRCLE ( 'NONE', #52, 0.08709607392837261100 ) ;
#212 = VECTOR ( 'NONE', #161, 39.37007874015748100 ) ;
#213 = VECTOR ( 'NONE', #96, 39.37007874015748100 ) ;
#214 = CIRCLE ( 'NONE', #32, 0.09150000000000001200 ) ;
#215 = CIRCLE ( 'NONE', #4, 0.05150000000000001800 ) ;
#216 = ORIENTED_EDGE ( 'NONE', *, *, #49, .F. ) ;
#217 = LINE ( 'NONE', #181, #243 ) ;
#218 = ORIENTED_EDGE ( 'NONE', *, *, #53, .T. ) ;
#219 = CIRCLE ( 'NONE', #45, 0.04000000000000000100 ) ;
#220 = CIRCLE ( 'NONE', #33, 0.06886155433935098300 ) ;
#221 = LINE ( 'NONE', #112, #245 ) ;
#222 = ORIENTED_EDGE ( 'NONE', *, *, #44, .F. ) ;
#223 = CIRCLE ( 'NONE', #31, 0.05150000000000001800 ) ;
#224 = LINE ( 'NONE', #193, #212 ) ;
#225 = CIRCLE ( 'NONE', #54, 0.04350000000000000400 ) ;
#226 = CIRCLE ( 'NONE', #55, 0.09150000000000001200 ) ;
#227 = ORIENTED_EDGE ( 'NONE', *, *, #50, .F. ) ;
#228 = CIRCLE ( 'NONE', #29, 0.04000000000000000100 ) ;
#229 = FACE_OUTER_BOUND ( 'NONE', #270, .T. ) ;
#230 = CIRCLE ( 'NONE', #56, 0.08709607392837261100 ) ;
#231 = EDGE_LOOP ( 'NONE', ( #275, #258 ) ) ;
#232 = ORIENTED_EDGE ( 'NONE', *, *, #38, .T. ) ;
#233 = EDGE_LOOP ( 'NONE', ( #291, #269, #250, #338 ) ) ;
#234 = CIRCLE ( 'NONE', #61, 0.09150000000000001200 ) ;
#235 = ORIENTED_EDGE ( 'NONE', *, *, #53, .F. ) ;
#236 = EDGE_LOOP ( 'NONE', ( #235, #237, #255, #253 ) ) ;
#237 = ORIENTED_EDGE ( 'NONE', *, *, #39, .T. ) ;
#238 = ORIENTED_EDGE ( 'NONE', *, *, #66, .T. ) ;
#239 = ORIENTED_EDGE ( 'NONE', *, *, #46, .T. ) ;
#240 = LINE ( 'NONE', #184, #213 ) ;
#241 = EDGE_LOOP ( 'NONE', ( #248, #346 ) ) ;
#242 = CIRCLE ( 'NONE', #1, 0.04350000000000000400 ) ;
#243 = VECTOR ( 'NONE', #183, 39.37007874015748100 ) ;
#244 = CIRCLE ( 'NONE', #57, 0.06886155433935098300 ) ;
#245 = VECTOR ( 'NONE', #210, 39.37007874015748100 ) ;
#246 = ORIENTED_EDGE ( 'NONE', *, *, #64, .F. ) ;
#247 = CIRCLE ( 'NONE', #30, 0.04350000000000000400 ) ;
#248 = ORIENTED_EDGE ( 'NONE', *, *, #59, .T. ) ;
#249 = EDGE_LOOP ( 'NONE', ( #263, #259, #238, #246 ) ) ;
#250 = ORIENTED_EDGE ( 'NONE', *, *, #59, .F. ) ;
#251 = ORIENTED_EDGE ( 'NONE', *, *, #49, .T. ) ;
#252 = CLOSED_SHELL ( 'NONE', ( #74, #81, #77, #75, #80, #76, #79, #78, #84, #83 ) ) ;
#253 = ORIENTED_EDGE ( 'NONE', *, *, #41, .T. ) ;
#254 = EDGE_LOOP ( 'NONE', ( #222, #279, #239, #273 ) ) ;
#255 = ORIENTED_EDGE ( 'NONE', *, *, #58, .T. ) ;
#256 = EDGE_LOOP ( 'NONE', ( #276, #274 ) ) ;
#257 = EDGE_LOOP ( 'NONE', ( #289, #218, #284, #356 ) ) ;
#258 = ORIENTED_EDGE ( 'NONE', *, *, #62, .F. ) ;
#259 = ORIENTED_EDGE ( 'NONE', *, *, #39, .F. ) ;
#260 = EDGE_LOOP ( 'NONE', ( #337, #265 ) ) ;
#261 = EDGE_LOOP ( 'NONE', ( #345, #271, #278, #282 ) ) ;
#262 = ORIENTED_EDGE ( 'NONE', *, *, #50, .T. ) ;
#263 = ORIENTED_EDGE ( 'NONE', *, *, #42, .F. ) ;
#264 = TOROIDAL_SURFACE ( 'NONE', #27, 0.03128236366558074400, 0.06886155433935098300 ) ;
#265 = ORIENTED_EDGE ( 'NONE', *, *, #65, .F. ) ;
#266 = ORIENTED_EDGE ( 'NONE', *, *, #40, .F. ) ;
#267 = EDGE_LOOP ( 'NONE', ( #216, #266, #262, #232 ) ) ;
#268 = VERTEX_POINT ( 'NONE', #176 ) ;
#269 = ORIENTED_EDGE ( 'NONE', *, *, #42, .T. ) ;
#270 = EDGE_LOOP ( 'NONE', ( #354, #251, #351, #227 ) ) ;
#271 = ORIENTED_EDGE ( 'NONE', *, *, #44, .T. ) ;
#272 = VERTEX_POINT ( 'NONE', #178 ) ;
#273 = ORIENTED_EDGE ( 'NONE', *, *, #40, .T. ) ;
#274 = ORIENTED_EDGE ( 'NONE', *, *, #47, .F. ) ;
#275 = ORIENTED_EDGE ( 'NONE', *, *, #41, .F. ) ;
#276 = ORIENTED_EDGE ( 'NONE', *, *, #38, .F. ) ;
#277 = VERTEX_POINT ( 'NONE', #175 ) ;
#278 = ORIENTED_EDGE ( 'NONE', *, *, #48, .T. ) ;
#279 = ORIENTED_EDGE ( 'NONE', *, *, #65, .T. ) ;
#280 = VERTEX_POINT ( 'NONE', #171 ) ;
#281 = VERTEX_POINT ( 'NONE', #182 ) ;
#282 = ORIENTED_EDGE ( 'NONE', *, *, #46, .F. ) ;
#283 = VERTEX_POINT ( 'NONE', #185 ) ;
#284 = ORIENTED_EDGE ( 'NONE', *, *, #62, .T. ) ;
#285 = VERTEX_POINT ( 'NONE', #173 ) ;
#286 = VERTEX_POINT ( 'NONE', #170 ) ;
#287 = VERTEX_POINT ( 'NONE', #163 ) ;
#288 = VERTEX_POINT ( 'NONE', #162 ) ;
#289 = ORIENTED_EDGE ( 'NONE', *, *, #63, .T. ) ;
#290 = VERTEX_POINT ( 'NONE', #168 ) ;
#291 = ORIENTED_EDGE ( 'NONE', *, *, #63, .F. ) ;
#292 = CIRCLE ( 'NONE', #51, 0.09150000000000001200 ) ;
#293 = FACE_OUTER_BOUND ( 'NONE', #233, .T. ) ;
#294 = CYLINDRICAL_SURFACE ( 'NONE', #23, 0.04350000000000000400 ) ;
#295 = FACE_BOUND ( 'NONE', #256, .T. ) ;
#296 = APPROVAL_DATE_TIME ( #298, #12 ) ;
#297 = FACE_OUTER_BOUND ( 'NONE', #257, .T. ) ;
#298 = DATE_AND_TIME ( #299, #300 ) ;
#299 = CALENDAR_DATE ( 2013, 12, 11 ) ;
#300 = LOCAL_TIME ( 8, 44, 13.00000000000000000, #301 ) ;
#301 = COORDINATED_UNIVERSAL_TIME_OFFSET ( 5, 0, .BEHIND. ) ;
#302 = APPROVAL_PERSON_ORGANIZATION ( #303, #12, #118 ) ;
#303 = PERSON_AND_ORGANIZATION ( #71, #333 ) ;
#304 = DATE_AND_TIME ( #305, #306 ) ;
#305 = CALENDAR_DATE ( 2013, 12, 11 ) ;
#306 = LOCAL_TIME ( 8, 44, 13.00000000000000000, #307 ) ;
#307 = COORDINATED_UNIVERSAL_TIME_OFFSET ( 5, 0, .BEHIND. ) ;
#308 = PERSON_AND_ORGANIZATION ( #71, #333 ) ;
#309 = PERSON_AND_ORGANIZATION ( #71, #333 ) ;
#310 = PERSON_AND_ORGANIZATION ( #71, #333 ) ;
#311 = APPROVAL_DATE_TIME ( #312, #19 ) ;
#312 = DATE_AND_TIME ( #313, #314 ) ;
#313 = CALENDAR_DATE ( 2013, 12, 11 ) ;
#314 = LOCAL_TIME ( 8, 44, 13.00000000000000000, #316 ) ;
#315 = FACE_OUTER_BOUND ( 'NONE', #241, .T. ) ;
#316 = COORDINATED_UNIVERSAL_TIME_OFFSET ( 5, 0, .BEHIND. ) ;
#317 = APPROVAL_PERSON_ORGANIZATION ( #319, #19, #132 ) ;
#318 = FACE_OUTER_BOUND ( 'NONE', #236, .T. ) ;
#319 = PERSON_AND_ORGANIZATION ( #71, #333 ) ;
#320 = DATE_AND_TIME ( #321, #322 ) ;
#321 = CALENDAR_DATE ( 2013, 12, 11 ) ;
#322 = LOCAL_TIME ( 8, 44, 13.00000000000000000, #323 ) ;
#323 = COORDINATED_UNIVERSAL_TIME_OFFSET ( 5, 0, .BEHIND. ) ;
#324 = PERSON_AND_ORGANIZATION ( #71, #333 ) ;
#325 = APPROVAL_DATE_TIME ( #326, #34 ) ;
#326 = DATE_AND_TIME ( #327, #328 ) ;
#327 = CALENDAR_DATE ( 2013, 12, 11 ) ;
#328 = LOCAL_TIME ( 8, 44, 13.00000000000000000, #329 ) ;
#329 = COORDINATED_UNIVERSAL_TIME_OFFSET ( 5, 0, .BEHIND. ) ;
#330 = APPROVAL_PERSON_ORGANIZATION ( #331, #34, #138 ) ;
#331 = PERSON_AND_ORGANIZATION ( #71, #333 ) ;
#332 = PERSON_AND_ORGANIZATION ( #71, #333 ) ;
#333 = ORGANIZATION ( 'UNSPECIFIED', 'UNSPECIFIED', '' ) ;
#334 = SHAPE_DEFINITION_REPRESENTATION ( #73, #68 ) ;
#335 = LENGTH_MEASURE_WITH_UNIT ( LENGTH_MEASURE( 0.02539999999999999900 ), #157 );
#336 = FACE_OUTER_BOUND ( 'NONE', #249, .T. ) ;
#337 = ORIENTED_EDGE ( 'NONE', *, *, #43, .F. ) ;
#338 = ORIENTED_EDGE ( 'NONE', *, *, #66, .F. ) ;
#339 = TOROIDAL_SURFACE ( 'NONE', #2, 0.05150000000000001800, 0.04000000000000000100 ) ;
#340 = CYLINDRICAL_SURFACE ( 'NONE', #7, 0.09150000000000001200 ) ;
#341 = VERTEX_POINT ( 'NONE', #160 ) ;
#342 = FACE_BOUND ( 'NONE', #260, .T. ) ;
#343 = TOROIDAL_SURFACE ( 'NONE', #5, 0.03128236366558074400, 0.06886155433935098300 ) ;
#344 = FACE_OUTER_BOUND ( 'NONE', #261, .T. ) ;
#345 = ORIENTED_EDGE ( 'NONE', *, *, #43, .T. ) ;
#346 = ORIENTED_EDGE ( 'NONE', *, *, #64, .T. ) ;
#347 = TOROIDAL_SURFACE ( 'NONE', #3, 0.05150000000000001800, 0.04000000000000000100 ) ;
#348 = FACE_OUTER_BOUND ( 'NONE', #267, .T. ) ;
#349 = FACE_OUTER_BOUND ( 'NONE', #231, .T. ) ;
#350 = CYLINDRICAL_SURFACE ( 'NONE', #26, 0.09150000000000001200 ) ;
#351 = ORIENTED_EDGE ( 'NONE', *, *, #47, .T. ) ;
#352 = CYLINDRICAL_SURFACE ( 'NONE', #8, 0.04350000000000000400 ) ;
#353 = FACE_OUTER_BOUND ( 'NONE', #254, .T. ) ;
#354 = ORIENTED_EDGE ( 'NONE', *, *, #48, .F. ) ;
#355 = CIRCLE ( 'NONE', #60, 0.04350000000000000400 ) ;
#356 = ORIENTED_EDGE ( 'NONE', *, *, #58, .F. ) ;
ENDSEC;
END-ISO-10303-21;
