ISO-10303-21;
HEADER;
FILE_DESCRIPTION (( 'STEP AP203' ),
    '1' );
FILE_NAME ('A1429-1-C.STEP',
    '2013-11-12T13:44:29',
    ( '' ),
    ( '' ),
    'SwSTEP 2.0',
    'SolidWorks 2012',
    '' );
FILE_SCHEMA (( 'CONFIG_CONTROL_DESIGN' ));
ENDSEC;

DATA;
#1 = ADVANCED_FACE ( 'NONE', ( #273, #261 ), #210, .T. ) ;
#2 = ADVANCED_FACE ( 'NONE', ( #237 ), #221, .T. ) ;
#3 = ADVANCED_FACE ( 'NONE', ( #249 ), #246, .T. ) ;
#4 = DIMENSIONAL_EXPONENTS ( 1.000000000000000000, 0.0000000000000000000, 0.0000000000000000000, 0.0000000000000000000, 0.0000000000000000000, 0.0000000000000000000, 0.0000000000000000000 ) ;
#5 = ADVANCED_FACE ( 'NONE', ( #359 ), #265, .F. ) ;
#6 = ADVANCED_FACE ( 'NONE', ( #364 ), #250, .T. ) ;
#7 = ADVANCED_FACE ( 'NONE', ( #271 ), #233, .F. ) ;
#8 = ADVANCED_FACE ( 'NONE', ( #285 ), #222, .F. ) ;
#9 = ADVANCED_FACE ( 'NONE', ( #372 ), #275, .F. ) ;
#10 = ADVANCED_FACE ( 'NONE', ( #303 ), #365, .F. ) ;
#11 = ADVANCED_FACE ( 'NONE', ( #262 ), #253, .F. ) ;
#12 = ADVANCED_FACE ( 'NONE', ( #259 ), #370, .T. ) ;
#13 = AXIS2_PLACEMENT_3D ( 'NONE', #90, #156, #135 ) ;
#14 = AXIS2_PLACEMENT_3D ( 'NONE', #213, #212, #211 ) ;
#15 = EDGE_CURVE ( 'NONE', #245, #247, #230, .T. ) ;
#16 = AXIS2_PLACEMENT_3D ( 'NONE', #193, #134, #138 ) ;
#17 = AXIS2_PLACEMENT_3D ( 'NONE', #199, #198, #197 ) ;
#18 = AXIS2_PLACEMENT_3D ( 'NONE', #208, #207, #202 ) ;
#19 = AXIS2_PLACEMENT_3D ( 'NONE', #217, #216, #215 ) ;
#20 = AXIS2_PLACEMENT_3D ( 'NONE', #96, #95, #94 ) ;
#21 = AXIS2_PLACEMENT_3D ( 'NONE', #100, #98, #115 ) ;
#22 = AXIS2_PLACEMENT_3D ( 'NONE', #103, #102, #101 ) ;
#23 = AXIS2_PLACEMENT_3D ( 'NONE', #107, #99, #105 ) ;
#24 = AXIS2_PLACEMENT_3D ( 'NONE', #93, #118, #113 ) ;
#25 = AXIS2_PLACEMENT_3D ( 'NONE', #209, #164, #214 ) ;
#26 = AXIS2_PLACEMENT_3D ( 'NONE', #173, #205, #166 ) ;
#27 = PRODUCT_RELATED_PRODUCT_CATEGORY ( 'detail', '', ( #86 ) ) ;
#28 = CC_DESIGN_SECURITY_CLASSIFICATION ( #33, ( #38 ) ) ;
#29 = CC_DESIGN_APPROVAL ( #30, ( #33 ) ) ;
#30 = APPROVAL ( #110, 'UNSPECIFIED' ) ;
#31 = CC_DESIGN_DATE_AND_TIME_ASSIGNMENT ( #293, #111, ( #33 ) ) ;
#32 = CC_DESIGN_PERSON_AND_ORGANIZATION_ASSIGNMENT ( #297, #112, ( #33 ) ) ;
#33 = SECURITY_CLASSIFICATION ( '', '', #114 ) ;
#34 = CC_DESIGN_PERSON_AND_ORGANIZATION_ASSIGNMENT ( #298, #116, ( #38 ) ) ;
#35 = CC_DESIGN_PERSON_AND_ORGANIZATION_ASSIGNMENT ( #299, #117, ( #38 ) ) ;
#36 = CC_DESIGN_APPROVAL ( #37, ( #38 ) ) ;
#37 = APPROVAL ( #121, 'UNSPECIFIED' ) ;
#38 = PRODUCT_DEFINITION_FORMATION_WITH_SPECIFIED_SOURCE ( 'ANY', '', #86, .NOT_KNOWN. ) ;
#39 = CC_DESIGN_DATE_AND_TIME_ASSIGNMENT ( #311, #122, ( #43 ) ) ;
#40 = CC_DESIGN_PERSON_AND_ORGANIZATION_ASSIGNMENT ( #319, #123, ( #43 ) ) ;
#41 = CC_DESIGN_APPROVAL ( #42, ( #43 ) ) ;
#42 = APPROVAL ( #125, 'UNSPECIFIED' ) ;
#43 = PRODUCT_DEFINITION ( 'UNKNOWN', '', #38, #87 ) ;
#44 = CC_DESIGN_PERSON_AND_ORGANIZATION_ASSIGNMENT ( #330, #128, ( #86 ) ) ;
#45 = AXIS2_PLACEMENT_3D ( 'NONE', #162, #147, #130 ) ;
#46 = AXIS2_PLACEMENT_3D ( 'NONE', #91, #160, #165 ) ;
#47 = AXIS2_PLACEMENT_3D ( 'NONE', #92, #149, #148 ) ;
#48 = AXIS2_PLACEMENT_3D ( 'NONE', #146, #220, #219 ) ;
#49 = AXIS2_PLACEMENT_3D ( 'NONE', #161, #133, #140 ) ;
#50 = AXIS2_PLACEMENT_3D ( 'NONE', #201, #183, #179 ) ;
#51 = AXIS2_PLACEMENT_3D ( 'NONE', #139, #137, #143 ) ;
#52 = AXIS2_PLACEMENT_3D ( 'NONE', #206, #204, #104 ) ;
#53 =( GEOMETRIC_REPRESENTATION_CONTEXT ( 3 ) GLOBAL_UNCERTAINTY_ASSIGNED_CONTEXT ( ( #84 ) ) GLOBAL_UNIT_ASSIGNED_CONTEXT ( ( #144, #141, #136 ) ) REPRESENTATION_CONTEXT ( 'NONE', 'WORKASPACE' ) );
#54 = AXIS2_PLACEMENT_3D ( 'NONE', #170, #169, #168 ) ;
#55 = AXIS2_PLACEMENT_3D ( 'NONE', #182, #181, #180 ) ;
#56 = AXIS2_PLACEMENT_3D ( 'NONE', #187, #186, #185 ) ;
#57 = EDGE_CURVE ( 'NONE', #225, #361, #358, .T. ) ;
#58 = EDGE_CURVE ( 'NONE', #227, #361, #256, .T. ) ;
#59 = EDGE_CURVE ( 'NONE', #361, #235, #260, .T. ) ;
#60 = EDGE_CURVE ( 'NONE', #267, #327, #356, .T. ) ;
#61 = EDGE_CURVE ( 'NONE', #314, #276, #278, .T. ) ;
#62 = EDGE_CURVE ( 'NONE', #245, #314, #355, .T. ) ;
#63 = EDGE_CURVE ( 'NONE', #247, #276, #352, .T. ) ;
#64 = EDGE_CURVE ( 'NONE', #276, #247, #351, .T. ) ;
#65 = EDGE_CURVE ( 'NONE', #225, #263, #350, .T. ) ;
#66 = EDGE_CURVE ( 'NONE', #227, #327, #354, .T. ) ;
#67 = EDGE_CURVE ( 'NONE', #361, #225, #349, .T. ) ;
#68 = EDGE_CURVE ( 'NONE', #263, #235, #347, .T. ) ;
#69 = EDGE_CURVE ( 'NONE', #229, #267, #346, .T. ) ;
#70 = EDGE_CURVE ( 'NONE', #227, #229, #348, .T. ) ;
#71 = EDGE_CURVE ( 'NONE', #247, #235, #345, .T. ) ;
#72 = EDGE_CURVE ( 'NONE', #235, #263, #344, .T. ) ;
#73 = AXIS2_PLACEMENT_3D ( 'NONE', #142, #106, #89 ) ;
#74 = AXIS2_PLACEMENT_3D ( 'NONE', #196, #195, #194 ) ;
#75 = AXIS2_PLACEMENT_3D ( 'NONE', #163, #153, #178 ) ;
#76 = AXIS2_PLACEMENT_3D ( 'NONE', #152, #108, #203 ) ;
#77 = EDGE_CURVE ( 'NONE', #229, #227, #341, .T. ) ;
#78 = EDGE_CURVE ( 'NONE', #327, #267, #340, .T. ) ;
#79 = EDGE_CURVE ( 'NONE', #229, #225, #339, .T. ) ;
#80 = EDGE_CURVE ( 'NONE', #276, #263, #337, .T. ) ;
#81 = EDGE_CURVE ( 'NONE', #314, #245, #343, .T. ) ;
#82 = ADVANCED_BREP_SHAPE_REPRESENTATION ( 'A1429-1-C', ( #83, #45 ), #53 ) ;
#83 = MANIFOLD_SOLID_BREP ( 'Cut-Revolve1', #238 ) ;
#84 = UNCERTAINTY_MEASURE_WITH_UNIT (LENGTH_MEASURE( 1.000000000000000100E-005 ), #144, 'distance_accuracy_value', 'NONE');
#85 = PERSON ( 'UNSPECIFIED', 'UNSPECIFIED', 'UNSPECIFIED', ('UNSPECIFIED'), ('UNSPECIFIED'), ('UNSPECIFIED') ) ;
#86 = PRODUCT ( 'A1429-1-C', 'A1429-1-C', '', ( #129 ) ) ;
#87 = DESIGN_CONTEXT ( 'detailed design', #127, 'design' ) ;
#88 = PRODUCT_DEFINITION_SHAPE ( 'NONE', 'NONE',  #43 ) ;
#89 = DIRECTION ( 'NONE',  ( 1.000000000000000000, 6.661338147750649300E-016, 5.655146614302882900E-029 ) ) ;
#90 = CARTESIAN_POINT ( 'NONE',  ( 9.582810540275422400E-016, -1.502516396515344700E-015, 0.09000000000000039900 ) ) ;
#91 = CARTESIAN_POINT ( 'NONE',  ( 0.03000000000000227500, -1.482532382072091900E-015, 0.09000000000000039900 ) ) ;
#92 = CARTESIAN_POINT ( 'NONE',  ( 0.03000000000000132100, 1.998401444325282300E-017, 1.696543984290939700E-030 ) ) ;
#93 = CARTESIAN_POINT ( 'NONE',  ( 1.054322585054801600E-015, -1.092739197465705300E-015, 0.1100000000000007400 ) ) ;
#94 = DIRECTION ( 'NONE',  ( -1.000000000000000000, -5.436691348603295900E-016, 0.0000000000000000000 ) ) ;
#95 = DIRECTION ( 'NONE',  ( -5.436691348603294900E-016, 1.000000000000000000, -5.620633949699679700E-030 ) ) ;
#96 = CARTESIAN_POINT ( 'NONE',  ( -0.03000000000000132100, -1.631007404581060200E-017, -1.696543984290939700E-030 ) ) ;
#97 = CARTESIAN_POINT ( 'NONE',  ( 0.05000000000000324300, -1.053309272731213600E-015, 0.1100000000000007400 ) ) ;
#98 = DIRECTION ( 'NONE',  ( -5.462861768655506800E-029, -5.620633949699709100E-030, -1.000000000000000000 ) ) ;
#99 = DIRECTION ( 'NONE',  ( 5.462861768655506800E-029, 5.620633949699709100E-030, 1.000000000000000000 ) ) ;
#100 = CARTESIAN_POINT ( 'NONE',  ( -4.844761676263966500E-016, 1.365923996832131600E-016, 0.02000334077782750200 ) ) ;
#101 = DIRECTION ( 'NONE',  ( -1.000000000000000000, -6.661338147750645400E-016, 0.0000000000000000000 ) ) ;
#102 = DIRECTION ( 'NONE',  ( -5.462861768655506800E-029, -5.620633949699709100E-030, -1.000000000000000000 ) ) ;
#103 = CARTESIAN_POINT ( 'NONE',  ( -4.844761676263966500E-016, 1.365923996832131600E-016, 0.02000334077782750200 ) ) ;
#104 = DIRECTION ( 'NONE',  ( 1.000000000000000000, 6.661338147750661200E-016, -5.462861768655506800E-029 ) ) ;
#105 = DIRECTION ( 'NONE',  ( 1.000000000000000000, 6.661338147750656200E-016, 0.0000000000000000000 ) ) ;
#106 = DIRECTION ( 'NONE',  ( -5.655146614302882900E-029, 5.620633949699634800E-030, 1.000000000000000000 ) ) ;
#107 = CARTESIAN_POINT ( 'NONE',  ( 1.054322585054801600E-015, -1.092739197465705300E-015, 0.1100000000000007400 ) ) ;
#108 = DIRECTION ( 'NONE',  ( -5.462861768655506800E-029, -5.620633949699709100E-030, -1.000000000000000000 ) ) ;
#109 = APPROVAL_ROLE ( '' ) ;
#110 = APPROVAL_STATUS ( 'not_yet_approved' ) ;
#111 = DATE_TIME_ROLE ( 'classification_date' ) ;
#112 = PERSON_AND_ORGANIZATION_ROLE ( 'classification_officer' ) ;
#113 = DIRECTION ( 'NONE',  ( 1.000000000000000000, 6.661338147750635500E-016, 0.0000000000000000000 ) ) ;
#114 = SECURITY_CLASSIFICATION_LEVEL ( 'unclassified' ) ;
#115 = DIRECTION ( 'NONE',  ( -1.000000000000000000, -6.661338147750645400E-016, 0.0000000000000000000 ) ) ;
#116 = PERSON_AND_ORGANIZATION_ROLE ( 'design_supplier' ) ;
#117 = PERSON_AND_ORGANIZATION_ROLE ( 'creator' ) ;
#118 = DIRECTION ( 'NONE',  ( 5.462861768655506800E-029, 5.620633949699709100E-030, 1.000000000000000000 ) ) ;
#119 = APPROVAL_ROLE ( '' ) ;
#120 = CARTESIAN_POINT ( 'NONE',  ( -0.02650000000000009300, -1.110391743557245400E-015, 0.1100000000000007400 ) ) ;
#121 = APPROVAL_STATUS ( 'not_yet_approved' ) ;
#122 = DATE_TIME_ROLE ( 'creation_date' ) ;
#123 = PERSON_AND_ORGANIZATION_ROLE ( 'creator' ) ;
#124 = APPROVAL_ROLE ( '' ) ;
#125 = APPROVAL_STATUS ( 'not_yet_approved' ) ;
#126 = APPLICATION_PROTOCOL_DEFINITION ( 'international standard', 'config_control_design', 1994, #127 ) ;
#127 = APPLICATION_CONTEXT ( 'configuration controlled 3d designs of mechanical parts and assemblies' ) ;
#128 = PERSON_AND_ORGANIZATION_ROLE ( 'design_owner' ) ;
#129 = MECHANICAL_CONTEXT ( 'NONE', #131, 'mechanical' ) ;
#130 = DIRECTION ( 'NONE',  ( 1.000000000000000000, 0.0000000000000000000, 0.0000000000000000000 ) ) ;
#131 = APPLICATION_CONTEXT ( 'configuration controlled 3d designs of mechanical parts and assemblies' ) ;
#132 = APPLICATION_PROTOCOL_DEFINITION ( 'international standard', 'config_control_design', 1994, #131 ) ;
#133 = DIRECTION ( 'NONE',  ( -5.462861768655506800E-029, -5.620633949699709100E-030, -1.000000000000000000 ) ) ;
#134 = DIRECTION ( 'NONE',  ( -5.462861768655506800E-029, -5.620633949699709100E-030, -1.000000000000000000 ) ) ;
#135 = DIRECTION ( 'NONE',  ( 1.000000000000000000, 6.661338147750661200E-016, -5.462861768655506800E-029 ) ) ;
#136 =( NAMED_UNIT ( * ) SI_UNIT ( $, .STERADIAN. ) SOLID_ANGLE_UNIT ( ) );
#137 = DIRECTION ( 'NONE',  ( 5.462861768655506800E-029, 5.620633949699709100E-030, 1.000000000000000000 ) ) ;
#138 = DIRECTION ( 'NONE',  ( -1.000000000000000000, -6.661338147750650300E-016, 0.0000000000000000000 ) ) ;
#139 = CARTESIAN_POINT ( 'NONE',  ( 0.0000000000000000000, 0.0000000000000000000, 0.0000000000000000000 ) ) ;
#140 = DIRECTION ( 'NONE',  ( -1.000000000000000000, -6.661338147750656200E-016, 0.0000000000000000000 ) ) ;
#141 =( NAMED_UNIT ( * ) PLANE_ANGLE_UNIT ( ) SI_UNIT ( $, .RADIAN. ) );
#142 = CARTESIAN_POINT ( 'NONE',  ( 1.054322585054801600E-015, -1.092739197465705300E-015, 0.1100000000000007400 ) ) ;
#143 = DIRECTION ( 'NONE',  ( 1.000000000000000000, 6.661338147750648400E-016, -5.462861768655507900E-029 ) ) ;
#144 =( CONVERSION_BASED_UNIT ( 'INCH', #333 ) LENGTH_UNIT ( ) NAMED_UNIT ( #4 ) );
#145 =( LENGTH_UNIT ( ) NAMED_UNIT ( * ) SI_UNIT ( $, .METRE. ) );
#146 = CARTESIAN_POINT ( 'NONE',  ( -4.844761676263966500E-016, 1.365923996832131600E-016, 0.01999999093850916500 ) ) ;
#147 = DIRECTION ( 'NONE',  ( 0.0000000000000000000, 0.0000000000000000000, 1.000000000000000000 ) ) ;
#148 = DIRECTION ( 'NONE',  ( 1.000000000000000000, 6.661338147750648400E-016, 0.0000000000000000000 ) ) ;
#149 = DIRECTION ( 'NONE',  ( 6.661338147750649300E-016, -1.000000000000000000, 5.620633949699672700E-030 ) ) ;
#150 = DIRECTION ( 'NONE',  ( -5.462861768655506800E-029, -5.620633949699709100E-030, -1.000000000000000000 ) ) ;
#151 = CARTESIAN_POINT ( 'NONE',  ( 0.05000000000000002400, -1.053309272731157200E-015, -2.731430884327748800E-030 ) ) ;
#152 = CARTESIAN_POINT ( 'NONE',  ( 1.054322585054801600E-015, -1.092739197465705300E-015, 0.1100000000000007400 ) ) ;
#153 = DIRECTION ( 'NONE',  ( 5.462861768655506800E-029, 5.620633949699709100E-030, 1.000000000000000000 ) ) ;
#154 = CARTESIAN_POINT ( 'NONE',  ( -0.02649999999999894500, -1.110391743557244800E-015, 0.1100000000000007400 ) ) ;
#155 = CARTESIAN_POINT ( 'NONE',  ( 0.03000000000000237200, -1.072755183022452500E-015, 0.1100000000000007400 ) ) ;
#156 = DIRECTION ( 'NONE',  ( 5.462861768655506800E-029, 5.620633949699709100E-030, 1.000000000000000000 ) ) ;
#157 = CARTESIAN_POINT ( 'NONE',  ( -0.03001903837041747200, -2.175194068158804400E-017, 0.01999999093850916500 ) ) ;
#158 = CARTESIAN_POINT ( 'NONE',  ( -0.02650000000000163300, 1.189398535916731900E-016, 0.02000334077782750200 ) ) ;
#159 = CARTESIAN_POINT ( 'NONE',  ( 0.02650000000000105400, -1.071841337356425800E-015, 0.1100000000000007400 ) ) ;
#160 = DIRECTION ( 'NONE',  ( 6.661338147750649300E-016, -1.000000000000000000, 5.620633949699672700E-030 ) ) ;
#161 = CARTESIAN_POINT ( 'NONE',  ( 1.054322585054801600E-015, -1.092739197465705300E-015, 0.1100000000000007400 ) ) ;
#162 = CARTESIAN_POINT ( 'NONE',  ( 0.0000000000000000000, 0.0000000000000000000, 0.0000000000000000000 ) ) ;
#163 = CARTESIAN_POINT ( 'NONE',  ( 0.0000000000000000000, 0.0000000000000000000, 0.0000000000000000000 ) ) ;
#164 = DIRECTION ( 'NONE',  ( -5.462861768655506800E-029, -5.620633949699709100E-030, -1.000000000000000000 ) ) ;
#165 = DIRECTION ( 'NONE',  ( 1.000000000000000000, 6.661338147750685800E-016, 0.0000000000000000000 ) ) ;
#166 = DIRECTION ( 'NONE',  ( -1.000000000000000000, -6.661338147750648400E-016, -5.655146614302882900E-029 ) ) ;
#167 = CARTESIAN_POINT ( 'NONE',  ( 0.03001903837041780500, 1.565890962287789400E-016, 0.01999999093850916500 ) ) ;
#168 = DIRECTION ( 'NONE',  ( 1.000000000000000000, 6.661338147750656200E-016, 0.0000000000000000000 ) ) ;
#169 = DIRECTION ( 'NONE',  ( 5.462861768655506800E-029, 5.620633949699709100E-030, 1.000000000000000000 ) ) ;
#170 = CARTESIAN_POINT ( 'NONE',  ( 1.054322585054801600E-015, -1.092739197465705300E-015, 0.1100000000000007400 ) ) ;
#171 = CARTESIAN_POINT ( 'NONE',  ( 0.05000000000000098100, -1.053309272731233800E-015, 0.09000000000000039900 ) ) ;
#172 = CARTESIAN_POINT ( 'NONE',  ( -0.04999999999999906600, -1.126045888204475800E-015, 0.09000000000000039900 ) ) ;
#173 = CARTESIAN_POINT ( 'NONE',  ( 0.0000000000000000000, 0.0000000000000000000, 0.0000000000000000000 ) ) ;
#174 = CARTESIAN_POINT ( 'NONE',  ( -0.02999999999999896800, -1.524263161909722100E-015, 0.1100000000000007400 ) ) ;
#175 = DIRECTION ( 'NONE',  ( -0.9999995469254621100, -6.661335129667947300E-016, -0.0009519185208482856700 ) ) ;
#176 = CARTESIAN_POINT ( 'NONE',  ( 0.02649999999999951700, -1.071841337356337400E-015, 0.02000334077782750200 ) ) ;
#177 = CARTESIAN_POINT ( 'NONE',  ( -0.03001903837041877000, 1.165957031376473800E-016, 0.01999999093850916500 ) ) ;
#178 = DIRECTION ( 'NONE',  ( 1.000000000000000000, 6.661338147750648400E-016, -5.462861768655507900E-029 ) ) ;
#179 = DIRECTION ( 'NONE',  ( -1.000000000000000000, -6.661338147750656200E-016, 0.0000000000000000000 ) ) ;
#180 = DIRECTION ( 'NONE',  ( 1.000000000000000000, 6.661338147750635500E-016, 0.0000000000000000000 ) ) ;
#181 = DIRECTION ( 'NONE',  ( 5.462861768655506800E-029, 5.620633949699709100E-030, 1.000000000000000000 ) ) ;
#182 = CARTESIAN_POINT ( 'NONE',  ( 1.054322585054801600E-015, -1.092739197465705300E-015, 0.1100000000000007400 ) ) ;
#183 = DIRECTION ( 'NONE',  ( -5.462861768655506800E-029, -5.620633949699709100E-030, -1.000000000000000000 ) ) ;
#184 = CARTESIAN_POINT ( 'NONE',  ( -0.05000000000000218900, -3.330669073875470100E-017, -2.827573307151565300E-030 ) ) ;
#185 = DIRECTION ( 'NONE',  ( 1.000000000000000000, -2.220446049250592600E-016, 0.0000000000000000000 ) ) ;
#186 = DIRECTION ( 'NONE',  ( -5.462861768655506800E-029, -5.620633949699709100E-030, -1.000000000000000000 ) ) ;
#187 = CARTESIAN_POINT ( 'NONE',  ( 9.582810540275422400E-016, -1.502516396515344700E-015, 0.09000000000000039900 ) ) ;
#188 = DIRECTION ( 'NONE',  ( -5.462861768655506800E-029, -5.620633949699709100E-030, -1.000000000000000000 ) ) ;
#189 = CARTESIAN_POINT ( 'NONE',  ( 0.02650000000000220200, -1.071841337356424600E-015, 0.1100000000000007400 ) ) ;
#190 = DIRECTION ( 'NONE',  ( -5.462861768655506800E-029, -5.620633949699709100E-030, -1.000000000000000000 ) ) ;
#191 = CARTESIAN_POINT ( 'NONE',  ( -0.05000000000000114100, -1.126045888204460100E-015, 0.1100000000000007400 ) ) ;
#192 = DIRECTION ( 'NONE',  ( -5.462861768655506800E-029, -5.620633949699709100E-030, -1.000000000000000000 ) ) ;
#193 = CARTESIAN_POINT ( 'NONE',  ( -4.844761676263966500E-016, 1.365923996832131600E-016, 0.01999999093850916500 ) ) ;
#194 = DIRECTION ( 'NONE',  ( 1.000000000000000000, 6.661338147750647400E-016, 0.0000000000000000000 ) ) ;
#195 = DIRECTION ( 'NONE',  ( 5.462861768655506800E-029, 5.620633949699709100E-030, 1.000000000000000000 ) ) ;
#196 = CARTESIAN_POINT ( 'NONE',  ( -4.844761676263966500E-016, 1.365923996832131600E-016, 0.01999999093850916500 ) ) ;
#197 = DIRECTION ( 'NONE',  ( 1.000000000000000000, 6.661338147750661200E-016, 0.0000000000000000000 ) ) ;
#198 = DIRECTION ( 'NONE',  ( -5.462861768655506800E-029, -5.620633949699709100E-030, -1.000000000000000000 ) ) ;
#199 = CARTESIAN_POINT ( 'NONE',  ( 9.582810540275422400E-016, -1.502516396515344700E-015, 0.09000000000000039900 ) ) ;
#200 = CARTESIAN_POINT ( 'NONE',  ( 0.03001903837041780500, 1.602653681541603800E-016, 0.01999999093850916500 ) ) ;
#201 = CARTESIAN_POINT ( 'NONE',  ( 1.054322585054801600E-015, -1.092739197465705300E-015, 0.1100000000000007400 ) ) ;
#202 = DIRECTION ( 'NONE',  ( -1.000000000000000000, -5.436691348603297900E-016, 0.0000000000000000000 ) ) ;
#203 = DIRECTION ( 'NONE',  ( -1.000000000000000000, -6.661338147750660200E-016, 0.0000000000000000000 ) ) ;
#204 = DIRECTION ( 'NONE',  ( 5.462861768655506800E-029, 5.620633949699709100E-030, 1.000000000000000000 ) ) ;
#205 = DIRECTION ( 'NONE',  ( -5.462861768655506800E-029, -5.620633949699709100E-030, -1.000000000000000000 ) ) ;
#206 = CARTESIAN_POINT ( 'NONE',  ( 9.582810540275422400E-016, -1.502516396515344700E-015, 0.09000000000000039900 ) ) ;
#207 = DIRECTION ( 'NONE',  ( -5.436691348603294900E-016, 1.000000000000000000, -5.620633949699679700E-030 ) ) ;
#208 = CARTESIAN_POINT ( 'NONE',  ( -0.03000000000000036300, -1.518826470561155300E-015, 0.09000000000000039900 ) ) ;
#209 = CARTESIAN_POINT ( 'NONE',  ( 1.054322585054801600E-015, -1.092739197465705300E-015, 0.1100000000000007400 ) ) ;
#210 = PLANE ( 'NONE',  #73 ) ;
#211 = DIRECTION ( 'NONE',  ( 1.000000000000000000, 6.661338147750647400E-016, 0.0000000000000000000 ) ) ;
#212 = DIRECTION ( 'NONE',  ( 5.462861768655506800E-029, 5.620633949699709100E-030, 1.000000000000000000 ) ) ;
#213 = CARTESIAN_POINT ( 'NONE',  ( -4.844761676263966500E-016, 1.365923996832131600E-016, 0.01999999093850916500 ) ) ;
#214 = DIRECTION ( 'NONE',  ( -1.000000000000000000, -6.661338147750660200E-016, 0.0000000000000000000 ) ) ;
#215 = DIRECTION ( 'NONE',  ( -1.000000000000000000, -6.661338147750648400E-016, -5.655146614302882900E-029 ) ) ;
#216 = DIRECTION ( 'NONE',  ( -5.462861768655506800E-029, -5.620633949699709100E-030, -1.000000000000000000 ) ) ;
#217 = CARTESIAN_POINT ( 'NONE',  ( 0.0000000000000000000, 0.0000000000000000000, 0.0000000000000000000 ) ) ;
#218 = DIRECTION ( 'NONE',  ( 0.9999995469254621100, 7.885981373959016900E-016, -0.0009519185208482856700 ) ) ;
#219 = DIRECTION ( 'NONE',  ( -1.000000000000000000, -6.661338147750650300E-016, 0.0000000000000000000 ) ) ;
#220 = DIRECTION ( 'NONE',  ( -5.462861768655506800E-029, -5.620633949699709100E-030, -1.000000000000000000 ) ) ;
#221 = CYLINDRICAL_SURFACE ( 'NONE', #76, 0.05000000000000219500 ) ;
#222 = CYLINDRICAL_SURFACE ( 'NONE', #49, 0.02650000000000114800 ) ;
#223 = ORIENTED_EDGE ( 'NONE', *, *, #59, .T. ) ;
#224 = EDGE_LOOP ( 'NONE', ( #244, #336, #223, #254 ) ) ;
#225 = VERTEX_POINT ( 'NONE', #184 ) ;
#226 = ORIENTED_EDGE ( 'NONE', *, *, #62, .T. ) ;
#227 = VERTEX_POINT ( 'NONE', #171 ) ;
#228 = ORIENTED_EDGE ( 'NONE', *, *, #68, .F. ) ;
#229 = VERTEX_POINT ( 'NONE', #172 ) ;
#230 = LINE ( 'NONE', #189, #268 ) ;
#231 = EDGE_LOOP ( 'NONE', ( #291, #366, #279, #269 ) ) ;
#232 = ORIENTED_EDGE ( 'NONE', *, *, #78, .T. ) ;
#233 = CYLINDRICAL_SURFACE ( 'NONE', #50, 0.02650000000000114800 ) ;
#234 = ORIENTED_EDGE ( 'NONE', *, *, #77, .T. ) ;
#235 = VERTEX_POINT ( 'NONE', #167 ) ;
#236 = ORIENTED_EDGE ( 'NONE', *, *, #71, .T. ) ;
#237 = FACE_OUTER_BOUND ( 'NONE', #280, .T. ) ;
#238 = CLOSED_SHELL ( 'NONE', ( #11, #5, #3, #12, #7, #8, #1, #2, #6, #9, #10 ) ) ;
#239 = EDGE_LOOP ( 'NONE', ( #232, #281 ) ) ;
#240 = ORIENTED_EDGE ( 'NONE', *, *, #63, .T. ) ;
#241 = ORIENTED_EDGE ( 'NONE', *, *, #79, .T. ) ;
#242 = EDGE_LOOP ( 'NONE', ( #375, #313, #317, #264 ) ) ;
#243 = ORIENTED_EDGE ( 'NONE', *, *, #61, .T. ) ;
#244 = ORIENTED_EDGE ( 'NONE', *, *, #65, .F. ) ;
#245 = VERTEX_POINT ( 'NONE', #159 ) ;
#246 = TOROIDAL_SURFACE ( 'NONE', #13, 0.03000000000000002300, 0.02000000000000000000 ) ;
#247 = VERTEX_POINT ( 'NONE', #176 ) ;
#248 = ORIENTED_EDGE ( 'NONE', *, *, #70, .F. ) ;
#249 = FACE_OUTER_BOUND ( 'NONE', #289, .T. ) ;
#250 = TOROIDAL_SURFACE ( 'NONE', #52, 0.03000000000000002300, 0.02000000000000000000 ) ;
#251 = ORIENTED_EDGE ( 'NONE', *, *, #81, .F. ) ;
#252 = ORIENTED_EDGE ( 'NONE', *, *, #78, .F. ) ;
#253 = CONICAL_SURFACE ( 'NONE', #48, 0.03001903837041828100, 1.569844408130284900 ) ;
#254 = ORIENTED_EDGE ( 'NONE', *, *, #72, .T. ) ;
#255 = EDGE_LOOP ( 'NONE', ( #338, #226, #243, #329 ) ) ;
#256 = LINE ( 'NONE', #97, #357 ) ;
#257 = EDGE_LOOP ( 'NONE', ( #374, #248, #288, #326 ) ) ;
#258 = ORIENTED_EDGE ( 'NONE', *, *, #63, .F. ) ;
#259 = FACE_OUTER_BOUND ( 'NONE', #376, .T. ) ;
#260 = CIRCLE ( 'NONE', #47, 0.02000000000000000000 ) ;
#261 = FACE_BOUND ( 'NONE', #270, .T. ) ;
#262 = FACE_OUTER_BOUND ( 'NONE', #363, .T. ) ;
#263 = VERTEX_POINT ( 'NONE', #157 ) ;
#264 = ORIENTED_EDGE ( 'NONE', *, *, #59, .F. ) ;
#265 = TOROIDAL_SURFACE ( 'NONE', #75, 0.03000000000000002300, 0.02000000000000000000 ) ;
#266 = ORIENTED_EDGE ( 'NONE', *, *, #67, .F. ) ;
#267 = VERTEX_POINT ( 'NONE', #174 ) ;
#268 = VECTOR ( 'NONE', #188, 39.37007874015748100 ) ;
#269 = ORIENTED_EDGE ( 'NONE', *, *, #72, .F. ) ;
#270 = EDGE_LOOP ( 'NONE', ( #251, #308 ) ) ;
#271 = FACE_OUTER_BOUND ( 'NONE', #360, .T. ) ;
#272 = ORIENTED_EDGE ( 'NONE', *, *, #80, .F. ) ;
#273 = FACE_OUTER_BOUND ( 'NONE', #239, .T. ) ;
#274 = ORIENTED_EDGE ( 'NONE', *, *, #15, .T. ) ;
#275 = TOROIDAL_SURFACE ( 'NONE', #51, 0.03000000000000002300, 0.02000000000000000000 ) ;
#276 = VERTEX_POINT ( 'NONE', #158 ) ;
#277 = APPROVAL_DATE_TIME ( #282, #30 ) ;
#278 = LINE ( 'NONE', #120, #353 ) ;
#279 = ORIENTED_EDGE ( 'NONE', *, *, #80, .T. ) ;
#280 = EDGE_LOOP ( 'NONE', ( #368, #290, #241, #266 ) ) ;
#281 = ORIENTED_EDGE ( 'NONE', *, *, #60, .T. ) ;
#282 = DATE_AND_TIME ( #283, #284 ) ;
#283 = CALENDAR_DATE ( 2013, 12, 11 ) ;
#284 = LOCAL_TIME ( 8, 44, 29.00000000000000000, #286 ) ;
#285 = FACE_OUTER_BOUND ( 'NONE', #255, .T. ) ;
#286 = COORDINATED_UNIVERSAL_TIME_OFFSET ( 5, 0, .BEHIND. ) ;
#287 = APPROVAL_PERSON_ORGANIZATION ( #292, #30, #109 ) ;
#288 = ORIENTED_EDGE ( 'NONE', *, *, #66, .T. ) ;
#289 = EDGE_LOOP ( 'NONE', ( #367, #302, #252, #309 ) ) ;
#290 = ORIENTED_EDGE ( 'NONE', *, *, #70, .T. ) ;
#291 = ORIENTED_EDGE ( 'NONE', *, *, #71, .F. ) ;
#292 = PERSON_AND_ORGANIZATION ( #85, #331 ) ;
#293 = DATE_AND_TIME ( #294, #295 ) ;
#294 = CALENDAR_DATE ( 2013, 12, 11 ) ;
#295 = LOCAL_TIME ( 8, 44, 29.00000000000000000, #296 ) ;
#296 = COORDINATED_UNIVERSAL_TIME_OFFSET ( 5, 0, .BEHIND. ) ;
#297 = PERSON_AND_ORGANIZATION ( #85, #331 ) ;
#298 = PERSON_AND_ORGANIZATION ( #85, #331 ) ;
#299 = PERSON_AND_ORGANIZATION ( #85, #331 ) ;
#300 = APPROVAL_DATE_TIME ( #301, #37 ) ;
#301 = DATE_AND_TIME ( #304, #305 ) ;
#302 = ORIENTED_EDGE ( 'NONE', *, *, #69, .T. ) ;
#303 = FACE_OUTER_BOUND ( 'NONE', #231, .T. ) ;
#304 = CALENDAR_DATE ( 2013, 12, 11 ) ;
#305 = LOCAL_TIME ( 8, 44, 29.00000000000000000, #306 ) ;
#306 = COORDINATED_UNIVERSAL_TIME_OFFSET ( 5, 0, .BEHIND. ) ;
#307 = APPROVAL_PERSON_ORGANIZATION ( #310, #37, #119 ) ;
#308 = ORIENTED_EDGE ( 'NONE', *, *, #62, .F. ) ;
#309 = ORIENTED_EDGE ( 'NONE', *, *, #66, .F. ) ;
#310 = PERSON_AND_ORGANIZATION ( #85, #331 ) ;
#311 = DATE_AND_TIME ( #315, #316 ) ;
#312 = ORIENTED_EDGE ( 'NONE', *, *, #61, .F. ) ;
#313 = ORIENTED_EDGE ( 'NONE', *, *, #65, .T. ) ;
#314 = VERTEX_POINT ( 'NONE', #154 ) ;
#315 = CALENDAR_DATE ( 2013, 12, 11 ) ;
#316 = LOCAL_TIME ( 8, 44, 29.00000000000000000, #318 ) ;
#317 = ORIENTED_EDGE ( 'NONE', *, *, #68, .T. ) ;
#318 = COORDINATED_UNIVERSAL_TIME_OFFSET ( 5, 0, .BEHIND. ) ;
#319 = PERSON_AND_ORGANIZATION ( #85, #331 ) ;
#320 = APPROVAL_DATE_TIME ( #321, #42 ) ;
#321 = DATE_AND_TIME ( #322, #323 ) ;
#322 = CALENDAR_DATE ( 2013, 12, 11 ) ;
#323 = LOCAL_TIME ( 8, 44, 29.00000000000000000, #324 ) ;
#324 = COORDINATED_UNIVERSAL_TIME_OFFSET ( 5, 0, .BEHIND. ) ;
#325 = APPROVAL_PERSON_ORGANIZATION ( #328, #42, #124 ) ;
#326 = ORIENTED_EDGE ( 'NONE', *, *, #60, .F. ) ;
#327 = VERTEX_POINT ( 'NONE', #155 ) ;
#328 = PERSON_AND_ORGANIZATION ( #85, #331 ) ;
#329 = ORIENTED_EDGE ( 'NONE', *, *, #64, .T. ) ;
#330 = PERSON_AND_ORGANIZATION ( #85, #331 ) ;
#331 = ORGANIZATION ( 'UNSPECIFIED', 'UNSPECIFIED', '' ) ;
#332 = SHAPE_DEFINITION_REPRESENTATION ( #88, #82 ) ;
#333 = LENGTH_MEASURE_WITH_UNIT ( LENGTH_MEASURE( 0.02539999999999999900 ), #145 );
#334 = VECTOR ( 'NONE', #175, 39.37007874015748100 ) ;
#335 = VECTOR ( 'NONE', #190, 39.37007874015748100 ) ;
#336 = ORIENTED_EDGE ( 'NONE', *, *, #57, .T. ) ;
#337 = LINE ( 'NONE', #177, #334 ) ;
#338 = ORIENTED_EDGE ( 'NONE', *, *, #15, .F. ) ;
#339 = LINE ( 'NONE', #191, #335 ) ;
#340 = CIRCLE ( 'NONE', #55, 0.03000000000000132100 ) ;
#341 = CIRCLE ( 'NONE', #56, 0.05000000000000218900 ) ;
#342 = VECTOR ( 'NONE', #218, 39.37007874015748100 ) ;
#343 = CIRCLE ( 'NONE', #54, 0.02650000000000114800 ) ;
#344 = CIRCLE ( 'NONE', #74, 0.03001903837041829100 ) ;
#345 = LINE ( 'NONE', #200, #342 ) ;
#346 = CIRCLE ( 'NONE', #18, 0.02000000000000000000 ) ;
#347 = CIRCLE ( 'NONE', #14, 0.03001903837041829100 ) ;
#348 = CIRCLE ( 'NONE', #17, 0.05000000000000218900 ) ;
#349 = CIRCLE ( 'NONE', #19, 0.05000000000000218900 ) ;
#350 = CIRCLE ( 'NONE', #20, 0.02000000000000000000 ) ;
#351 = CIRCLE ( 'NONE', #21, 0.02650000000000114800 ) ;
#352 = CIRCLE ( 'NONE', #22, 0.02650000000000114800 ) ;
#353 = VECTOR ( 'NONE', #150, 39.37007874015748100 ) ;
#354 = CIRCLE ( 'NONE', #46, 0.02000000000000000000 ) ;
#355 = CIRCLE ( 'NONE', #23, 0.02650000000000114800 ) ;
#356 = CIRCLE ( 'NONE', #24, 0.03000000000000132100 ) ;
#357 = VECTOR ( 'NONE', #192, 39.37007874015748100 ) ;
#358 = CIRCLE ( 'NONE', #26, 0.05000000000000218900 ) ;
#359 = FACE_OUTER_BOUND ( 'NONE', #242, .T. ) ;
#360 = EDGE_LOOP ( 'NONE', ( #373, #274, #240, #312 ) ) ;
#361 = VERTEX_POINT ( 'NONE', #151 ) ;
#362 = ORIENTED_EDGE ( 'NONE', *, *, #58, .T. ) ;
#363 = EDGE_LOOP ( 'NONE', ( #258, #236, #228, #272 ) ) ;
#364 = FACE_OUTER_BOUND ( 'NONE', #257, .T. ) ;
#365 = CONICAL_SURFACE ( 'NONE', #16, 0.03001903837041828100, 1.569844408130284900 ) ;
#366 = ORIENTED_EDGE ( 'NONE', *, *, #64, .F. ) ;
#367 = ORIENTED_EDGE ( 'NONE', *, *, #77, .F. ) ;
#368 = ORIENTED_EDGE ( 'NONE', *, *, #58, .F. ) ;
#369 = ORIENTED_EDGE ( 'NONE', *, *, #57, .F. ) ;
#370 = CYLINDRICAL_SURFACE ( 'NONE', #25, 0.05000000000000219500 ) ;
#371 = ORIENTED_EDGE ( 'NONE', *, *, #79, .F. ) ;
#372 = FACE_OUTER_BOUND ( 'NONE', #224, .T. ) ;
#373 = ORIENTED_EDGE ( 'NONE', *, *, #81, .T. ) ;
#374 = ORIENTED_EDGE ( 'NONE', *, *, #69, .F. ) ;
#375 = ORIENTED_EDGE ( 'NONE', *, *, #67, .T. ) ;
#376 = EDGE_LOOP ( 'NONE', ( #234, #362, #369, #371 ) ) ;
ENDSEC;
END-ISO-10303-21;
