ISO-10303-21;
HEADER;
/* Generated by software containing ST-Developer
 * from STEP Tools, Inc. (www.steptools.com) 
 */

FILE_DESCRIPTION(
/* description */ ('Alibre Inc.'),
/* implementation_level */ '2;1');

FILE_NAME(
/* name */ 'export0',
/* time_stamp */ '2014-11-06T09:49:57-08:00',
/* author */ (''),
/* organization */ (''),
/* preprocessor_version */ 'ST-DEVELOPER v14',
/* originating_system */ 'Alibre',
/* authorisation */ '');

FILE_SCHEMA (('CONFIG_CONTROL_DESIGN'));
ENDSEC;

DATA;
#10=MECHANICAL_CONTEXT('detailed design',#18,'mechanical');
#11=PRODUCT_RELATED_PRODUCT_CATEGORY('detail','',(#98));
#12=CC_DESIGN_SECURITY_CLASSIFICATION(#14,(#97));
#13=SECURITY_CLASSIFICATION_LEVEL('unclassified');
#14=SECURITY_CLASSIFICATION('name','Security for version',#13);
#15=SHAPE_DEFINITION_REPRESENTATION(#16,#286);
#16=PRODUCT_DEFINITION_SHAPE('','DefinitionDesc',#96);
#17=APPLICATION_PROTOCOL_DEFINITION('AP definition status',
'config_control_design',1994,#18);
#18=APPLICATION_CONTEXT(
'control the configuration of three dimensional design');
#19=DESIGN_CONTEXT('detailed design',#18,'design');
#20=PERSON_AND_ORGANIZATION_ROLE('creator');
#21=PERSON_AND_ORGANIZATION_ROLE('classification_officer');
#22=PERSON_AND_ORGANIZATION_ROLE('creator');
#23=PERSON_AND_ORGANIZATION_ROLE('design_supplier');
#24=PERSON_AND_ORGANIZATION_ROLE('design_owner');
#25=CC_DESIGN_PERSON_AND_ORGANIZATION_ASSIGNMENT(#57,#20,(#96));
#26=CC_DESIGN_PERSON_AND_ORGANIZATION_ASSIGNMENT(#60,#21,(#14));
#27=CC_DESIGN_PERSON_AND_ORGANIZATION_ASSIGNMENT(#61,#22,(#97));
#28=CC_DESIGN_PERSON_AND_ORGANIZATION_ASSIGNMENT(#62,#23,(#97));
#29=CC_DESIGN_PERSON_AND_ORGANIZATION_ASSIGNMENT(#63,#24,(#98));
#30=DATE_TIME_ROLE('creation_date');
#31=DATE_TIME_ROLE('classification_date');
#32=CC_DESIGN_DATE_AND_TIME_ASSIGNMENT(#86,#30,(#96));
#33=CC_DESIGN_DATE_AND_TIME_ASSIGNMENT(#89,#31,(#14));
#34=CC_DESIGN_APPROVAL(#93,(#96));
#35=CC_DESIGN_APPROVAL(#94,(#97));
#36=CC_DESIGN_APPROVAL(#95,(#14));
#37=APPROVAL_PERSON_ORGANIZATION(#56,#93,#64);
#38=APPROVAL_PERSON_ORGANIZATION(#58,#94,#65);
#39=APPROVAL_PERSON_ORGANIZATION(#59,#95,#66);
#40=ORGANIZATION('DEFINITION_APPROVEDBY_ORG_ID',
'DEFINITION_APPROVEDBY_ORG_NAME','DEFINITION_APPROVEDBY_ORG_DESCR');
#41=ORGANIZATION('DEF_CREATOR_ORG_ID','DEF_CREATOR_ORG_NAME',
'DEF_CREATOR_ORG_DESCR');
#42=ORGANIZATION('APPROVEDBY_ORG_ID','APPROVEDBY_ORG_NAME',
'APPROVEDBY_ORG_DESCR');
#43=ORGANIZATION('SECURITY_APPROVEDBY_ORG_ID',
'SECURITY_APPROVEDBY_ORG_NAME','SECURITY_APPROVEDBY_ORG_DESCR');
#44=ORGANIZATION('CLASSOFFICER_ORG_ID','CLASSOFFICER_ORG_NAME',
'CLASSOFFICER_ORG_DESCR');
#45=ORGANIZATION('CREATOR_ORG_ID','CREATOR_ORG_NAME','CREATOR_ORG_DESCR');
#46=ORGANIZATION('SUPPLIER_ORG_ID','SUPPLIER_ORG_NAME',
'SUPPLIER_ORG_DESCR');
#47=ORGANIZATION('OWNER_ORG_ID','OWNER_ORG_NAME','OWNER_ORG_DESCR');
#48=PERSON('DEFINITION_approverID','DEFINITION_APPROVEDBY_LASTNAME',
'DEFINITION_APPROVEDBY_FIRSTNAME',$,$,$);
#49=PERSON('DEF_createrID','DEF_CREATOR_LASTNAME',
'DEF_CREATOR_FIRSTNAME',$,$,$);
#50=PERSON('approverID','APPROVEDBY_LASTNAME','APPROVEDBY_FIRSTNAME',$,$,
$);
#51=PERSON('SECURITY_approverID','SECURITY_LASTNAME',
'SECURITY_APPROVEDBY_FIRSTNAME',$,$,$);
#52=PERSON('classifierID','CLASSOFFICER_LASTNAME',
'CLASSOFFICER_FIRSTNAME',$,$,$);
#53=PERSON('createrID','CREATOR_LASTNAME','CREATOR_FIRSTNAME',$,$,$);
#54=PERSON('supplierID','SUPPLIER_LASTNAME','SUPPLIER_FIRSTNAME',$,$,$);
#55=PERSON('ownerID','OWNER_LASTNAME','OWNER_FIRSTNAME',$,$,$);
#56=PERSON_AND_ORGANIZATION(#48,#40);
#57=PERSON_AND_ORGANIZATION(#49,#41);
#58=PERSON_AND_ORGANIZATION(#50,#42);
#59=PERSON_AND_ORGANIZATION(#51,#43);
#60=PERSON_AND_ORGANIZATION(#52,#44);
#61=PERSON_AND_ORGANIZATION(#53,#45);
#62=PERSON_AND_ORGANIZATION(#54,#46);
#63=PERSON_AND_ORGANIZATION(#55,#47);
#64=APPROVAL_ROLE('definition_approval');
#65=APPROVAL_ROLE('version_approval');
#66=APPROVAL_ROLE('security_approval');
#67=APPROVAL_DATE_TIME(#85,#93);
#68=APPROVAL_DATE_TIME(#87,#94);
#69=APPROVAL_DATE_TIME(#88,#95);
#70=COORDINATED_UNIVERSAL_TIME_OFFSET(8,0,.BEHIND.);
#71=COORDINATED_UNIVERSAL_TIME_OFFSET(8,0,.BEHIND.);
#72=COORDINATED_UNIVERSAL_TIME_OFFSET(8,0,.BEHIND.);
#73=COORDINATED_UNIVERSAL_TIME_OFFSET(8,0,.BEHIND.);
#74=COORDINATED_UNIVERSAL_TIME_OFFSET(8,0,.BEHIND.);
#75=LOCAL_TIME(10,33,20.,#70);
#76=LOCAL_TIME(10,33,20.,#71);
#77=LOCAL_TIME(10,33,20.,#72);
#78=LOCAL_TIME(10,33,20.,#73);
#79=LOCAL_TIME(10,33,20.,#74);
#80=CALENDAR_DATE(2009,31,3);
#81=CALENDAR_DATE(2009,31,3);
#82=CALENDAR_DATE(2009,31,3);
#83=CALENDAR_DATE(2009,31,3);
#84=CALENDAR_DATE(2009,31,3);
#85=DATE_AND_TIME(#80,#75);
#86=DATE_AND_TIME(#81,#76);
#87=DATE_AND_TIME(#82,#77);
#88=DATE_AND_TIME(#83,#78);
#89=DATE_AND_TIME(#84,#79);
#90=APPROVAL_STATUS('not_yet_approved');
#91=APPROVAL_STATUS('not_yet_approved');
#92=APPROVAL_STATUS('not_yet_approved');
#93=APPROVAL(#90,'defintion approval');
#94=APPROVAL(#91,'version approval');
#95=APPROVAL(#92,'security approval');
#96=PRODUCT_DEFINITION('DefinitionID','DefinitionDesc',#97,#19);
#97=PRODUCT_DEFINITION_FORMATION_WITH_SPECIFIED_SOURCE(
'PRODUCT_VERSION_ID','PRODUCT_VERSION_DESCR',#98,.NOT_KNOWN.);
#98=PRODUCT('ID_1','110700','productDesc',(#10));
#99=(
LENGTH_UNIT()
NAMED_UNIT(*)
SI_UNIT(.CENTI.,.METRE.)
);
#100=(
NAMED_UNIT(*)
PLANE_ANGLE_UNIT()
SI_UNIT($,.RADIAN.)
);
#101=(
NAMED_UNIT(*)
SI_UNIT($,.STERADIAN.)
SOLID_ANGLE_UNIT()
);
#102=UNCERTAINTY_MEASURE_WITH_UNIT(LENGTH_MEASURE(1.E-006),#99,
'DISTANCE_ACCURACY_VALUE',
'Maximum model space distance between geometric entities at asserted co
nnectivities');
#103=(
GEOMETRIC_REPRESENTATION_CONTEXT(3)
GLOBAL_UNCERTAINTY_ASSIGNED_CONTEXT((#102))
GLOBAL_UNIT_ASSIGNED_CONTEXT((#101,#100,#99))
REPRESENTATION_CONTEXT('ID1','3D')
);
#104=PLANE('',#209);
#105=PLANE('',#213);
#106=PLANE('',#217);
#107=PLANE('',#218);
#108=PLANE('',#222);
#109=CYLINDRICAL_SURFACE('',#207,0.07874);
#110=CYLINDRICAL_SURFACE('',#210,0.08509);
#111=CYLINDRICAL_SURFACE('',#214,0.12954);
#112=CYLINDRICAL_SURFACE('',#220,0.16764);
#113=VERTEX_POINT('',#257);
#114=VERTEX_POINT('',#259);
#115=VERTEX_POINT('',#262);
#116=VERTEX_POINT('',#266);
#117=VERTEX_POINT('',#268);
#118=VERTEX_POINT('',#272);
#119=VERTEX_POINT('',#274);
#120=VERTEX_POINT('',#278);
#121=VERTEX_POINT('',#281);
#122=CIRCLE('',#205,0.00253999999999999);
#123=CIRCLE('',#206,0.07874);
#124=CIRCLE('',#208,0.07874);
#125=CIRCLE('',#211,0.08509);
#126=CIRCLE('',#212,0.08509);
#127=CIRCLE('',#215,0.12954);
#128=CIRCLE('',#216,0.12954);
#129=CIRCLE('',#219,0.16764);
#130=CIRCLE('',#221,0.16764);
#131=EDGE_CURVE('',#113,#113,#122,.T.);
#132=EDGE_CURVE('',#114,#114,#123,.T.);
#133=EDGE_CURVE('',#115,#115,#124,.T.);
#134=EDGE_CURVE('',#116,#116,#125,.T.);
#135=EDGE_CURVE('',#117,#117,#126,.T.);
#136=EDGE_CURVE('',#118,#118,#127,.T.);
#137=EDGE_CURVE('',#119,#119,#128,.T.);
#138=EDGE_CURVE('',#120,#120,#129,.T.);
#139=EDGE_CURVE('',#121,#121,#130,.T.);
#140=ORIENTED_EDGE('',*,*,#131,.T.);
#141=ORIENTED_EDGE('',*,*,#132,.T.);
#142=ORIENTED_EDGE('',*,*,#133,.T.);
#143=ORIENTED_EDGE('',*,*,#132,.F.);
#144=ORIENTED_EDGE('',*,*,#131,.F.);
#145=ORIENTED_EDGE('',*,*,#134,.F.);
#146=ORIENTED_EDGE('',*,*,#135,.F.);
#147=ORIENTED_EDGE('',*,*,#134,.T.);
#148=ORIENTED_EDGE('',*,*,#136,.T.);
#149=ORIENTED_EDGE('',*,*,#137,.F.);
#150=ORIENTED_EDGE('',*,*,#135,.T.);
#151=ORIENTED_EDGE('',*,*,#136,.F.);
#152=ORIENTED_EDGE('',*,*,#138,.F.);
#153=ORIENTED_EDGE('',*,*,#133,.F.);
#154=ORIENTED_EDGE('',*,*,#139,.T.);
#155=ORIENTED_EDGE('',*,*,#138,.T.);
#156=ORIENTED_EDGE('',*,*,#137,.T.);
#157=ORIENTED_EDGE('',*,*,#139,.F.);
#158=EDGE_LOOP('',(#140));
#159=EDGE_LOOP('',(#141));
#160=EDGE_LOOP('',(#142));
#161=EDGE_LOOP('',(#143));
#162=EDGE_LOOP('',(#144));
#163=EDGE_LOOP('',(#145));
#164=EDGE_LOOP('',(#146));
#165=EDGE_LOOP('',(#147));
#166=EDGE_LOOP('',(#148));
#167=EDGE_LOOP('',(#149));
#168=EDGE_LOOP('',(#150));
#169=EDGE_LOOP('',(#151));
#170=EDGE_LOOP('',(#152));
#171=EDGE_LOOP('',(#153));
#172=EDGE_LOOP('',(#154));
#173=EDGE_LOOP('',(#155));
#174=EDGE_LOOP('',(#156));
#175=EDGE_LOOP('',(#157));
#176=FACE_BOUND('',#158,.T.);
#177=FACE_BOUND('',#159,.T.);
#178=FACE_BOUND('',#160,.T.);
#179=FACE_BOUND('',#161,.T.);
#180=FACE_BOUND('',#162,.T.);
#181=FACE_BOUND('',#163,.T.);
#182=FACE_BOUND('',#164,.T.);
#183=FACE_BOUND('',#165,.T.);
#184=FACE_BOUND('',#166,.T.);
#185=FACE_BOUND('',#167,.T.);
#186=FACE_BOUND('',#168,.T.);
#187=FACE_BOUND('',#169,.T.);
#188=FACE_BOUND('',#170,.T.);
#189=FACE_BOUND('',#171,.T.);
#190=FACE_BOUND('',#172,.T.);
#191=FACE_BOUND('',#173,.T.);
#192=FACE_BOUND('',#174,.T.);
#193=FACE_BOUND('',#175,.T.);
#194=ADVANCED_FACE('',(#176,#177),#283,.T.);
#195=ADVANCED_FACE('',(#178,#179),#109,.T.);
#196=ADVANCED_FACE('',(#180),#104,.F.);
#197=ADVANCED_FACE('',(#181,#182),#110,.F.);
#198=ADVANCED_FACE('',(#183),#105,.T.);
#199=ADVANCED_FACE('',(#184,#185),#111,.T.);
#200=ADVANCED_FACE('',(#186,#187),#106,.T.);
#201=ADVANCED_FACE('',(#188,#189),#107,.F.);
#202=ADVANCED_FACE('',(#190,#191),#112,.T.);
#203=ADVANCED_FACE('',(#192,#193),#108,.T.);
#204=AXIS2_PLACEMENT_3D('',#255,#223,$);
#205=AXIS2_PLACEMENT_3D('',#256,#224,#225);
#206=AXIS2_PLACEMENT_3D('',#258,#226,#227);
#207=AXIS2_PLACEMENT_3D('',#260,#228,#229);
#208=AXIS2_PLACEMENT_3D('',#261,#230,#231);
#209=AXIS2_PLACEMENT_3D('',#263,#232,$);
#210=AXIS2_PLACEMENT_3D('',#264,#233,#234);
#211=AXIS2_PLACEMENT_3D('',#265,#235,#236);
#212=AXIS2_PLACEMENT_3D('',#267,#237,#238);
#213=AXIS2_PLACEMENT_3D('',#269,#239,$);
#214=AXIS2_PLACEMENT_3D('',#270,#240,#241);
#215=AXIS2_PLACEMENT_3D('',#271,#242,#243);
#216=AXIS2_PLACEMENT_3D('',#273,#244,#245);
#217=AXIS2_PLACEMENT_3D('',#275,#246,$);
#218=AXIS2_PLACEMENT_3D('',#276,#247,$);
#219=AXIS2_PLACEMENT_3D('',#277,#248,#249);
#220=AXIS2_PLACEMENT_3D('',#279,#250,#251);
#221=AXIS2_PLACEMENT_3D('',#280,#252,#253);
#222=AXIS2_PLACEMENT_3D('',#282,#254,$);
#223=DIRECTION('',(0.,0.,1.));
#224=DIRECTION('',(0.,0.,1.));
#225=DIRECTION('',(-0.00253999999999999,3.11050013870882E-019,0.));
#226=DIRECTION('',(0.,0.,-1.));
#227=DIRECTION('',(-0.07874,9.6425504299974E-018,0.));
#228=DIRECTION('',(0.,0.,1.));
#229=DIRECTION('',(0.07874,0.,0.));
#230=DIRECTION('',(0.,0.,-1.));
#231=DIRECTION('',(0.07874,0.,0.));
#232=DIRECTION('',(0.,0.,1.));
#233=DIRECTION('',(0.,0.,-1.));
#234=DIRECTION('',(0.08509,0.,0.));
#235=DIRECTION('',(0.,0.,1.));
#236=DIRECTION('',(0.08509,0.,0.));
#237=DIRECTION('',(0.,0.,-1.));
#238=DIRECTION('',(0.08509,0.,0.));
#239=DIRECTION('',(0.,0.,1.));
#240=DIRECTION('',(0.,0.,1.));
#241=DIRECTION('',(0.12954,0.,0.));
#242=DIRECTION('',(0.,0.,-1.));
#243=DIRECTION('',(0.12954,0.,0.));
#244=DIRECTION('',(0.,0.,-1.));
#245=DIRECTION('',(0.12954,0.,0.));
#246=DIRECTION('',(0.,0.,1.));
#247=DIRECTION('',(0.,0.,1.));
#248=DIRECTION('',(0.,0.,1.));
#249=DIRECTION('',(0.16764,0.,0.));
#250=DIRECTION('',(0.,0.,1.));
#251=DIRECTION('',(0.16764,0.,0.));
#252=DIRECTION('',(0.,0.,-1.));
#253=DIRECTION('',(0.16764,0.,0.));
#254=DIRECTION('',(0.,0.,1.));
#255=CARTESIAN_POINT('',(0.,0.,0.0762));
#256=CARTESIAN_POINT('',(0.,0.,0.));
#257=CARTESIAN_POINT('',(0.00253999999999999,0.,0.));
#258=CARTESIAN_POINT('',(0.,0.,0.0762));
#259=CARTESIAN_POINT('',(0.07874,-1.92851008599948E-017,0.0762));
#260=CARTESIAN_POINT('',(0.,0.,0.));
#261=CARTESIAN_POINT('',(0.,0.,1.6002));
#262=CARTESIAN_POINT('',(0.07874,0.,1.6002));
#263=CARTESIAN_POINT('',(0.,0.,0.));
#264=CARTESIAN_POINT('',(0.,0.,2.3495));
#265=CARTESIAN_POINT('',(0.,0.,1.7907));
#266=CARTESIAN_POINT('',(0.08509,0.,1.7907));
#267=CARTESIAN_POINT('',(0.,0.,2.3495));
#268=CARTESIAN_POINT('',(0.08509,0.,2.3495));
#269=CARTESIAN_POINT('',(0.,0.,1.7907));
#270=CARTESIAN_POINT('',(0.,0.,1.7145));
#271=CARTESIAN_POINT('',(0.,0.,2.3495));
#272=CARTESIAN_POINT('',(0.12954,0.,2.3495));
#273=CARTESIAN_POINT('',(0.,0.,1.7145));
#274=CARTESIAN_POINT('',(0.12954,0.,1.7145));
#275=CARTESIAN_POINT('',(0.,0.,2.3495));
#276=CARTESIAN_POINT('',(0.,0.,1.6002));
#277=CARTESIAN_POINT('',(0.,0.,1.6002));
#278=CARTESIAN_POINT('',(0.16764,0.,1.6002));
#279=CARTESIAN_POINT('',(0.,0.,1.6002));
#280=CARTESIAN_POINT('',(0.,0.,1.7145));
#281=CARTESIAN_POINT('',(0.16764,0.,1.7145));
#282=CARTESIAN_POINT('',(0.,0.,1.7145));
#283=DEGENERATE_TOROIDAL_SURFACE('',#204,0.00253999999999999,0.0762,.T.);
#284=CLOSED_SHELL('',(#194,#195,#196,#197,#198,#199,#200,#201,#202,#203));
#285=MANIFOLD_SOLID_BREP('',#284);
#286=ADVANCED_BREP_SHAPE_REPRESENTATION('',(#285),#103);
ENDSEC;
END-ISO-10303-21;
