ISO-10303-21;
HEADER;
/* Generated by software containing ST-Developer
 * from STEP Tools, Inc. (www.steptools.com) 
 */

FILE_DESCRIPTION(
/* description */ ('Alibre Inc.'),
/* implementation_level */ '2;1');

FILE_NAME(
/* name */ 'export0',
/* time_stamp */ '2014-10-06T14:25:29-07:00',
/* author */ (''),
/* organization */ (''),
/* preprocessor_version */ 'ST-DEVELOPER v14',
/* originating_system */ 'Alibre',
/* authorisation */ '');

FILE_SCHEMA (('CONFIG_CONTROL_DESIGN'));
ENDSEC;

DATA;
#10=MECHANICAL_CONTEXT('detailed design',#18,'mechanical');
#11=PRODUCT_RELATED_PRODUCT_CATEGORY('detail','',(#98));
#12=CC_DESIGN_SECURITY_CLASSIFICATION(#14,(#97));
#13=SECURITY_CLASSIFICATION_LEVEL('unclassified');
#14=SECURITY_CLASSIFICATION('name','Security for version',#13);
#15=SHAPE_DEFINITION_REPRESENTATION(#16,#516);
#16=PRODUCT_DEFINITION_SHAPE('','DefinitionDesc',#96);
#17=APPLICATION_PROTOCOL_DEFINITION('AP definition status',
'config_control_design',1994,#18);
#18=APPLICATION_CONTEXT(
'control the configuration of three dimensional design');
#19=DESIGN_CONTEXT('detailed design',#18,'design');
#20=PERSON_AND_ORGANIZATION_ROLE('creator');
#21=PERSON_AND_ORGANIZATION_ROLE('classification_officer');
#22=PERSON_AND_ORGANIZATION_ROLE('creator');
#23=PERSON_AND_ORGANIZATION_ROLE('design_supplier');
#24=PERSON_AND_ORGANIZATION_ROLE('design_owner');
#25=CC_DESIGN_PERSON_AND_ORGANIZATION_ASSIGNMENT(#57,#20,(#96));
#26=CC_DESIGN_PERSON_AND_ORGANIZATION_ASSIGNMENT(#60,#21,(#14));
#27=CC_DESIGN_PERSON_AND_ORGANIZATION_ASSIGNMENT(#61,#22,(#97));
#28=CC_DESIGN_PERSON_AND_ORGANIZATION_ASSIGNMENT(#62,#23,(#97));
#29=CC_DESIGN_PERSON_AND_ORGANIZATION_ASSIGNMENT(#63,#24,(#98));
#30=DATE_TIME_ROLE('creation_date');
#31=DATE_TIME_ROLE('classification_date');
#32=CC_DESIGN_DATE_AND_TIME_ASSIGNMENT(#86,#30,(#96));
#33=CC_DESIGN_DATE_AND_TIME_ASSIGNMENT(#89,#31,(#14));
#34=CC_DESIGN_APPROVAL(#93,(#96));
#35=CC_DESIGN_APPROVAL(#94,(#97));
#36=CC_DESIGN_APPROVAL(#95,(#14));
#37=APPROVAL_PERSON_ORGANIZATION(#56,#93,#64);
#38=APPROVAL_PERSON_ORGANIZATION(#58,#94,#65);
#39=APPROVAL_PERSON_ORGANIZATION(#59,#95,#66);
#40=ORGANIZATION('DEFINITION_APPROVEDBY_ORG_ID',
'DEFINITION_APPROVEDBY_ORG_NAME','DEFINITION_APPROVEDBY_ORG_DESCR');
#41=ORGANIZATION('DEF_CREATOR_ORG_ID','DEF_CREATOR_ORG_NAME',
'DEF_CREATOR_ORG_DESCR');
#42=ORGANIZATION('APPROVEDBY_ORG_ID','APPROVEDBY_ORG_NAME',
'APPROVEDBY_ORG_DESCR');
#43=ORGANIZATION('SECURITY_APPROVEDBY_ORG_ID',
'SECURITY_APPROVEDBY_ORG_NAME','SECURITY_APPROVEDBY_ORG_DESCR');
#44=ORGANIZATION('CLASSOFFICER_ORG_ID','CLASSOFFICER_ORG_NAME',
'CLASSOFFICER_ORG_DESCR');
#45=ORGANIZATION('CREATOR_ORG_ID','CREATOR_ORG_NAME','CREATOR_ORG_DESCR');
#46=ORGANIZATION('SUPPLIER_ORG_ID','SUPPLIER_ORG_NAME',
'SUPPLIER_ORG_DESCR');
#47=ORGANIZATION('OWNER_ORG_ID','OWNER_ORG_NAME','OWNER_ORG_DESCR');
#48=PERSON('DEFINITION_approverID','DEFINITION_APPROVEDBY_LASTNAME',
'DEFINITION_APPROVEDBY_FIRSTNAME',$,$,$);
#49=PERSON('DEF_createrID','DEF_CREATOR_LASTNAME',
'DEF_CREATOR_FIRSTNAME',$,$,$);
#50=PERSON('approverID','APPROVEDBY_LASTNAME','APPROVEDBY_FIRSTNAME',$,$,
$);
#51=PERSON('SECURITY_approverID','SECURITY_LASTNAME',
'SECURITY_APPROVEDBY_FIRSTNAME',$,$,$);
#52=PERSON('classifierID','CLASSOFFICER_LASTNAME',
'CLASSOFFICER_FIRSTNAME',$,$,$);
#53=PERSON('createrID','CREATOR_LASTNAME','CREATOR_FIRSTNAME',$,$,$);
#54=PERSON('supplierID','SUPPLIER_LASTNAME','SUPPLIER_FIRSTNAME',$,$,$);
#55=PERSON('ownerID','OWNER_LASTNAME','OWNER_FIRSTNAME',$,$,$);
#56=PERSON_AND_ORGANIZATION(#48,#40);
#57=PERSON_AND_ORGANIZATION(#49,#41);
#58=PERSON_AND_ORGANIZATION(#50,#42);
#59=PERSON_AND_ORGANIZATION(#51,#43);
#60=PERSON_AND_ORGANIZATION(#52,#44);
#61=PERSON_AND_ORGANIZATION(#53,#45);
#62=PERSON_AND_ORGANIZATION(#54,#46);
#63=PERSON_AND_ORGANIZATION(#55,#47);
#64=APPROVAL_ROLE('definition_approval');
#65=APPROVAL_ROLE('version_approval');
#66=APPROVAL_ROLE('security_approval');
#67=APPROVAL_DATE_TIME(#85,#93);
#68=APPROVAL_DATE_TIME(#87,#94);
#69=APPROVAL_DATE_TIME(#88,#95);
#70=COORDINATED_UNIVERSAL_TIME_OFFSET(8,0,.BEHIND.);
#71=COORDINATED_UNIVERSAL_TIME_OFFSET(8,0,.BEHIND.);
#72=COORDINATED_UNIVERSAL_TIME_OFFSET(8,0,.BEHIND.);
#73=COORDINATED_UNIVERSAL_TIME_OFFSET(8,0,.BEHIND.);
#74=COORDINATED_UNIVERSAL_TIME_OFFSET(8,0,.BEHIND.);
#75=LOCAL_TIME(14,55,9.,#70);
#76=LOCAL_TIME(14,55,9.,#71);
#77=LOCAL_TIME(14,55,9.,#72);
#78=LOCAL_TIME(14,55,9.,#73);
#79=LOCAL_TIME(14,55,9.,#74);
#80=CALENDAR_DATE(2009,31,3);
#81=CALENDAR_DATE(2009,31,3);
#82=CALENDAR_DATE(2009,31,3);
#83=CALENDAR_DATE(2009,31,3);
#84=CALENDAR_DATE(2009,31,3);
#85=DATE_AND_TIME(#80,#75);
#86=DATE_AND_TIME(#81,#76);
#87=DATE_AND_TIME(#82,#77);
#88=DATE_AND_TIME(#83,#78);
#89=DATE_AND_TIME(#84,#79);
#90=APPROVAL_STATUS('not_yet_approved');
#91=APPROVAL_STATUS('not_yet_approved');
#92=APPROVAL_STATUS('not_yet_approved');
#93=APPROVAL(#90,'defintion approval');
#94=APPROVAL(#91,'version approval');
#95=APPROVAL(#92,'security approval');
#96=PRODUCT_DEFINITION('DefinitionID','DefinitionDesc',#97,#19);
#97=PRODUCT_DEFINITION_FORMATION_WITH_SPECIFIED_SOURCE(
'PRODUCT_VERSION_ID','PRODUCT_VERSION_DESCR',#98,.NOT_KNOWN.);
#98=PRODUCT('110701','110701',
'STANDARD LENGTH POWER SOCKET\X\0D\X\0A(FEMALE) FOR 16-18 AWG WIRE',(#10));
#99=(
LENGTH_UNIT()
NAMED_UNIT(*)
SI_UNIT(.CENTI.,.METRE.)
);
#100=(
NAMED_UNIT(*)
PLANE_ANGLE_UNIT()
SI_UNIT($,.RADIAN.)
);
#101=(
NAMED_UNIT(*)
SI_UNIT($,.STERADIAN.)
SOLID_ANGLE_UNIT()
);
#102=UNCERTAINTY_MEASURE_WITH_UNIT(LENGTH_MEASURE(1.E-006),#99,
'DISTANCE_ACCURACY_VALUE',
'Maximum model space distance between geometric entities at asserted co
nnectivities');
#103=(
GEOMETRIC_REPRESENTATION_CONTEXT(3)
GLOBAL_UNCERTAINTY_ASSIGNED_CONTEXT((#102))
GLOBAL_UNIT_ASSIGNED_CONTEXT((#101,#100,#99))
REPRESENTATION_CONTEXT('ID1','3D')
);
#104=CONICAL_SURFACE('',#313,0.0950799630731643,0.785398163397448);
#105=PLANE('',#299);
#106=PLANE('',#306);
#107=PLANE('',#318);
#108=PLANE('',#320);
#109=PLANE('',#323);
#110=PLANE('',#327);
#111=PLANE('',#328);
#112=CIRCLE('',#297,0.09144);
#113=CIRCLE('',#298,0.07874);
#114=CIRCLE('',#300,0.09779);
#115=CIRCLE('',#302,0.07874);
#116=CIRCLE('',#304,0.1397);
#117=CIRCLE('',#305,0.127);
#118=CIRCLE('',#307,0.11049);
#119=CIRCLE('',#309,0.1397);
#120=CIRCLE('',#311,0.09779);
#121=CIRCLE('',#314,0.0772999630731642);
#122=CIRCLE('',#315,0.0950799630731643);
#123=CIRCLE('',#317,0.0772999630731643);
#124=CIRCLE('',#319,0.12954);
#125=CIRCLE('',#322,0.12954);
#126=CIRCLE('',#324,0.16764);
#127=CIRCLE('',#326,0.16764);
#128=TOROIDAL_SURFACE('',#296,0.09144,0.0127);
#129=TOROIDAL_SURFACE('',#303,0.127,0.0127);
#130=TOROIDAL_SURFACE('',#310,0.11049,0.0127);
#131=VERTEX_POINT('',#422);
#132=VERTEX_POINT('',#457);
#133=VERTEX_POINT('',#460);
#134=VERTEX_POINT('',#462);
#135=VERTEX_POINT('',#465);
#136=VERTEX_POINT('',#468);
#137=VERTEX_POINT('',#471);
#138=VERTEX_POINT('',#473);
#139=VERTEX_POINT('',#476);
#140=VERTEX_POINT('',#479);
#141=VERTEX_POINT('',#482);
#142=VERTEX_POINT('',#486);
#143=VERTEX_POINT('',#488);
#144=VERTEX_POINT('',#491);
#145=VERTEX_POINT('',#494);
#146=VERTEX_POINT('',#498);
#147=VERTEX_POINT('',#501);
#148=VERTEX_POINT('',#504);
#149=B_SPLINE_CURVE_WITH_KNOTS('',3,(#388,#389,#390,#391,#392,#393,#394,
#395,#396,#397,#398,#399,#400,#401,#402,#403,#404,#405,#406,#407,#408,#409,
#410,#411,#412,#413,#414,#415,#416,#417,#418,#419,#420,#421),
 .UNSPECIFIED.,.T.,.U.,(4,2,2,2,2,2,2,2,2,2,2,2,2,2,2,2,4),(0.,0.0144463745935288,
0.0288927491870575,0.0433351616925418,0.057777574198026,0.0722199867035103,
0.0866623992089945,0.101108773802523,0.115555148396052,0.130001522989581,
0.14444789758311,0.158890310088594,0.173332722594078,0.187775135099562,0.202217547605047,
0.216663922198575,0.231110296792104),.UNSPECIFIED.);
#150=B_SPLINE_CURVE_WITH_KNOTS('',3,(#423,#424,#425,#426,#427,#428,#429,
#430,#431,#432,#433,#434,#435,#436,#437,#438,#439,#440,#441,#442,#443,#444,
#445,#446,#447,#448,#449,#450,#451,#452,#453,#454,#455,#456),
 .UNSPECIFIED.,.T.,.U.,(4,2,2,2,2,2,2,2,2,2,2,2,2,2,2,2,4),(0.,0.0146544689027662,
0.0293089378055324,0.0439259855318815,0.0585430332582305,0.0731600809845795,
0.0877771287109286,0.102431597613695,0.117086066516461,0.131740535419227,
0.146395004321993,0.161012052048342,0.175629099774691,0.190246147501041,
0.20486319522739,0.219517664130156,0.234172133032922),.UNSPECIFIED.);
#151=EDGE_CURVE('',#131,#131,#149,.T.);
#152=EDGE_CURVE('',#132,#132,#150,.T.);
#153=EDGE_CURVE('',#133,#133,#112,.T.);
#154=EDGE_CURVE('',#134,#134,#113,.T.);
#155=EDGE_CURVE('',#135,#135,#114,.T.);
#156=EDGE_CURVE('',#136,#136,#115,.T.);
#157=EDGE_CURVE('',#137,#137,#116,.T.);
#158=EDGE_CURVE('',#138,#138,#117,.T.);
#159=EDGE_CURVE('',#139,#139,#118,.T.);
#160=EDGE_CURVE('',#140,#140,#119,.T.);
#161=EDGE_CURVE('',#141,#141,#120,.T.);
#162=EDGE_CURVE('',#142,#142,#121,.T.);
#163=EDGE_CURVE('',#143,#143,#122,.T.);
#164=EDGE_CURVE('',#144,#144,#123,.T.);
#165=EDGE_CURVE('',#145,#145,#124,.T.);
#166=EDGE_CURVE('',#146,#146,#125,.T.);
#167=EDGE_CURVE('',#147,#147,#126,.T.);
#168=EDGE_CURVE('',#148,#148,#127,.T.);
#169=ORIENTED_EDGE('',*,*,#151,.F.);
#170=ORIENTED_EDGE('',*,*,#152,.F.);
#171=ORIENTED_EDGE('',*,*,#153,.T.);
#172=ORIENTED_EDGE('',*,*,#154,.T.);
#173=ORIENTED_EDGE('',*,*,#155,.T.);
#174=ORIENTED_EDGE('',*,*,#153,.F.);
#175=ORIENTED_EDGE('',*,*,#156,.F.);
#176=ORIENTED_EDGE('',*,*,#154,.F.);
#177=ORIENTED_EDGE('',*,*,#157,.T.);
#178=ORIENTED_EDGE('',*,*,#158,.T.);
#179=ORIENTED_EDGE('',*,*,#159,.F.);
#180=ORIENTED_EDGE('',*,*,#158,.F.);
#181=ORIENTED_EDGE('',*,*,#160,.T.);
#182=ORIENTED_EDGE('',*,*,#157,.F.);
#183=ORIENTED_EDGE('',*,*,#161,.T.);
#184=ORIENTED_EDGE('',*,*,#159,.T.);
#185=ORIENTED_EDGE('',*,*,#155,.F.);
#186=ORIENTED_EDGE('',*,*,#161,.F.);
#187=ORIENTED_EDGE('',*,*,#162,.T.);
#188=ORIENTED_EDGE('',*,*,#163,.T.);
#189=ORIENTED_EDGE('',*,*,#152,.T.);
#190=ORIENTED_EDGE('',*,*,#164,.F.);
#191=ORIENTED_EDGE('',*,*,#162,.F.);
#192=ORIENTED_EDGE('',*,*,#165,.F.);
#193=ORIENTED_EDGE('',*,*,#163,.F.);
#194=ORIENTED_EDGE('',*,*,#164,.T.);
#195=ORIENTED_EDGE('',*,*,#151,.T.);
#196=ORIENTED_EDGE('',*,*,#165,.T.);
#197=ORIENTED_EDGE('',*,*,#166,.F.);
#198=ORIENTED_EDGE('',*,*,#167,.F.);
#199=ORIENTED_EDGE('',*,*,#160,.F.);
#200=ORIENTED_EDGE('',*,*,#168,.T.);
#201=ORIENTED_EDGE('',*,*,#167,.T.);
#202=ORIENTED_EDGE('',*,*,#166,.T.);
#203=ORIENTED_EDGE('',*,*,#168,.F.);
#204=ORIENTED_EDGE('',*,*,#156,.T.);
#205=EDGE_LOOP('',(#169));
#206=EDGE_LOOP('',(#170));
#207=EDGE_LOOP('',(#171));
#208=EDGE_LOOP('',(#172));
#209=EDGE_LOOP('',(#173));
#210=EDGE_LOOP('',(#174));
#211=EDGE_LOOP('',(#175));
#212=EDGE_LOOP('',(#176));
#213=EDGE_LOOP('',(#177));
#214=EDGE_LOOP('',(#178));
#215=EDGE_LOOP('',(#179));
#216=EDGE_LOOP('',(#180));
#217=EDGE_LOOP('',(#181));
#218=EDGE_LOOP('',(#182));
#219=EDGE_LOOP('',(#183));
#220=EDGE_LOOP('',(#184));
#221=EDGE_LOOP('',(#185));
#222=EDGE_LOOP('',(#186));
#223=EDGE_LOOP('',(#187));
#224=EDGE_LOOP('',(#188));
#225=EDGE_LOOP('',(#189));
#226=EDGE_LOOP('',(#190));
#227=EDGE_LOOP('',(#191));
#228=EDGE_LOOP('',(#192));
#229=EDGE_LOOP('',(#193));
#230=EDGE_LOOP('',(#194));
#231=EDGE_LOOP('',(#195));
#232=EDGE_LOOP('',(#196));
#233=EDGE_LOOP('',(#197));
#234=EDGE_LOOP('',(#198));
#235=EDGE_LOOP('',(#199));
#236=EDGE_LOOP('',(#200));
#237=EDGE_LOOP('',(#201));
#238=EDGE_LOOP('',(#202));
#239=EDGE_LOOP('',(#203));
#240=EDGE_LOOP('',(#204));
#241=FACE_BOUND('',#205,.T.);
#242=FACE_BOUND('',#206,.T.);
#243=FACE_BOUND('',#207,.T.);
#244=FACE_BOUND('',#208,.T.);
#245=FACE_BOUND('',#209,.T.);
#246=FACE_BOUND('',#210,.T.);
#247=FACE_BOUND('',#211,.T.);
#248=FACE_BOUND('',#212,.T.);
#249=FACE_BOUND('',#213,.T.);
#250=FACE_BOUND('',#214,.T.);
#251=FACE_BOUND('',#215,.T.);
#252=FACE_BOUND('',#216,.T.);
#253=FACE_BOUND('',#217,.T.);
#254=FACE_BOUND('',#218,.T.);
#255=FACE_BOUND('',#219,.T.);
#256=FACE_BOUND('',#220,.T.);
#257=FACE_BOUND('',#221,.T.);
#258=FACE_BOUND('',#222,.T.);
#259=FACE_BOUND('',#223,.T.);
#260=FACE_BOUND('',#224,.T.);
#261=FACE_BOUND('',#225,.T.);
#262=FACE_BOUND('',#226,.T.);
#263=FACE_BOUND('',#227,.T.);
#264=FACE_BOUND('',#228,.T.);
#265=FACE_BOUND('',#229,.T.);
#266=FACE_BOUND('',#230,.T.);
#267=FACE_BOUND('',#231,.T.);
#268=FACE_BOUND('',#232,.T.);
#269=FACE_BOUND('',#233,.T.);
#270=FACE_BOUND('',#234,.T.);
#271=FACE_BOUND('',#235,.T.);
#272=FACE_BOUND('',#236,.T.);
#273=FACE_BOUND('',#237,.T.);
#274=FACE_BOUND('',#238,.T.);
#275=FACE_BOUND('',#239,.T.);
#276=FACE_BOUND('',#240,.T.);
#277=ADVANCED_FACE('',(#241,#242),#507,.F.);
#278=ADVANCED_FACE('',(#243,#244),#128,.T.);
#279=ADVANCED_FACE('',(#245,#246),#105,.T.);
#280=ADVANCED_FACE('',(#247,#248),#508,.F.);
#281=ADVANCED_FACE('',(#249,#250),#129,.T.);
#282=ADVANCED_FACE('',(#251,#252),#106,.T.);
#283=ADVANCED_FACE('',(#253,#254),#509,.T.);
#284=ADVANCED_FACE('',(#255,#256),#130,.T.);
#285=ADVANCED_FACE('',(#257,#258),#510,.F.);
#286=ADVANCED_FACE('',(#259,#260),#104,.F.);
#287=ADVANCED_FACE('',(#261,#262,#263),#511,.F.);
#288=ADVANCED_FACE('',(#264,#265),#107,.T.);
#289=ADVANCED_FACE('',(#266),#108,.T.);
#290=ADVANCED_FACE('',(#267,#268,#269),#512,.T.);
#291=ADVANCED_FACE('',(#270,#271),#109,.F.);
#292=ADVANCED_FACE('',(#272,#273),#513,.T.);
#293=ADVANCED_FACE('',(#274,#275),#110,.T.);
#294=ADVANCED_FACE('',(#276),#111,.T.);
#295=AXIS2_PLACEMENT_3D('',#387,#329,#330);
#296=AXIS2_PLACEMENT_3D('',#458,#331,$);
#297=AXIS2_PLACEMENT_3D('',#459,#332,#333);
#298=AXIS2_PLACEMENT_3D('',#461,#334,#335);
#299=AXIS2_PLACEMENT_3D('',#463,#336,$);
#300=AXIS2_PLACEMENT_3D('',#464,#337,#338);
#301=AXIS2_PLACEMENT_3D('',#466,#339,#340);
#302=AXIS2_PLACEMENT_3D('',#467,#341,#342);
#303=AXIS2_PLACEMENT_3D('',#469,#343,$);
#304=AXIS2_PLACEMENT_3D('',#470,#344,#345);
#305=AXIS2_PLACEMENT_3D('',#472,#346,#347);
#306=AXIS2_PLACEMENT_3D('',#474,#348,$);
#307=AXIS2_PLACEMENT_3D('',#475,#349,#350);
#308=AXIS2_PLACEMENT_3D('',#477,#351,#352);
#309=AXIS2_PLACEMENT_3D('',#478,#353,#354);
#310=AXIS2_PLACEMENT_3D('',#480,#355,$);
#311=AXIS2_PLACEMENT_3D('',#481,#356,#357);
#312=AXIS2_PLACEMENT_3D('',#483,#358,#359);
#313=AXIS2_PLACEMENT_3D('',#484,#360,#361);
#314=AXIS2_PLACEMENT_3D('',#485,#362,#363);
#315=AXIS2_PLACEMENT_3D('',#487,#364,#365);
#316=AXIS2_PLACEMENT_3D('',#489,#366,#367);
#317=AXIS2_PLACEMENT_3D('',#490,#368,#369);
#318=AXIS2_PLACEMENT_3D('',#492,#370,$);
#319=AXIS2_PLACEMENT_3D('',#493,#371,#372);
#320=AXIS2_PLACEMENT_3D('',#495,#373,$);
#321=AXIS2_PLACEMENT_3D('',#496,#374,#375);
#322=AXIS2_PLACEMENT_3D('',#497,#376,#377);
#323=AXIS2_PLACEMENT_3D('',#499,#378,$);
#324=AXIS2_PLACEMENT_3D('',#500,#379,#380);
#325=AXIS2_PLACEMENT_3D('',#502,#381,#382);
#326=AXIS2_PLACEMENT_3D('',#503,#383,#384);
#327=AXIS2_PLACEMENT_3D('',#505,#385,$);
#328=AXIS2_PLACEMENT_3D('',#506,#386,$);
#329=DIRECTION('',(1.,0.,0.));
#330=DIRECTION('',(0.,0.,-0.0381));
#331=DIRECTION('',(0.,0.,1.));
#332=DIRECTION('',(0.,0.,1.));
#333=DIRECTION('',(0.09144,0.,0.));
#334=DIRECTION('',(0.,0.,-1.));
#335=DIRECTION('',(0.07874,0.,0.));
#336=DIRECTION('',(0.,0.,1.));
#337=DIRECTION('',(0.,0.,1.));
#338=DIRECTION('',(0.09779,0.,0.));
#339=DIRECTION('',(0.,0.,-1.));
#340=DIRECTION('',(0.07874,0.,0.));
#341=DIRECTION('',(0.,0.,1.));
#342=DIRECTION('',(0.07874,0.,0.));
#343=DIRECTION('',(0.,0.,1.));
#344=DIRECTION('',(0.,0.,1.));
#345=DIRECTION('',(-0.1397,1.71083157840885E-017,0.));
#346=DIRECTION('',(0.,0.,-1.));
#347=DIRECTION('',(-0.127,1.55530143491714E-017,0.));
#348=DIRECTION('',(0.,0.,1.));
#349=DIRECTION('',(0.,0.,1.));
#350=DIRECTION('',(-0.11049,-1.35311224837791E-017,0.));
#351=DIRECTION('',(0.,0.,-1.));
#352=DIRECTION('',(0.1397,0.,0.));
#353=DIRECTION('',(0.,0.,1.));
#354=DIRECTION('',(0.1397,0.,0.));
#355=DIRECTION('',(0.,0.,-1.));
#356=DIRECTION('',(0.,0.,-1.));
#357=DIRECTION('',(-0.09779,-1.1975821048862E-017,0.));
#358=DIRECTION('',(0.,0.,-1.));
#359=DIRECTION('',(0.09779,0.,0.));
#360=DIRECTION('',(0.,0.,-1.));
#361=DIRECTION('',(0.0950799630731643,0.,0.));
#362=DIRECTION('',(0.,0.,1.));
#363=DIRECTION('',(0.0772999630731642,0.,0.));
#364=DIRECTION('',(0.,0.,-1.));
#365=DIRECTION('',(0.0950799630731643,0.,0.));
#366=DIRECTION('',(0.,0.,1.));
#367=DIRECTION('',(-0.0772999630731643,0.,0.));
#368=DIRECTION('',(0.,0.,-1.));
#369=DIRECTION('',(-0.0772999630731643,0.,0.));
#370=DIRECTION('',(0.,0.,-1.));
#371=DIRECTION('',(0.,0.,1.));
#372=DIRECTION('',(-0.12954,0.,0.));
#373=DIRECTION('',(0.,0.,-1.));
#374=DIRECTION('',(0.,0.,-1.));
#375=DIRECTION('',(-0.12954,0.,0.));
#376=DIRECTION('',(0.,0.,1.));
#377=DIRECTION('',(-0.12954,0.,0.));
#378=DIRECTION('',(0.,0.,-1.));
#379=DIRECTION('',(0.,0.,-1.));
#380=DIRECTION('',(-0.16764,0.,0.));
#381=DIRECTION('',(0.,0.,-1.));
#382=DIRECTION('',(-0.16764,0.,0.));
#383=DIRECTION('',(0.,0.,1.));
#384=DIRECTION('',(-0.16764,0.,0.));
#385=DIRECTION('',(0.,0.,-1.));
#386=DIRECTION('',(0.,0.,1.));
#387=CARTESIAN_POINT('',(0.,0.,-1.7399));
#388=CARTESIAN_POINT('',(0.120405962670371,-0.0381,-1.7399));
#389=CARTESIAN_POINT('',(0.120405962670371,-0.0381,-1.73508454180216));
#390=CARTESIAN_POINT('',(0.120716290570432,-0.037131773344824,-1.7299691007393));
#391=CARTESIAN_POINT('',(0.121815986027512,-0.0332350601698265,-1.72059139274774));
#392=CARTESIAN_POINT('',(0.122587241202187,-0.0303079681122125,-1.7163264313858));
#393=CARTESIAN_POINT('',(0.124018923830763,-0.0235744921083139,-1.7095929553819));
#394=CARTESIAN_POINT('',(0.124775349129973,-0.0193091542839167,-1.7066651475501));
#395=CARTESIAN_POINT('',(0.125840658047963,-0.00993008218700762,-1.70276790672538));
#396=CARTESIAN_POINT('',(0.126135617383718,-0.00481413750182808,-1.7018));
#397=CARTESIAN_POINT('',(0.126135617383718,0.00481413750182809,-1.7018));
#398=CARTESIAN_POINT('',(0.125840658047963,0.00993008218700793,-1.70276790672538));
#399=CARTESIAN_POINT('',(0.124775349129973,0.0193091542839169,-1.7066651475501));
#400=CARTESIAN_POINT('',(0.124018923830763,0.0235744921083139,-1.7095929553819));
#401=CARTESIAN_POINT('',(0.122587241202187,0.0303079681122125,-1.7163264313858));
#402=CARTESIAN_POINT('',(0.121815986027512,0.0332350601698265,-1.72059139274774));
#403=CARTESIAN_POINT('',(0.120716290570432,0.037131773344824,-1.7299691007393));
#404=CARTESIAN_POINT('',(0.120405962670371,0.0381,-1.73508454180216));
#405=CARTESIAN_POINT('',(0.120405962670371,0.0381,-1.74471545819784));
#406=CARTESIAN_POINT('',(0.120716290570432,0.037131773344824,-1.7498308992607));
#407=CARTESIAN_POINT('',(0.121815986027512,0.0332350601698265,-1.75920860725226));
#408=CARTESIAN_POINT('',(0.122587241202187,0.0303079681122125,-1.7634735686142));
#409=CARTESIAN_POINT('',(0.124018923830763,0.0235744921083139,-1.7702070446181));
#410=CARTESIAN_POINT('',(0.124775349129973,0.0193091542839169,-1.7731348524499));
#411=CARTESIAN_POINT('',(0.125840658047963,0.00993008218700793,-1.77703209327462));
#412=CARTESIAN_POINT('',(0.126135617383718,0.00481413750182808,-1.778));
#413=CARTESIAN_POINT('',(0.126135617383718,-0.00481413750182808,-1.778));
#414=CARTESIAN_POINT('',(0.125840658047963,-0.00993008218700793,-1.77703209327462));
#415=CARTESIAN_POINT('',(0.124775349129973,-0.0193091542839169,-1.7731348524499));
#416=CARTESIAN_POINT('',(0.124018923830763,-0.0235744921083139,-1.7702070446181));
#417=CARTESIAN_POINT('',(0.122587241202187,-0.0303079681122125,-1.7634735686142));
#418=CARTESIAN_POINT('',(0.121815986027512,-0.0332350601698265,-1.75920860725226));
#419=CARTESIAN_POINT('',(0.120716290570432,-0.037131773344824,-1.7498308992607));
#420=CARTESIAN_POINT('',(0.120405962670371,-0.0381,-1.74471545819784));
#421=CARTESIAN_POINT('',(0.120405962670371,-0.0381,-1.7399));
#422=CARTESIAN_POINT('',(0.120405962670371,-0.0381,-1.7399));
#423=CARTESIAN_POINT('',(0.06725826559697,0.0381,-1.7399));
#424=CARTESIAN_POINT('',(0.06725826559697,0.0381,-1.73501517703241));
#425=CARTESIAN_POINT('',(0.0678470802119364,0.0371063104449685,-1.72987883941499));
#426=CARTESIAN_POINT('',(0.0698437787495806,0.0331956420378911,-1.72052599980809));
#427=CARTESIAN_POINT('',(0.0712111513869905,0.0302813211673338,-1.71629978444092));
#428=CARTESIAN_POINT('',(0.0736922575453951,0.0236087458863584,-1.70962720915994));
#429=CARTESIAN_POINT('',(0.0749830948509446,0.0193796252484225,-1.70670661159856));
#430=CARTESIAN_POINT('',(0.0767968087694518,0.0100142180088555,-1.70279088504227));
#431=CARTESIAN_POINT('',(0.0772999630731643,0.00487234924211634,-1.7018));
#432=CARTESIAN_POINT('',(0.0772999630731643,-0.00487234924211635,-1.7018));
#433=CARTESIAN_POINT('',(0.0767968087694518,-0.0100142180088555,-1.70279088504227));
#434=CARTESIAN_POINT('',(0.0749830948509446,-0.0193796252484225,-1.70670661159856));
#435=CARTESIAN_POINT('',(0.0736922575453951,-0.0236087458863584,-1.70962720915994));
#436=CARTESIAN_POINT('',(0.0712111513869905,-0.0302813211673338,-1.71629978444092));
#437=CARTESIAN_POINT('',(0.0698437787495806,-0.0331956420378911,-1.72052599980809));
#438=CARTESIAN_POINT('',(0.0678470802119364,-0.0371063104449685,-1.72987883941499));
#439=CARTESIAN_POINT('',(0.06725826559697,-0.0381,-1.73501517703241));
#440=CARTESIAN_POINT('',(0.06725826559697,-0.0381,-1.74478482296759));
#441=CARTESIAN_POINT('',(0.0678470802119365,-0.0371063104449683,-1.74992116058501));
#442=CARTESIAN_POINT('',(0.0698437787495807,-0.0331956420378909,-1.75927400019191));
#443=CARTESIAN_POINT('',(0.0712111513869905,-0.0302813211673338,-1.76350021555908));
#444=CARTESIAN_POINT('',(0.0736922575453951,-0.0236087458863584,-1.77017279084006));
#445=CARTESIAN_POINT('',(0.0749830948509446,-0.0193796252484226,-1.77309338840144));
#446=CARTESIAN_POINT('',(0.0767968087694517,-0.0100142180088557,-1.77700911495773));
#447=CARTESIAN_POINT('',(0.0772999630731643,-0.00487234924211634,-1.778));
#448=CARTESIAN_POINT('',(0.0772999630731643,0.00487234924211634,-1.778));
#449=CARTESIAN_POINT('',(0.0767968087694517,0.0100142180088556,-1.77700911495773));
#450=CARTESIAN_POINT('',(0.0749830948509446,0.0193796252484226,-1.77309338840144));
#451=CARTESIAN_POINT('',(0.0736922575453951,0.0236087458863584,-1.77017279084006));
#452=CARTESIAN_POINT('',(0.0712111513869905,0.0302813211673338,-1.76350021555908));
#453=CARTESIAN_POINT('',(0.0698437787495805,0.0331956420378912,-1.75927400019191));
#454=CARTESIAN_POINT('',(0.0678470802119363,0.0371063104449685,-1.74992116058501));
#455=CARTESIAN_POINT('',(0.06725826559697,0.0381,-1.74478482296759));
#456=CARTESIAN_POINT('',(0.06725826559697,0.0381,-1.7399));
#457=CARTESIAN_POINT('',(0.06725826559697,0.0381,-1.7399));
#458=CARTESIAN_POINT('',(0.,0.,-0.09398));
#459=CARTESIAN_POINT('',(0.,0.,-0.08128));
#460=CARTESIAN_POINT('',(-0.09144,-1.11981703314034E-017,-0.08128));
#461=CARTESIAN_POINT('',(0.,0.,-0.09398));
#462=CARTESIAN_POINT('',(-0.07874,9.64286889648626E-018,-0.09398));
#463=CARTESIAN_POINT('',(0.,0.,-0.08128));
#464=CARTESIAN_POINT('',(0.,0.,-0.08128));
#465=CARTESIAN_POINT('',(0.09779,0.,-0.08128));
#466=CARTESIAN_POINT('',(0.,0.,0.));
#467=CARTESIAN_POINT('',(0.,0.,-1.397));
#468=CARTESIAN_POINT('',(0.07874,0.,-1.397));
#469=CARTESIAN_POINT('',(0.,0.,-0.0127));
#470=CARTESIAN_POINT('',(0.,0.,-0.0127));
#471=CARTESIAN_POINT('',(0.1397,0.,-0.0127));
#472=CARTESIAN_POINT('',(0.,0.,0.));
#473=CARTESIAN_POINT('',(0.127,-3.11060286983428E-017,0.));
#474=CARTESIAN_POINT('',(0.,0.,0.));
#475=CARTESIAN_POINT('',(0.,0.,0.));
#476=CARTESIAN_POINT('',(0.11049,2.70622449675582E-017,0.));
#477=CARTESIAN_POINT('',(0.,0.,0.));
#478=CARTESIAN_POINT('',(0.,0.,-1.5621));
#479=CARTESIAN_POINT('',(0.1397,0.,-1.5621));
#480=CARTESIAN_POINT('',(0.,0.,-0.0127));
#481=CARTESIAN_POINT('',(0.,0.,-0.0127));
#482=CARTESIAN_POINT('',(0.09779,0.,-0.0127));
#483=CARTESIAN_POINT('',(0.,0.,0.));
#484=CARTESIAN_POINT('',(0.,0.,-2.3114));
#485=CARTESIAN_POINT('',(0.,0.,-2.29362));
#486=CARTESIAN_POINT('',(-0.0772999630731642,-9.46651523517592E-018,-2.29362));
#487=CARTESIAN_POINT('',(0.,0.,-2.3114));
#488=CARTESIAN_POINT('',(-0.0950799630731643,1.16439372440599E-017,-2.3114));
#489=CARTESIAN_POINT('',(0.,0.,-2.3114));
#490=CARTESIAN_POINT('',(0.,0.,-1.5494));
#491=CARTESIAN_POINT('',(-0.0772999630731643,0.,-1.5494));
#492=CARTESIAN_POINT('',(-0.00340438261628151,0.,-2.3114));
#493=CARTESIAN_POINT('',(-0.00340438261628151,0.,-2.3114));
#494=CARTESIAN_POINT('',(-0.132944382616282,0.,-2.3114));
#495=CARTESIAN_POINT('',(0.,0.,-1.5494));
#496=CARTESIAN_POINT('',(-0.00340438261628151,0.,-1.6764));
#497=CARTESIAN_POINT('',(-0.00340438261628151,0.,-1.6764));
#498=CARTESIAN_POINT('',(-0.132944382616282,0.,-1.6764));
#499=CARTESIAN_POINT('',(0.,0.,-1.5621));
#500=CARTESIAN_POINT('',(0.,0.,-1.5621));
#501=CARTESIAN_POINT('',(-0.16764,0.,-1.5621));
#502=CARTESIAN_POINT('',(0.,0.,-1.5621));
#503=CARTESIAN_POINT('',(0.,0.,-1.6764));
#504=CARTESIAN_POINT('',(-0.16764,0.,-1.6764));
#505=CARTESIAN_POINT('',(0.,0.,-1.6764));
#506=CARTESIAN_POINT('',(0.,0.,-1.397));
#507=CYLINDRICAL_SURFACE('',#295,0.0381);
#508=CYLINDRICAL_SURFACE('',#301,0.07874);
#509=CYLINDRICAL_SURFACE('',#308,0.1397);
#510=CYLINDRICAL_SURFACE('',#312,0.09779);
#511=CYLINDRICAL_SURFACE('',#316,0.0772999630731643);
#512=CYLINDRICAL_SURFACE('',#321,0.12954);
#513=CYLINDRICAL_SURFACE('',#325,0.16764);
#514=CLOSED_SHELL('',(#277,#278,#279,#280,#281,#282,#283,#284,#285,#286,
#287,#288,#289,#290,#291,#292,#293,#294));
#515=MANIFOLD_SOLID_BREP('',#514);
#516=ADVANCED_BREP_SHAPE_REPRESENTATION('',(#515),#103);
ENDSEC;
END-ISO-10303-21;
