ISO-10303-21;
HEADER;
/* Generated by software containing ST-Developer
 * from STEP Tools, Inc. (www.steptools.com) 
 */

FILE_DESCRIPTION(
/* description */ (''),
/* implementation_level */ '2;1');

FILE_NAME(
/* name */ 'G:\\FLANGES & FITTINGS\\Gaskets\\Step files\\VGW63.stp',
/* time_stamp */ '2019-04-18T15:55:36+01:00',
/* author */ ('paul'),
/* organization */ (''),
/* preprocessor_version */ 'ST-DEVELOPER v18',
/* originating_system */ 'Autodesk Inventor 2020',
/* authorisation */ '');

FILE_SCHEMA (('AUTOMOTIVE_DESIGN { 1 0 10303 214 3 1 1 }'));
ENDSEC;

DATA;
#10=MECHANICAL_DESIGN_GEOMETRIC_PRESENTATION_REPRESENTATION('',(#13),#236);
#11=SHAPE_REPRESENTATION_RELATIONSHIP('SRR','None',#243,#12);
#12=ADVANCED_BREP_SHAPE_REPRESENTATION('',(#14),#235);
#13=STYLED_ITEM('',(#252),#14);
#14=MANIFOLD_SOLID_BREP('Solid1',#120);
#15=CONICAL_SURFACE('',#148,40.55,0.291456794477866);
#16=CONICAL_SURFACE('',#154,39.375,1.0957855705298);
#17=FACE_BOUND('',#31,.T.);
#18=FACE_BOUND('',#34,.T.);
#19=FACE_BOUND('',#37,.T.);
#20=PLANE('',#145);
#21=PLANE('',#151);
#22=PLANE('',#157);
#23=FACE_OUTER_BOUND('',#29,.T.);
#24=FACE_OUTER_BOUND('',#30,.T.);
#25=FACE_OUTER_BOUND('',#32,.T.);
#26=FACE_OUTER_BOUND('',#33,.T.);
#27=FACE_OUTER_BOUND('',#35,.T.);
#28=FACE_OUTER_BOUND('',#36,.T.);
#29=EDGE_LOOP('',(#83,#84,#85,#86,#87,#88));
#30=EDGE_LOOP('',(#89,#90));
#31=EDGE_LOOP('',(#91,#92));
#32=EDGE_LOOP('',(#93,#94,#95,#96,#97,#98));
#33=EDGE_LOOP('',(#99,#100));
#34=EDGE_LOOP('',(#101,#102));
#35=EDGE_LOOP('',(#103,#104,#105,#106,#107,#108));
#36=EDGE_LOOP('',(#109,#110));
#37=EDGE_LOOP('',(#111,#112));
#38=LINE('',#205,#41);
#39=LINE('',#220,#42);
#40=LINE('',#228,#43);
#41=VECTOR('',#164,35.35);
#42=VECTOR('',#183,40.55);
#43=VECTOR('',#192,39.375);
#44=CIRCLE('',#141,35.35);
#45=CIRCLE('',#142,35.35);
#46=CIRCLE('',#143,35.35);
#47=CIRCLE('',#144,35.35);
#48=CIRCLE('',#146,40.1);
#49=CIRCLE('',#147,40.1);
#50=CIRCLE('',#149,41.);
#51=CIRCLE('',#150,41.);
#52=CIRCLE('',#152,40.25);
#53=CIRCLE('',#153,40.25);
#54=CIRCLE('',#155,38.5);
#55=CIRCLE('',#156,38.5);
#56=VERTEX_POINT('',#201);
#57=VERTEX_POINT('',#202);
#58=VERTEX_POINT('',#204);
#59=VERTEX_POINT('',#206);
#60=VERTEX_POINT('',#211);
#61=VERTEX_POINT('',#212);
#62=VERTEX_POINT('',#216);
#63=VERTEX_POINT('',#217);
#64=VERTEX_POINT('',#222);
#65=VERTEX_POINT('',#223);
#66=VERTEX_POINT('',#227);
#67=VERTEX_POINT('',#229);
#68=EDGE_CURVE('',#56,#57,#44,.T.);
#69=EDGE_CURVE('',#57,#58,#38,.T.);
#70=EDGE_CURVE('',#59,#58,#45,.T.);
#71=EDGE_CURVE('',#58,#59,#46,.T.);
#72=EDGE_CURVE('',#57,#56,#47,.T.);
#73=EDGE_CURVE('',#60,#61,#48,.T.);
#74=EDGE_CURVE('',#61,#60,#49,.T.);
#75=EDGE_CURVE('',#62,#63,#50,.T.);
#76=EDGE_CURVE('',#63,#62,#51,.T.);
#77=EDGE_CURVE('',#63,#61,#39,.T.);
#78=EDGE_CURVE('',#64,#65,#52,.T.);
#79=EDGE_CURVE('',#65,#64,#53,.T.);
#80=EDGE_CURVE('',#65,#66,#40,.T.);
#81=EDGE_CURVE('',#67,#66,#54,.T.);
#82=EDGE_CURVE('',#66,#67,#55,.T.);
#83=ORIENTED_EDGE('',*,*,#68,.T.);
#84=ORIENTED_EDGE('',*,*,#69,.T.);
#85=ORIENTED_EDGE('',*,*,#70,.F.);
#86=ORIENTED_EDGE('',*,*,#71,.F.);
#87=ORIENTED_EDGE('',*,*,#69,.F.);
#88=ORIENTED_EDGE('',*,*,#72,.T.);
#89=ORIENTED_EDGE('',*,*,#73,.F.);
#90=ORIENTED_EDGE('',*,*,#74,.F.);
#91=ORIENTED_EDGE('',*,*,#70,.T.);
#92=ORIENTED_EDGE('',*,*,#71,.T.);
#93=ORIENTED_EDGE('',*,*,#75,.F.);
#94=ORIENTED_EDGE('',*,*,#76,.F.);
#95=ORIENTED_EDGE('',*,*,#77,.T.);
#96=ORIENTED_EDGE('',*,*,#74,.T.);
#97=ORIENTED_EDGE('',*,*,#73,.T.);
#98=ORIENTED_EDGE('',*,*,#77,.F.);
#99=ORIENTED_EDGE('',*,*,#75,.T.);
#100=ORIENTED_EDGE('',*,*,#76,.T.);
#101=ORIENTED_EDGE('',*,*,#78,.F.);
#102=ORIENTED_EDGE('',*,*,#79,.F.);
#103=ORIENTED_EDGE('',*,*,#78,.T.);
#104=ORIENTED_EDGE('',*,*,#80,.T.);
#105=ORIENTED_EDGE('',*,*,#81,.F.);
#106=ORIENTED_EDGE('',*,*,#82,.F.);
#107=ORIENTED_EDGE('',*,*,#80,.F.);
#108=ORIENTED_EDGE('',*,*,#79,.T.);
#109=ORIENTED_EDGE('',*,*,#81,.T.);
#110=ORIENTED_EDGE('',*,*,#82,.T.);
#111=ORIENTED_EDGE('',*,*,#68,.F.);
#112=ORIENTED_EDGE('',*,*,#72,.F.);
#113=CYLINDRICAL_SURFACE('',#140,35.35);
#114=ADVANCED_FACE('',(#23),#113,.F.);
#115=ADVANCED_FACE('',(#24,#17),#20,.T.);
#116=ADVANCED_FACE('',(#25),#15,.T.);
#117=ADVANCED_FACE('',(#26,#18),#21,.T.);
#118=ADVANCED_FACE('',(#27),#16,.F.);
#119=ADVANCED_FACE('',(#28,#19),#22,.T.);
#120=CLOSED_SHELL('',(#114,#115,#116,#117,#118,#119));
#121=DERIVED_UNIT_ELEMENT(#123,1.);
#122=DERIVED_UNIT_ELEMENT(#238,3.);
#123=(
MASS_UNIT()
NAMED_UNIT(*)
SI_UNIT($,.GRAM.)
);
#124=DERIVED_UNIT((#121,#122));
#125=MEASURE_REPRESENTATION_ITEM('density measure',
POSITIVE_RATIO_MEASURE(0.93),#124);
#126=PROPERTY_DEFINITION_REPRESENTATION(#131,#128);
#127=PROPERTY_DEFINITION_REPRESENTATION(#132,#129);
#128=REPRESENTATION('material name',(#130),#235);
#129=REPRESENTATION('density',(#125),#235);
#130=DESCRIPTIVE_REPRESENTATION_ITEM('Rubber, Black','Rubber, Black');
#131=PROPERTY_DEFINITION('material property','material name',#245);
#132=PROPERTY_DEFINITION('material property','density of part',#245);
#133=DATE_TIME_ROLE('creation_date');
#134=APPLIED_DATE_AND_TIME_ASSIGNMENT(#135,#133,(#245));
#135=DATE_AND_TIME(#136,#137);
#136=CALENDAR_DATE(2019,18,4);
#137=LOCAL_TIME(14,36,47.,#138);
#138=COORDINATED_UNIVERSAL_TIME_OFFSET(0,0,.BEHIND.);
#139=AXIS2_PLACEMENT_3D('placement',#199,#158,#159);
#140=AXIS2_PLACEMENT_3D('',#200,#160,#161);
#141=AXIS2_PLACEMENT_3D('',#203,#162,#163);
#142=AXIS2_PLACEMENT_3D('',#207,#165,#166);
#143=AXIS2_PLACEMENT_3D('',#208,#167,#168);
#144=AXIS2_PLACEMENT_3D('',#209,#169,#170);
#145=AXIS2_PLACEMENT_3D('',#210,#171,#172);
#146=AXIS2_PLACEMENT_3D('',#213,#173,#174);
#147=AXIS2_PLACEMENT_3D('',#214,#175,#176);
#148=AXIS2_PLACEMENT_3D('',#215,#177,#178);
#149=AXIS2_PLACEMENT_3D('',#218,#179,#180);
#150=AXIS2_PLACEMENT_3D('',#219,#181,#182);
#151=AXIS2_PLACEMENT_3D('',#221,#184,#185);
#152=AXIS2_PLACEMENT_3D('',#224,#186,#187);
#153=AXIS2_PLACEMENT_3D('',#225,#188,#189);
#154=AXIS2_PLACEMENT_3D('',#226,#190,#191);
#155=AXIS2_PLACEMENT_3D('',#230,#193,#194);
#156=AXIS2_PLACEMENT_3D('',#231,#195,#196);
#157=AXIS2_PLACEMENT_3D('',#232,#197,#198);
#158=DIRECTION('axis',(0.,0.,1.));
#159=DIRECTION('refdir',(1.,0.,0.));
#160=DIRECTION('center_axis',(0.,1.,0.));
#161=DIRECTION('ref_axis',(-1.,0.,0.));
#162=DIRECTION('center_axis',(0.,1.,0.));
#163=DIRECTION('ref_axis',(1.,0.,0.));
#164=DIRECTION('',(0.,-1.,0.));
#165=DIRECTION('center_axis',(0.,1.,0.));
#166=DIRECTION('ref_axis',(1.,0.,0.));
#167=DIRECTION('center_axis',(0.,1.,0.));
#168=DIRECTION('ref_axis',(1.,0.,0.));
#169=DIRECTION('center_axis',(0.,1.,0.));
#170=DIRECTION('ref_axis',(1.,0.,0.));
#171=DIRECTION('center_axis',(0.,-1.,0.));
#172=DIRECTION('ref_axis',(0.,0.,-1.));
#173=DIRECTION('center_axis',(0.,1.,0.));
#174=DIRECTION('ref_axis',(1.,0.,0.));
#175=DIRECTION('center_axis',(0.,1.,0.));
#176=DIRECTION('ref_axis',(1.,0.,0.));
#177=DIRECTION('center_axis',(0.,1.,0.));
#178=DIRECTION('ref_axis',(-1.,0.,0.));
#179=DIRECTION('center_axis',(0.,1.,0.));
#180=DIRECTION('ref_axis',(1.,0.,0.));
#181=DIRECTION('center_axis',(0.,1.,0.));
#182=DIRECTION('ref_axis',(1.,0.,0.));
#183=DIRECTION('',(-0.287347885566345,-0.957826285221152,3.51899668300584E-17));
#184=DIRECTION('center_axis',(0.,1.,0.));
#185=DIRECTION('ref_axis',(0.,0.,1.));
#186=DIRECTION('center_axis',(0.,1.,0.));
#187=DIRECTION('ref_axis',(1.,0.,0.));
#188=DIRECTION('center_axis',(0.,1.,0.));
#189=DIRECTION('ref_axis',(1.,0.,0.));
#190=DIRECTION('center_axis',(0.,1.,0.));
#191=DIRECTION('ref_axis',(-1.,0.,0.));
#192=DIRECTION('',(-0.889287802318147,-0.457348012620763,1.0890634606297E-16));
#193=DIRECTION('center_axis',(0.,1.,0.));
#194=DIRECTION('ref_axis',(1.,0.,0.));
#195=DIRECTION('center_axis',(0.,1.,0.));
#196=DIRECTION('ref_axis',(1.,0.,0.));
#197=DIRECTION('center_axis',(0.,1.,0.));
#198=DIRECTION('ref_axis',(0.,0.,1.));
#199=CARTESIAN_POINT('',(0.,0.,0.));
#200=CARTESIAN_POINT('Origin',(0.,1.05,0.));
#201=CARTESIAN_POINT('',(-35.35,2.1,0.));
#202=CARTESIAN_POINT('',(35.35,2.1,-4.32912643498589E-15));
#203=CARTESIAN_POINT('Origin',(0.,2.1,0.));
#204=CARTESIAN_POINT('',(35.35,-1.66533453693773E-15,-4.32912643498589E-15));
#205=CARTESIAN_POINT('',(35.35,1.05,-4.32912643498589E-15));
#206=CARTESIAN_POINT('',(-35.35,-1.75430653977858E-15,0.));
#207=CARTESIAN_POINT('Origin',(0.,-1.66533453693773E-15,0.));
#208=CARTESIAN_POINT('Origin',(0.,-1.66533453693773E-15,0.));
#209=CARTESIAN_POINT('Origin',(0.,2.1,0.));
#210=CARTESIAN_POINT('Origin',(-40.1,-2.33601376937358E-15,0.));
#211=CARTESIAN_POINT('',(-40.1,-2.33601376937358E-15,0.));
#212=CARTESIAN_POINT('',(40.1,-3.05311331771918E-15,-4.91083366458089E-15));
#213=CARTESIAN_POINT('Origin',(0.,-2.22044604925031E-15,0.));
#214=CARTESIAN_POINT('Origin',(0.,-2.22044604925031E-15,0.));
#215=CARTESIAN_POINT('Origin',(0.,1.5,0.));
#216=CARTESIAN_POINT('',(-41.,3.,0.));
#217=CARTESIAN_POINT('',(41.,3.,-5.02105187650415E-15));
#218=CARTESIAN_POINT('Origin',(0.,3.,0.));
#219=CARTESIAN_POINT('Origin',(0.,3.,0.));
#220=CARTESIAN_POINT('',(40.55,1.5,-4.96594277054252E-15));
#221=CARTESIAN_POINT('Origin',(-40.25,3.,0.));
#222=CARTESIAN_POINT('',(-40.25,3.,0.));
#223=CARTESIAN_POINT('',(40.25,3.,-4.9292033665681E-15));
#224=CARTESIAN_POINT('Origin',(0.,3.,0.));
#225=CARTESIAN_POINT('Origin',(0.,3.,0.));
#226=CARTESIAN_POINT('Origin',(0.,2.55,0.));
#227=CARTESIAN_POINT('',(38.5,2.1,-4.71489017671731E-15));
#228=CARTESIAN_POINT('',(39.375,2.55,-4.8220467716427E-15));
#229=CARTESIAN_POINT('',(-38.5,2.1,0.));
#230=CARTESIAN_POINT('Origin',(0.,2.1,0.));
#231=CARTESIAN_POINT('Origin',(0.,2.1,0.));
#232=CARTESIAN_POINT('Origin',(-35.35,2.1,0.));
#233=UNCERTAINTY_MEASURE_WITH_UNIT(LENGTH_MEASURE(0.01),#237,
'DISTANCE_ACCURACY_VALUE',
'Maximum model space distance between geometric entities at asserted c
onnectivities');
#234=UNCERTAINTY_MEASURE_WITH_UNIT(LENGTH_MEASURE(0.01),#237,
'DISTANCE_ACCURACY_VALUE',
'Maximum model space distance between geometric entities at asserted c
onnectivities');
#235=(
GEOMETRIC_REPRESENTATION_CONTEXT(3)
GLOBAL_UNCERTAINTY_ASSIGNED_CONTEXT((#233))
GLOBAL_UNIT_ASSIGNED_CONTEXT((#237,#239,#240))
REPRESENTATION_CONTEXT('','3D')
);
#236=(
GEOMETRIC_REPRESENTATION_CONTEXT(3)
GLOBAL_UNCERTAINTY_ASSIGNED_CONTEXT((#234))
GLOBAL_UNIT_ASSIGNED_CONTEXT((#237,#239,#240))
REPRESENTATION_CONTEXT('','3D')
);
#237=(
LENGTH_UNIT()
NAMED_UNIT(*)
SI_UNIT(.MILLI.,.METRE.)
);
#238=(
LENGTH_UNIT()
NAMED_UNIT(*)
SI_UNIT(.CENTI.,.METRE.)
);
#239=(
NAMED_UNIT(*)
PLANE_ANGLE_UNIT()
SI_UNIT($,.RADIAN.)
);
#240=(
NAMED_UNIT(*)
SI_UNIT($,.STERADIAN.)
SOLID_ANGLE_UNIT()
);
#241=SHAPE_DEFINITION_REPRESENTATION(#242,#243);
#242=PRODUCT_DEFINITION_SHAPE('',$,#245);
#243=SHAPE_REPRESENTATION('',(#139),#235);
#244=PRODUCT_DEFINITION_CONTEXT('part definition',#249,'design');
#245=PRODUCT_DEFINITION('VGW63','VGW63',#246,#244);
#246=PRODUCT_DEFINITION_FORMATION('',$,#251);
#247=PRODUCT_RELATED_PRODUCT_CATEGORY('VGW63','VGW63',(#251));
#248=APPLICATION_PROTOCOL_DEFINITION('international standard',
'automotive_design',2009,#249);
#249=APPLICATION_CONTEXT(
'Core Data for Automotive Mechanical Design Process');
#250=PRODUCT_CONTEXT('part definition',#249,'mechanical');
#251=PRODUCT('VGW63','VGW63',$,(#250));
#252=PRESENTATION_STYLE_ASSIGNMENT((#253));
#253=SURFACE_STYLE_USAGE(.BOTH.,#256);
#254=SURFACE_STYLE_RENDERING_WITH_PROPERTIES($,#260,(#255));
#255=SURFACE_STYLE_TRANSPARENT(0.);
#256=SURFACE_SIDE_STYLE('',(#257,#254));
#257=SURFACE_STYLE_FILL_AREA(#258);
#258=FILL_AREA_STYLE('',(#259));
#259=FILL_AREA_STYLE_COLOUR('',#260);
#260=COLOUR_RGB('',0.250980392156863,0.250980392156863,0.250980392156863);
ENDSEC;
END-ISO-10303-21;
