ISO-10303-21;
HEADER;
/* Generated by software containing ST-Developer
 * from STEP Tools, Inc. (www.steptools.com) 
 */

FILE_DESCRIPTION(
/* description */ (''),
/* implementation_level */ '2;1');

FILE_NAME(
/* name */ 'G:\\FLANGES & FITTINGS\\Gaskets\\Step files\\VGW100.stp',
/* time_stamp */ '2019-04-18T15:56:46+01:00',
/* author */ ('paul'),
/* organization */ (''),
/* preprocessor_version */ 'ST-DEVELOPER v18',
/* originating_system */ 'Autodesk Inventor 2020',
/* authorisation */ '');

FILE_SCHEMA (('AUTOMOTIVE_DESIGN { 1 0 10303 214 3 1 1 }'));
ENDSEC;

DATA;
#10=MECHANICAL_DESIGN_GEOMETRIC_PRESENTATION_REPRESENTATION('',(#13),#236);
#11=SHAPE_REPRESENTATION_RELATIONSHIP('SRR','None',#243,#12);
#12=ADVANCED_BREP_SHAPE_REPRESENTATION('',(#14),#235);
#13=STYLED_ITEM('',(#252),#14);
#14=MANIFOLD_SOLID_BREP('Solid1',#120);
#15=CYLINDRICAL_SURFACE('',#151,54.4);
#16=LINE('',#211,#19);
#17=LINE('',#222,#20);
#18=LINE('',#232,#21);
#19=VECTOR('',#172,58.875);
#20=VECTOR('',#185,54.4);
#21=VECTOR('',#198,60.05);
#22=CONICAL_SURFACE('',#145,58.875,1.0957855705298);
#23=CONICAL_SURFACE('',#157,60.05,0.291456794477866);
#24=FACE_BOUND('',#34,.T.);
#25=FACE_BOUND('',#37,.T.);
#26=FACE_BOUND('',#40,.T.);
#27=FACE_OUTER_BOUND('',#33,.T.);
#28=FACE_OUTER_BOUND('',#35,.T.);
#29=FACE_OUTER_BOUND('',#36,.T.);
#30=FACE_OUTER_BOUND('',#38,.T.);
#31=FACE_OUTER_BOUND('',#39,.T.);
#32=FACE_OUTER_BOUND('',#41,.T.);
#33=EDGE_LOOP('',(#81,#82));
#34=EDGE_LOOP('',(#83,#84));
#35=EDGE_LOOP('',(#85,#86,#87,#88,#89,#90));
#36=EDGE_LOOP('',(#91,#92));
#37=EDGE_LOOP('',(#93,#94));
#38=EDGE_LOOP('',(#95,#96,#97,#98,#99,#100));
#39=EDGE_LOOP('',(#101,#102));
#40=EDGE_LOOP('',(#103,#104));
#41=EDGE_LOOP('',(#105,#106,#107,#108,#109,#110));
#42=CIRCLE('',#141,60.5);
#43=CIRCLE('',#142,60.5);
#44=CIRCLE('',#143,59.75);
#45=CIRCLE('',#144,59.75);
#46=CIRCLE('',#146,58.);
#47=CIRCLE('',#147,58.);
#48=CIRCLE('',#149,54.4);
#49=CIRCLE('',#150,54.4);
#50=CIRCLE('',#152,54.4);
#51=CIRCLE('',#153,54.4);
#52=CIRCLE('',#155,59.6);
#53=CIRCLE('',#156,59.6);
#54=VERTEX_POINT('',#201);
#55=VERTEX_POINT('',#202);
#56=VERTEX_POINT('',#205);
#57=VERTEX_POINT('',#206);
#58=VERTEX_POINT('',#210);
#59=VERTEX_POINT('',#212);
#60=VERTEX_POINT('',#216);
#61=VERTEX_POINT('',#217);
#62=VERTEX_POINT('',#221);
#63=VERTEX_POINT('',#223);
#64=VERTEX_POINT('',#227);
#65=VERTEX_POINT('',#228);
#66=EDGE_CURVE('',#54,#55,#42,.T.);
#67=EDGE_CURVE('',#55,#54,#43,.T.);
#68=EDGE_CURVE('',#56,#57,#44,.T.);
#69=EDGE_CURVE('',#57,#56,#45,.T.);
#70=EDGE_CURVE('',#57,#58,#16,.T.);
#71=EDGE_CURVE('',#59,#58,#46,.T.);
#72=EDGE_CURVE('',#58,#59,#47,.T.);
#73=EDGE_CURVE('',#60,#61,#48,.T.);
#74=EDGE_CURVE('',#61,#60,#49,.T.);
#75=EDGE_CURVE('',#61,#62,#17,.T.);
#76=EDGE_CURVE('',#63,#62,#50,.T.);
#77=EDGE_CURVE('',#62,#63,#51,.T.);
#78=EDGE_CURVE('',#64,#65,#52,.T.);
#79=EDGE_CURVE('',#65,#64,#53,.T.);
#80=EDGE_CURVE('',#55,#65,#18,.T.);
#81=ORIENTED_EDGE('',*,*,#66,.T.);
#82=ORIENTED_EDGE('',*,*,#67,.T.);
#83=ORIENTED_EDGE('',*,*,#68,.F.);
#84=ORIENTED_EDGE('',*,*,#69,.F.);
#85=ORIENTED_EDGE('',*,*,#68,.T.);
#86=ORIENTED_EDGE('',*,*,#70,.T.);
#87=ORIENTED_EDGE('',*,*,#71,.F.);
#88=ORIENTED_EDGE('',*,*,#72,.F.);
#89=ORIENTED_EDGE('',*,*,#70,.F.);
#90=ORIENTED_EDGE('',*,*,#69,.T.);
#91=ORIENTED_EDGE('',*,*,#71,.T.);
#92=ORIENTED_EDGE('',*,*,#72,.T.);
#93=ORIENTED_EDGE('',*,*,#73,.F.);
#94=ORIENTED_EDGE('',*,*,#74,.F.);
#95=ORIENTED_EDGE('',*,*,#73,.T.);
#96=ORIENTED_EDGE('',*,*,#75,.T.);
#97=ORIENTED_EDGE('',*,*,#76,.F.);
#98=ORIENTED_EDGE('',*,*,#77,.F.);
#99=ORIENTED_EDGE('',*,*,#75,.F.);
#100=ORIENTED_EDGE('',*,*,#74,.T.);
#101=ORIENTED_EDGE('',*,*,#78,.F.);
#102=ORIENTED_EDGE('',*,*,#79,.F.);
#103=ORIENTED_EDGE('',*,*,#76,.T.);
#104=ORIENTED_EDGE('',*,*,#77,.T.);
#105=ORIENTED_EDGE('',*,*,#66,.F.);
#106=ORIENTED_EDGE('',*,*,#67,.F.);
#107=ORIENTED_EDGE('',*,*,#80,.T.);
#108=ORIENTED_EDGE('',*,*,#79,.T.);
#109=ORIENTED_EDGE('',*,*,#78,.T.);
#110=ORIENTED_EDGE('',*,*,#80,.F.);
#111=PLANE('',#140);
#112=PLANE('',#148);
#113=PLANE('',#154);
#114=ADVANCED_FACE('',(#27,#24),#111,.T.);
#115=ADVANCED_FACE('',(#28),#22,.F.);
#116=ADVANCED_FACE('',(#29,#25),#112,.T.);
#117=ADVANCED_FACE('',(#30),#15,.F.);
#118=ADVANCED_FACE('',(#31,#26),#113,.T.);
#119=ADVANCED_FACE('',(#32),#23,.T.);
#120=CLOSED_SHELL('',(#114,#115,#116,#117,#118,#119));
#121=DERIVED_UNIT_ELEMENT(#123,1.);
#122=DERIVED_UNIT_ELEMENT(#238,3.);
#123=(
MASS_UNIT()
NAMED_UNIT(*)
SI_UNIT($,.GRAM.)
);
#124=DERIVED_UNIT((#121,#122));
#125=MEASURE_REPRESENTATION_ITEM('density measure',
POSITIVE_RATIO_MEASURE(0.93),#124);
#126=PROPERTY_DEFINITION_REPRESENTATION(#131,#128);
#127=PROPERTY_DEFINITION_REPRESENTATION(#132,#129);
#128=REPRESENTATION('material name',(#130),#235);
#129=REPRESENTATION('density',(#125),#235);
#130=DESCRIPTIVE_REPRESENTATION_ITEM('Rubber, Black','Rubber, Black');
#131=PROPERTY_DEFINITION('material property','material name',#245);
#132=PROPERTY_DEFINITION('material property','density of part',#245);
#133=DATE_TIME_ROLE('creation_date');
#134=APPLIED_DATE_AND_TIME_ASSIGNMENT(#135,#133,(#245));
#135=DATE_AND_TIME(#136,#137);
#136=CALENDAR_DATE(2019,18,4);
#137=LOCAL_TIME(14,36,47.,#138);
#138=COORDINATED_UNIVERSAL_TIME_OFFSET(0,0,.BEHIND.);
#139=AXIS2_PLACEMENT_3D('placement',#199,#158,#159);
#140=AXIS2_PLACEMENT_3D('',#200,#160,#161);
#141=AXIS2_PLACEMENT_3D('',#203,#162,#163);
#142=AXIS2_PLACEMENT_3D('',#204,#164,#165);
#143=AXIS2_PLACEMENT_3D('',#207,#166,#167);
#144=AXIS2_PLACEMENT_3D('',#208,#168,#169);
#145=AXIS2_PLACEMENT_3D('',#209,#170,#171);
#146=AXIS2_PLACEMENT_3D('',#213,#173,#174);
#147=AXIS2_PLACEMENT_3D('',#214,#175,#176);
#148=AXIS2_PLACEMENT_3D('',#215,#177,#178);
#149=AXIS2_PLACEMENT_3D('',#218,#179,#180);
#150=AXIS2_PLACEMENT_3D('',#219,#181,#182);
#151=AXIS2_PLACEMENT_3D('',#220,#183,#184);
#152=AXIS2_PLACEMENT_3D('',#224,#186,#187);
#153=AXIS2_PLACEMENT_3D('',#225,#188,#189);
#154=AXIS2_PLACEMENT_3D('',#226,#190,#191);
#155=AXIS2_PLACEMENT_3D('',#229,#192,#193);
#156=AXIS2_PLACEMENT_3D('',#230,#194,#195);
#157=AXIS2_PLACEMENT_3D('',#231,#196,#197);
#158=DIRECTION('axis',(0.,0.,1.));
#159=DIRECTION('refdir',(1.,0.,0.));
#160=DIRECTION('center_axis',(0.,1.,0.));
#161=DIRECTION('ref_axis',(0.,0.,1.));
#162=DIRECTION('center_axis',(0.,1.,0.));
#163=DIRECTION('ref_axis',(1.,0.,0.));
#164=DIRECTION('center_axis',(0.,1.,0.));
#165=DIRECTION('ref_axis',(1.,0.,0.));
#166=DIRECTION('center_axis',(0.,1.,0.));
#167=DIRECTION('ref_axis',(1.,0.,0.));
#168=DIRECTION('center_axis',(0.,1.,0.));
#169=DIRECTION('ref_axis',(1.,0.,0.));
#170=DIRECTION('center_axis',(0.,1.,0.));
#171=DIRECTION('ref_axis',(-1.,0.,0.));
#172=DIRECTION('',(-0.889287802318146,-0.457348012620764,1.0890634606297E-16));
#173=DIRECTION('center_axis',(0.,1.,0.));
#174=DIRECTION('ref_axis',(1.,0.,0.));
#175=DIRECTION('center_axis',(0.,1.,0.));
#176=DIRECTION('ref_axis',(1.,0.,0.));
#177=DIRECTION('center_axis',(0.,1.,0.));
#178=DIRECTION('ref_axis',(0.,0.,1.));
#179=DIRECTION('center_axis',(0.,1.,0.));
#180=DIRECTION('ref_axis',(1.,0.,0.));
#181=DIRECTION('center_axis',(0.,1.,0.));
#182=DIRECTION('ref_axis',(1.,0.,0.));
#183=DIRECTION('center_axis',(0.,1.,0.));
#184=DIRECTION('ref_axis',(-1.,0.,0.));
#185=DIRECTION('',(0.,-1.,0.));
#186=DIRECTION('center_axis',(0.,1.,0.));
#187=DIRECTION('ref_axis',(1.,0.,0.));
#188=DIRECTION('center_axis',(0.,1.,0.));
#189=DIRECTION('ref_axis',(1.,0.,0.));
#190=DIRECTION('center_axis',(0.,-1.,0.));
#191=DIRECTION('ref_axis',(0.,0.,-1.));
#192=DIRECTION('center_axis',(0.,1.,0.));
#193=DIRECTION('ref_axis',(1.,0.,0.));
#194=DIRECTION('center_axis',(0.,1.,0.));
#195=DIRECTION('ref_axis',(1.,0.,0.));
#196=DIRECTION('center_axis',(0.,1.,0.));
#197=DIRECTION('ref_axis',(-1.,0.,0.));
#198=DIRECTION('',(-0.287347885566345,-0.957826285221152,3.51899668300584E-17));
#199=CARTESIAN_POINT('',(0.,0.,0.));
#200=CARTESIAN_POINT('Origin',(-59.75,3.,0.));
#201=CARTESIAN_POINT('',(-60.5,3.,0.));
#202=CARTESIAN_POINT('',(60.5,3.,-7.40911313484149E-15));
#203=CARTESIAN_POINT('Origin',(0.,3.,0.));
#204=CARTESIAN_POINT('Origin',(0.,3.,0.));
#205=CARTESIAN_POINT('',(-59.75,3.,0.));
#206=CARTESIAN_POINT('',(59.75,3.,-7.31726462490544E-15));
#207=CARTESIAN_POINT('Origin',(0.,3.,0.));
#208=CARTESIAN_POINT('Origin',(0.,3.,0.));
#209=CARTESIAN_POINT('Origin',(0.,2.55,0.));
#210=CARTESIAN_POINT('',(58.,2.09999999999999,-7.10295143505465E-15));
#211=CARTESIAN_POINT('',(58.875,2.55,-7.21010802998004E-15));
#212=CARTESIAN_POINT('',(-58.,2.1,0.));
#213=CARTESIAN_POINT('Origin',(0.,2.1,0.));
#214=CARTESIAN_POINT('Origin',(0.,2.1,0.));
#215=CARTESIAN_POINT('Origin',(-54.4,2.1,0.));
#216=CARTESIAN_POINT('',(-54.4,2.1,0.));
#217=CARTESIAN_POINT('',(54.4,2.1,-6.6620785873616E-15));
#218=CARTESIAN_POINT('Origin',(0.,2.1,0.));
#219=CARTESIAN_POINT('Origin',(0.,2.1,0.));
#220=CARTESIAN_POINT('Origin',(0.,1.05,0.));
#221=CARTESIAN_POINT('',(54.4,-4.16333634234434E-15,-6.6620785873616E-15));
#222=CARTESIAN_POINT('',(54.4,1.05,-6.6620785873616E-15));
#223=CARTESIAN_POINT('',(-54.4,-4.08725869215429E-15,0.));
#224=CARTESIAN_POINT('Origin',(0.,-4.16333634234434E-15,0.));
#225=CARTESIAN_POINT('Origin',(0.,-4.16333634234434E-15,0.));
#226=CARTESIAN_POINT('Origin',(-59.6,-4.72407502771091E-15,0.));
#227=CARTESIAN_POINT('',(-59.6,-4.72407502771091E-15,0.));
#228=CARTESIAN_POINT('',(59.6,-5.82867087928207E-15,-7.29889492291822E-15));
#229=CARTESIAN_POINT('Origin',(0.,-4.71844785465692E-15,0.));
#230=CARTESIAN_POINT('Origin',(0.,-4.71844785465692E-15,0.));
#231=CARTESIAN_POINT('Origin',(0.,1.5,0.));
#232=CARTESIAN_POINT('',(60.05,1.5,-7.35400402887986E-15));
#233=UNCERTAINTY_MEASURE_WITH_UNIT(LENGTH_MEASURE(0.01),#237,
'DISTANCE_ACCURACY_VALUE',
'Maximum model space distance between geometric entities at asserted c
onnectivities');
#234=UNCERTAINTY_MEASURE_WITH_UNIT(LENGTH_MEASURE(0.01),#237,
'DISTANCE_ACCURACY_VALUE',
'Maximum model space distance between geometric entities at asserted c
onnectivities');
#235=(
GEOMETRIC_REPRESENTATION_CONTEXT(3)
GLOBAL_UNCERTAINTY_ASSIGNED_CONTEXT((#233))
GLOBAL_UNIT_ASSIGNED_CONTEXT((#237,#239,#240))
REPRESENTATION_CONTEXT('','3D')
);
#236=(
GEOMETRIC_REPRESENTATION_CONTEXT(3)
GLOBAL_UNCERTAINTY_ASSIGNED_CONTEXT((#234))
GLOBAL_UNIT_ASSIGNED_CONTEXT((#237,#239,#240))
REPRESENTATION_CONTEXT('','3D')
);
#237=(
LENGTH_UNIT()
NAMED_UNIT(*)
SI_UNIT(.MILLI.,.METRE.)
);
#238=(
LENGTH_UNIT()
NAMED_UNIT(*)
SI_UNIT(.CENTI.,.METRE.)
);
#239=(
NAMED_UNIT(*)
PLANE_ANGLE_UNIT()
SI_UNIT($,.RADIAN.)
);
#240=(
NAMED_UNIT(*)
SI_UNIT($,.STERADIAN.)
SOLID_ANGLE_UNIT()
);
#241=SHAPE_DEFINITION_REPRESENTATION(#242,#243);
#242=PRODUCT_DEFINITION_SHAPE('',$,#245);
#243=SHAPE_REPRESENTATION('',(#139),#235);
#244=PRODUCT_DEFINITION_CONTEXT('part definition',#249,'design');
#245=PRODUCT_DEFINITION('VGW100','VGW100',#246,#244);
#246=PRODUCT_DEFINITION_FORMATION('',$,#251);
#247=PRODUCT_RELATED_PRODUCT_CATEGORY('VGW100','VGW100',(#251));
#248=APPLICATION_PROTOCOL_DEFINITION('international standard',
'automotive_design',2009,#249);
#249=APPLICATION_CONTEXT(
'Core Data for Automotive Mechanical Design Process');
#250=PRODUCT_CONTEXT('part definition',#249,'mechanical');
#251=PRODUCT('VGW100','VGW100',$,(#250));
#252=PRESENTATION_STYLE_ASSIGNMENT((#253));
#253=SURFACE_STYLE_USAGE(.BOTH.,#256);
#254=SURFACE_STYLE_RENDERING_WITH_PROPERTIES($,#260,(#255));
#255=SURFACE_STYLE_TRANSPARENT(0.);
#256=SURFACE_SIDE_STYLE('',(#257,#254));
#257=SURFACE_STYLE_FILL_AREA(#258);
#258=FILL_AREA_STYLE('',(#259));
#259=FILL_AREA_STYLE_COLOUR('',#260);
#260=COLOUR_RGB('',0.250980392156863,0.250980392156863,0.250980392156863);
ENDSEC;
END-ISO-10303-21;
