ISO-10303-21;
HEADER;
/* Generated by software containing ST-Developer
 * from STEP Tools, Inc. (www.steptools.com) 
 */

FILE_DESCRIPTION(
/* description */ (''),
/* implementation_level */ '2;1');

FILE_NAME(
/* name */ 'G:\\Flanges + FITTINGS\\DN63CF\\Step files\\PLNUT63.stp',
/* time_stamp */ '2018-01-12T14:57:52+00:00',
/* author */ ('paul'),
/* organization */ (''),
/* preprocessor_version */ 'ST-DEVELOPER v16.13',
/* originating_system */ 'Autodesk Inventor 2018',
/* authorisation */ '');

FILE_SCHEMA (('AUTOMOTIVE_DESIGN { 1 0 10303 214 3 1 1 }'));
ENDSEC;

DATA;
#10=MECHANICAL_DESIGN_GEOMETRIC_PRESENTATION_REPRESENTATION('',(#13),#603);
#11=SHAPE_REPRESENTATION_RELATIONSHIP('SRR','None',#610,#12);
#12=ADVANCED_BREP_SHAPE_REPRESENTATION('',(#14),#602);
#13=STYLED_ITEM('',(#619),#14);
#14=MANIFOLD_SOLID_BREP('Solid1',#329);
#15=CYLINDRICAL_SURFACE('',#356,3.3235);
#16=CYLINDRICAL_SURFACE('',#360,3.3235);
#17=CYLINDRICAL_SURFACE('',#365,5.35);
#18=CYLINDRICAL_SURFACE('',#378,5.35);
#19=CYLINDRICAL_SURFACE('',#389,0.2);
#20=CYLINDRICAL_SURFACE('',#394,0.2);
#21=CYLINDRICAL_SURFACE('',#396,6.35);
#22=CYLINDRICAL_SURFACE('',#397,6.35);
#23=LINE('',#520,#33);
#24=LINE('',#524,#34);
#25=LINE('',#550,#35);
#26=LINE('',#553,#36);
#27=LINE('',#585,#37);
#28=LINE('',#591,#38);
#29=LINE('',#593,#39);
#30=LINE('',#594,#40);
#31=LINE('',#596,#41);
#32=LINE('',#598,#42);
#33=VECTOR('',#409,10.);
#34=VECTOR('',#412,10.);
#35=VECTOR('',#443,10.);
#36=VECTOR('',#446,10.);
#37=VECTOR('',#489,10.);
#38=VECTOR('',#498,10.);
#39=VECTOR('',#501,10.);
#40=VECTOR('',#502,10.);
#41=VECTOR('',#505,10.);
#42=VECTOR('',#508,10.);
#43=PLANE('',#352);
#44=PLANE('',#367);
#45=PLANE('',#373);
#46=PLANE('',#382);
#47=PLANE('',#395);
#48=PLANE('',#398);
#49=FACE_BOUND('',#92,.T.);
#50=FACE_BOUND('',#94,.T.);
#51=FACE_BOUND('',#95,.T.);
#52=FACE_BOUND('',#97,.T.);
#53=FACE_BOUND('',#99,.T.);
#54=FACE_BOUND('',#101,.T.);
#55=FACE_BOUND('',#103,.T.);
#56=FACE_BOUND('',#105,.T.);
#57=FACE_BOUND('',#107,.T.);
#58=FACE_BOUND('',#108,.T.);
#59=FACE_BOUND('',#110,.T.);
#60=FACE_BOUND('',#112,.T.);
#61=FACE_BOUND('',#114,.T.);
#62=FACE_BOUND('',#116,.T.);
#63=FACE_BOUND('',#118,.T.);
#64=FACE_BOUND('',#120,.T.);
#65=FACE_BOUND('',#122,.T.);
#66=FACE_BOUND('',#124,.T.);
#67=FACE_OUTER_BOUND('',#91,.T.);
#68=FACE_OUTER_BOUND('',#93,.T.);
#69=FACE_OUTER_BOUND('',#96,.T.);
#70=FACE_OUTER_BOUND('',#98,.T.);
#71=FACE_OUTER_BOUND('',#100,.T.);
#72=FACE_OUTER_BOUND('',#102,.T.);
#73=FACE_OUTER_BOUND('',#104,.T.);
#74=FACE_OUTER_BOUND('',#106,.T.);
#75=FACE_OUTER_BOUND('',#109,.T.);
#76=FACE_OUTER_BOUND('',#111,.T.);
#77=FACE_OUTER_BOUND('',#113,.T.);
#78=FACE_OUTER_BOUND('',#115,.T.);
#79=FACE_OUTER_BOUND('',#117,.T.);
#80=FACE_OUTER_BOUND('',#119,.T.);
#81=FACE_OUTER_BOUND('',#121,.T.);
#82=FACE_OUTER_BOUND('',#123,.T.);
#83=FACE_OUTER_BOUND('',#125,.T.);
#84=FACE_OUTER_BOUND('',#126,.T.);
#85=FACE_OUTER_BOUND('',#127,.T.);
#86=FACE_OUTER_BOUND('',#128,.T.);
#87=FACE_OUTER_BOUND('',#129,.T.);
#88=FACE_OUTER_BOUND('',#130,.T.);
#89=FACE_OUTER_BOUND('',#131,.T.);
#90=FACE_OUTER_BOUND('',#132,.T.);
#91=EDGE_LOOP('',(#223));
#92=EDGE_LOOP('',(#224));
#93=EDGE_LOOP('',(#225,#226,#227,#228));
#94=EDGE_LOOP('',(#229));
#95=EDGE_LOOP('',(#230));
#96=EDGE_LOOP('',(#231));
#97=EDGE_LOOP('',(#232));
#98=EDGE_LOOP('',(#233));
#99=EDGE_LOOP('',(#234));
#100=EDGE_LOOP('',(#235));
#101=EDGE_LOOP('',(#236));
#102=EDGE_LOOP('',(#237));
#103=EDGE_LOOP('',(#238));
#104=EDGE_LOOP('',(#239));
#105=EDGE_LOOP('',(#240));
#106=EDGE_LOOP('',(#241,#242,#243,#244));
#107=EDGE_LOOP('',(#245));
#108=EDGE_LOOP('',(#246));
#109=EDGE_LOOP('',(#247));
#110=EDGE_LOOP('',(#248));
#111=EDGE_LOOP('',(#249));
#112=EDGE_LOOP('',(#250));
#113=EDGE_LOOP('',(#251));
#114=EDGE_LOOP('',(#252));
#115=EDGE_LOOP('',(#253));
#116=EDGE_LOOP('',(#254));
#117=EDGE_LOOP('',(#255));
#118=EDGE_LOOP('',(#256));
#119=EDGE_LOOP('',(#257));
#120=EDGE_LOOP('',(#258));
#121=EDGE_LOOP('',(#259));
#122=EDGE_LOOP('',(#260));
#123=EDGE_LOOP('',(#261));
#124=EDGE_LOOP('',(#262));
#125=EDGE_LOOP('',(#263,#264,#265,#266));
#126=EDGE_LOOP('',(#267,#268,#269,#270));
#127=EDGE_LOOP('',(#271,#272,#273,#274));
#128=EDGE_LOOP('',(#275,#276,#277,#278));
#129=EDGE_LOOP('',(#279,#280,#281,#282));
#130=EDGE_LOOP('',(#283,#284,#285,#286));
#131=EDGE_LOOP('',(#287,#288,#289,#290));
#132=EDGE_LOOP('',(#291,#292,#293,#294));
#133=CIRCLE('',#350,3.3235);
#134=CIRCLE('',#351,4.3235);
#135=CIRCLE('',#353,6.35);
#136=CIRCLE('',#354,6.35);
#137=CIRCLE('',#355,4.3235);
#138=CIRCLE('',#357,3.3235);
#139=CIRCLE('',#359,3.3235);
#140=CIRCLE('',#361,3.3235);
#141=CIRCLE('',#363,5.35);
#142=CIRCLE('',#364,5.85);
#143=CIRCLE('',#366,5.35);
#144=CIRCLE('',#368,6.15);
#145=CIRCLE('',#369,6.15);
#146=CIRCLE('',#370,5.85);
#147=CIRCLE('',#372,3.8235);
#148=CIRCLE('',#374,4.85);
#149=CIRCLE('',#377,5.35);
#150=CIRCLE('',#379,5.35);
#151=CIRCLE('',#381,4.85);
#152=CIRCLE('',#383,3.8235);
#153=CIRCLE('',#386,0.199999999999995);
#154=CIRCLE('',#387,0.2);
#155=CIRCLE('',#388,6.35);
#156=CIRCLE('',#390,0.2);
#157=CIRCLE('',#392,0.2);
#158=CIRCLE('',#393,6.35);
#159=VERTEX_POINT('',#513);
#160=VERTEX_POINT('',#515);
#161=VERTEX_POINT('',#518);
#162=VERTEX_POINT('',#519);
#163=VERTEX_POINT('',#521);
#164=VERTEX_POINT('',#523);
#165=VERTEX_POINT('',#526);
#166=VERTEX_POINT('',#529);
#167=VERTEX_POINT('',#532);
#168=VERTEX_POINT('',#535);
#169=VERTEX_POINT('',#538);
#170=VERTEX_POINT('',#540);
#171=VERTEX_POINT('',#543);
#172=VERTEX_POINT('',#546);
#173=VERTEX_POINT('',#547);
#174=VERTEX_POINT('',#549);
#175=VERTEX_POINT('',#551);
#176=VERTEX_POINT('',#554);
#177=VERTEX_POINT('',#557);
#178=VERTEX_POINT('',#560);
#179=VERTEX_POINT('',#564);
#180=VERTEX_POINT('',#567);
#181=VERTEX_POINT('',#570);
#182=VERTEX_POINT('',#573);
#183=VERTEX_POINT('',#577);
#184=VERTEX_POINT('',#579);
#185=VERTEX_POINT('',#583);
#186=VERTEX_POINT('',#587);
#187=EDGE_CURVE('',#159,#159,#133,.T.);
#188=EDGE_CURVE('',#160,#160,#134,.T.);
#189=EDGE_CURVE('',#161,#162,#23,.T.);
#190=EDGE_CURVE('',#162,#163,#135,.T.);
#191=EDGE_CURVE('',#163,#164,#24,.T.);
#192=EDGE_CURVE('',#164,#161,#136,.T.);
#193=EDGE_CURVE('',#165,#165,#137,.T.);
#194=EDGE_CURVE('',#166,#166,#138,.T.);
#195=EDGE_CURVE('',#167,#167,#139,.T.);
#196=EDGE_CURVE('',#168,#168,#140,.T.);
#197=EDGE_CURVE('',#169,#169,#141,.T.);
#198=EDGE_CURVE('',#170,#170,#142,.T.);
#199=EDGE_CURVE('',#171,#171,#143,.T.);
#200=EDGE_CURVE('',#172,#173,#144,.T.);
#201=EDGE_CURVE('',#174,#172,#25,.T.);
#202=EDGE_CURVE('',#175,#174,#145,.T.);
#203=EDGE_CURVE('',#173,#175,#26,.T.);
#204=EDGE_CURVE('',#176,#176,#146,.T.);
#205=EDGE_CURVE('',#177,#177,#147,.T.);
#206=EDGE_CURVE('',#178,#178,#148,.T.);
#207=EDGE_CURVE('',#179,#179,#149,.T.);
#208=EDGE_CURVE('',#180,#180,#150,.T.);
#209=EDGE_CURVE('',#181,#181,#151,.T.);
#210=EDGE_CURVE('',#182,#182,#152,.T.);
#211=EDGE_CURVE('',#183,#172,#153,.T.);
#212=EDGE_CURVE('',#173,#184,#154,.T.);
#213=EDGE_CURVE('',#184,#183,#155,.T.);
#214=EDGE_CURVE('',#175,#185,#156,.T.);
#215=EDGE_CURVE('',#185,#184,#27,.T.);
#216=EDGE_CURVE('',#174,#186,#157,.T.);
#217=EDGE_CURVE('',#186,#185,#158,.T.);
#218=EDGE_CURVE('',#183,#186,#28,.T.);
#219=EDGE_CURVE('',#183,#164,#29,.T.);
#220=EDGE_CURVE('',#186,#163,#30,.T.);
#221=EDGE_CURVE('',#184,#161,#31,.T.);
#222=EDGE_CURVE('',#185,#162,#32,.T.);
#223=ORIENTED_EDGE('',*,*,#187,.T.);
#224=ORIENTED_EDGE('',*,*,#188,.T.);
#225=ORIENTED_EDGE('',*,*,#189,.T.);
#226=ORIENTED_EDGE('',*,*,#190,.T.);
#227=ORIENTED_EDGE('',*,*,#191,.T.);
#228=ORIENTED_EDGE('',*,*,#192,.T.);
#229=ORIENTED_EDGE('',*,*,#193,.F.);
#230=ORIENTED_EDGE('',*,*,#188,.F.);
#231=ORIENTED_EDGE('',*,*,#194,.F.);
#232=ORIENTED_EDGE('',*,*,#187,.F.);
#233=ORIENTED_EDGE('',*,*,#195,.T.);
#234=ORIENTED_EDGE('',*,*,#193,.T.);
#235=ORIENTED_EDGE('',*,*,#196,.F.);
#236=ORIENTED_EDGE('',*,*,#195,.F.);
#237=ORIENTED_EDGE('',*,*,#197,.T.);
#238=ORIENTED_EDGE('',*,*,#198,.T.);
#239=ORIENTED_EDGE('',*,*,#199,.F.);
#240=ORIENTED_EDGE('',*,*,#197,.F.);
#241=ORIENTED_EDGE('',*,*,#200,.F.);
#242=ORIENTED_EDGE('',*,*,#201,.F.);
#243=ORIENTED_EDGE('',*,*,#202,.F.);
#244=ORIENTED_EDGE('',*,*,#203,.F.);
#245=ORIENTED_EDGE('',*,*,#204,.F.);
#246=ORIENTED_EDGE('',*,*,#198,.F.);
#247=ORIENTED_EDGE('',*,*,#194,.T.);
#248=ORIENTED_EDGE('',*,*,#205,.T.);
#249=ORIENTED_EDGE('',*,*,#206,.F.);
#250=ORIENTED_EDGE('',*,*,#205,.F.);
#251=ORIENTED_EDGE('',*,*,#199,.T.);
#252=ORIENTED_EDGE('',*,*,#206,.T.);
#253=ORIENTED_EDGE('',*,*,#207,.T.);
#254=ORIENTED_EDGE('',*,*,#204,.T.);
#255=ORIENTED_EDGE('',*,*,#208,.F.);
#256=ORIENTED_EDGE('',*,*,#207,.F.);
#257=ORIENTED_EDGE('',*,*,#208,.T.);
#258=ORIENTED_EDGE('',*,*,#209,.T.);
#259=ORIENTED_EDGE('',*,*,#209,.F.);
#260=ORIENTED_EDGE('',*,*,#210,.F.);
#261=ORIENTED_EDGE('',*,*,#196,.T.);
#262=ORIENTED_EDGE('',*,*,#210,.T.);
#263=ORIENTED_EDGE('',*,*,#211,.T.);
#264=ORIENTED_EDGE('',*,*,#200,.T.);
#265=ORIENTED_EDGE('',*,*,#212,.T.);
#266=ORIENTED_EDGE('',*,*,#213,.T.);
#267=ORIENTED_EDGE('',*,*,#214,.T.);
#268=ORIENTED_EDGE('',*,*,#215,.T.);
#269=ORIENTED_EDGE('',*,*,#212,.F.);
#270=ORIENTED_EDGE('',*,*,#203,.T.);
#271=ORIENTED_EDGE('',*,*,#216,.T.);
#272=ORIENTED_EDGE('',*,*,#217,.T.);
#273=ORIENTED_EDGE('',*,*,#214,.F.);
#274=ORIENTED_EDGE('',*,*,#202,.T.);
#275=ORIENTED_EDGE('',*,*,#211,.F.);
#276=ORIENTED_EDGE('',*,*,#218,.T.);
#277=ORIENTED_EDGE('',*,*,#216,.F.);
#278=ORIENTED_EDGE('',*,*,#201,.T.);
#279=ORIENTED_EDGE('',*,*,#218,.F.);
#280=ORIENTED_EDGE('',*,*,#219,.T.);
#281=ORIENTED_EDGE('',*,*,#191,.F.);
#282=ORIENTED_EDGE('',*,*,#220,.F.);
#283=ORIENTED_EDGE('',*,*,#213,.F.);
#284=ORIENTED_EDGE('',*,*,#221,.T.);
#285=ORIENTED_EDGE('',*,*,#192,.F.);
#286=ORIENTED_EDGE('',*,*,#219,.F.);
#287=ORIENTED_EDGE('',*,*,#217,.F.);
#288=ORIENTED_EDGE('',*,*,#220,.T.);
#289=ORIENTED_EDGE('',*,*,#190,.F.);
#290=ORIENTED_EDGE('',*,*,#222,.F.);
#291=ORIENTED_EDGE('',*,*,#215,.F.);
#292=ORIENTED_EDGE('',*,*,#222,.T.);
#293=ORIENTED_EDGE('',*,*,#189,.F.);
#294=ORIENTED_EDGE('',*,*,#221,.F.);
#295=TOROIDAL_SURFACE('',#349,4.3235,1.);
#296=TOROIDAL_SURFACE('',#358,4.3235,1.);
#297=TOROIDAL_SURFACE('',#362,5.85,0.5);
#298=TOROIDAL_SURFACE('',#371,3.8235,0.5);
#299=TOROIDAL_SURFACE('',#375,4.85,0.5);
#300=TOROIDAL_SURFACE('',#376,5.85,0.5);
#301=TOROIDAL_SURFACE('',#380,4.85,0.5);
#302=TOROIDAL_SURFACE('',#384,3.8235,0.5);
#303=TOROIDAL_SURFACE('',#385,6.15,0.2);
#304=TOROIDAL_SURFACE('',#391,6.15,0.2);
#305=ADVANCED_FACE('',(#67,#49),#295,.T.);
#306=ADVANCED_FACE('',(#68,#50,#51),#43,.T.);
#307=ADVANCED_FACE('',(#69,#52),#15,.F.);
#308=ADVANCED_FACE('',(#70,#53),#296,.T.);
#309=ADVANCED_FACE('',(#71,#54),#16,.F.);
#310=ADVANCED_FACE('',(#72,#55),#297,.F.);
#311=ADVANCED_FACE('',(#73,#56),#17,.T.);
#312=ADVANCED_FACE('',(#74,#57,#58),#44,.F.);
#313=ADVANCED_FACE('',(#75,#59),#298,.T.);
#314=ADVANCED_FACE('',(#76,#60),#45,.F.);
#315=ADVANCED_FACE('',(#77,#61),#299,.T.);
#316=ADVANCED_FACE('',(#78,#62),#300,.F.);
#317=ADVANCED_FACE('',(#79,#63),#18,.T.);
#318=ADVANCED_FACE('',(#80,#64),#301,.T.);
#319=ADVANCED_FACE('',(#81,#65),#46,.F.);
#320=ADVANCED_FACE('',(#82,#66),#302,.T.);
#321=ADVANCED_FACE('',(#83),#303,.T.);
#322=ADVANCED_FACE('',(#84),#19,.T.);
#323=ADVANCED_FACE('',(#85),#304,.T.);
#324=ADVANCED_FACE('',(#86),#20,.T.);
#325=ADVANCED_FACE('',(#87),#47,.T.);
#326=ADVANCED_FACE('',(#88),#21,.T.);
#327=ADVANCED_FACE('',(#89),#22,.T.);
#328=ADVANCED_FACE('',(#90),#48,.T.);
#329=CLOSED_SHELL('',(#305,#306,#307,#308,#309,#310,#311,#312,#313,#314,
#315,#316,#317,#318,#319,#320,#321,#322,#323,#324,#325,#326,#327,#328));
#330=DERIVED_UNIT_ELEMENT(#332,0.);
#331=DERIVED_UNIT_ELEMENT(#605,0.);
#332=(
MASS_UNIT()
NAMED_UNIT(*)
SI_UNIT($,.GRAM.)
);
#333=DERIVED_UNIT((#330,#331));
#334=MEASURE_REPRESENTATION_ITEM('density measure',
POSITIVE_RATIO_MEASURE(8.),#333);
#335=PROPERTY_DEFINITION_REPRESENTATION(#340,#337);
#336=PROPERTY_DEFINITION_REPRESENTATION(#341,#338);
#337=REPRESENTATION('material name',(#339),#602);
#338=REPRESENTATION('density',(#334),#602);
#339=DESCRIPTIVE_REPRESENTATION_ITEM('Stainless Steel AISI 304',
'Stainless Steel AISI 304');
#340=PROPERTY_DEFINITION('material property','material name',#612);
#341=PROPERTY_DEFINITION('material property','density of part',#612);
#342=DATE_TIME_ROLE('creation_date');
#343=APPLIED_DATE_AND_TIME_ASSIGNMENT(#344,#342,(#612));
#344=DATE_AND_TIME(#345,#346);
#345=CALENDAR_DATE(2018,11,1);
#346=LOCAL_TIME(16,25,29.,#347);
#347=COORDINATED_UNIVERSAL_TIME_OFFSET(0,0,.BEHIND.);
#348=AXIS2_PLACEMENT_3D('placement',#511,#399,#400);
#349=AXIS2_PLACEMENT_3D('',#512,#401,#402);
#350=AXIS2_PLACEMENT_3D('',#514,#403,#404);
#351=AXIS2_PLACEMENT_3D('',#516,#405,#406);
#352=AXIS2_PLACEMENT_3D('',#517,#407,#408);
#353=AXIS2_PLACEMENT_3D('',#522,#410,#411);
#354=AXIS2_PLACEMENT_3D('',#525,#413,#414);
#355=AXIS2_PLACEMENT_3D('',#527,#415,#416);
#356=AXIS2_PLACEMENT_3D('',#528,#417,#418);
#357=AXIS2_PLACEMENT_3D('',#530,#419,#420);
#358=AXIS2_PLACEMENT_3D('',#531,#421,#422);
#359=AXIS2_PLACEMENT_3D('',#533,#423,#424);
#360=AXIS2_PLACEMENT_3D('',#534,#425,#426);
#361=AXIS2_PLACEMENT_3D('',#536,#427,#428);
#362=AXIS2_PLACEMENT_3D('',#537,#429,#430);
#363=AXIS2_PLACEMENT_3D('',#539,#431,#432);
#364=AXIS2_PLACEMENT_3D('',#541,#433,#434);
#365=AXIS2_PLACEMENT_3D('',#542,#435,#436);
#366=AXIS2_PLACEMENT_3D('',#544,#437,#438);
#367=AXIS2_PLACEMENT_3D('',#545,#439,#440);
#368=AXIS2_PLACEMENT_3D('',#548,#441,#442);
#369=AXIS2_PLACEMENT_3D('',#552,#444,#445);
#370=AXIS2_PLACEMENT_3D('',#555,#447,#448);
#371=AXIS2_PLACEMENT_3D('',#556,#449,#450);
#372=AXIS2_PLACEMENT_3D('',#558,#451,#452);
#373=AXIS2_PLACEMENT_3D('',#559,#453,#454);
#374=AXIS2_PLACEMENT_3D('',#561,#455,#456);
#375=AXIS2_PLACEMENT_3D('',#562,#457,#458);
#376=AXIS2_PLACEMENT_3D('',#563,#459,#460);
#377=AXIS2_PLACEMENT_3D('',#565,#461,#462);
#378=AXIS2_PLACEMENT_3D('',#566,#463,#464);
#379=AXIS2_PLACEMENT_3D('',#568,#465,#466);
#380=AXIS2_PLACEMENT_3D('',#569,#467,#468);
#381=AXIS2_PLACEMENT_3D('',#571,#469,#470);
#382=AXIS2_PLACEMENT_3D('',#572,#471,#472);
#383=AXIS2_PLACEMENT_3D('',#574,#473,#474);
#384=AXIS2_PLACEMENT_3D('',#575,#475,#476);
#385=AXIS2_PLACEMENT_3D('',#576,#477,#478);
#386=AXIS2_PLACEMENT_3D('',#578,#479,#480);
#387=AXIS2_PLACEMENT_3D('',#580,#481,#482);
#388=AXIS2_PLACEMENT_3D('',#581,#483,#484);
#389=AXIS2_PLACEMENT_3D('',#582,#485,#486);
#390=AXIS2_PLACEMENT_3D('',#584,#487,#488);
#391=AXIS2_PLACEMENT_3D('',#586,#490,#491);
#392=AXIS2_PLACEMENT_3D('',#588,#492,#493);
#393=AXIS2_PLACEMENT_3D('',#589,#494,#495);
#394=AXIS2_PLACEMENT_3D('',#590,#496,#497);
#395=AXIS2_PLACEMENT_3D('',#592,#499,#500);
#396=AXIS2_PLACEMENT_3D('',#595,#503,#504);
#397=AXIS2_PLACEMENT_3D('',#597,#506,#507);
#398=AXIS2_PLACEMENT_3D('',#599,#509,#510);
#399=DIRECTION('axis',(0.,0.,1.));
#400=DIRECTION('refdir',(1.,0.,0.));
#401=DIRECTION('center_axis',(0.,0.,-1.));
#402=DIRECTION('ref_axis',(-1.,0.,0.));
#403=DIRECTION('center_axis',(0.,0.,-1.));
#404=DIRECTION('ref_axis',(-1.,0.,0.));
#405=DIRECTION('center_axis',(0.,0.,1.));
#406=DIRECTION('ref_axis',(-1.,0.,0.));
#407=DIRECTION('center_axis',(0.,0.,1.));
#408=DIRECTION('ref_axis',(1.,0.,0.));
#409=DIRECTION('',(-1.,5.71396307063899E-16,0.));
#410=DIRECTION('center_axis',(0.,0.,1.));
#411=DIRECTION('ref_axis',(0.,1.,0.));
#412=DIRECTION('',(1.,0.,0.));
#413=DIRECTION('center_axis',(0.,0.,1.));
#414=DIRECTION('ref_axis',(3.49676543189026E-16,-1.,0.));
#415=DIRECTION('center_axis',(0.,0.,1.));
#416=DIRECTION('ref_axis',(-1.,0.,0.));
#417=DIRECTION('center_axis',(0.,0.,-1.));
#418=DIRECTION('ref_axis',(-1.,0.,0.));
#419=DIRECTION('center_axis',(0.,0.,1.));
#420=DIRECTION('ref_axis',(1.,0.,0.));
#421=DIRECTION('center_axis',(0.,0.,-1.));
#422=DIRECTION('ref_axis',(-1.,0.,0.));
#423=DIRECTION('center_axis',(0.,0.,-1.));
#424=DIRECTION('ref_axis',(-1.,0.,0.));
#425=DIRECTION('center_axis',(0.,0.,-1.));
#426=DIRECTION('ref_axis',(-1.,0.,0.));
#427=DIRECTION('center_axis',(0.,0.,1.));
#428=DIRECTION('ref_axis',(1.,0.,0.));
#429=DIRECTION('center_axis',(0.,0.,1.));
#430=DIRECTION('ref_axis',(1.,0.,0.));
#431=DIRECTION('center_axis',(0.,0.,1.));
#432=DIRECTION('ref_axis',(-1.,0.,0.));
#433=DIRECTION('center_axis',(0.,0.,-1.));
#434=DIRECTION('ref_axis',(-1.,0.,0.));
#435=DIRECTION('center_axis',(0.,0.,-1.));
#436=DIRECTION('ref_axis',(-1.,0.,0.));
#437=DIRECTION('center_axis',(0.,0.,-1.));
#438=DIRECTION('ref_axis',(-1.,0.,0.));
#439=DIRECTION('center_axis',(0.,0.,1.));
#440=DIRECTION('ref_axis',(1.,0.,0.));
#441=DIRECTION('center_axis',(0.,0.,1.));
#442=DIRECTION('ref_axis',(1.,0.,0.));
#443=DIRECTION('',(1.,0.,0.));
#444=DIRECTION('center_axis',(0.,0.,1.));
#445=DIRECTION('ref_axis',(-1.,3.49676543189026E-16,0.));
#446=DIRECTION('',(-1.,-5.71396307063899E-16,0.));
#447=DIRECTION('center_axis',(0.,0.,-1.));
#448=DIRECTION('ref_axis',(-1.,0.,0.));
#449=DIRECTION('center_axis',(0.,0.,1.));
#450=DIRECTION('ref_axis',(1.,0.,0.));
#451=DIRECTION('center_axis',(0.,0.,-1.));
#452=DIRECTION('ref_axis',(1.,0.,0.));
#453=DIRECTION('center_axis',(0.,0.,1.));
#454=DIRECTION('ref_axis',(1.,0.,0.));
#455=DIRECTION('center_axis',(0.,0.,1.));
#456=DIRECTION('ref_axis',(-1.,0.,0.));
#457=DIRECTION('center_axis',(0.,0.,-1.));
#458=DIRECTION('ref_axis',(-1.,0.,0.));
#459=DIRECTION('center_axis',(0.,0.,1.));
#460=DIRECTION('ref_axis',(1.,0.,0.));
#461=DIRECTION('center_axis',(0.,0.,1.));
#462=DIRECTION('ref_axis',(-1.,0.,0.));
#463=DIRECTION('center_axis',(0.,0.,-1.));
#464=DIRECTION('ref_axis',(-1.,0.,0.));
#465=DIRECTION('center_axis',(0.,0.,-1.));
#466=DIRECTION('ref_axis',(-1.,0.,0.));
#467=DIRECTION('center_axis',(0.,0.,-1.));
#468=DIRECTION('ref_axis',(-1.,0.,0.));
#469=DIRECTION('center_axis',(0.,0.,1.));
#470=DIRECTION('ref_axis',(-1.,0.,0.));
#471=DIRECTION('center_axis',(0.,0.,1.));
#472=DIRECTION('ref_axis',(1.,0.,0.));
#473=DIRECTION('center_axis',(0.,0.,-1.));
#474=DIRECTION('ref_axis',(1.,0.,0.));
#475=DIRECTION('center_axis',(0.,0.,1.));
#476=DIRECTION('ref_axis',(1.,0.,0.));
#477=DIRECTION('center_axis',(0.,0.,1.));
#478=DIRECTION('ref_axis',(1.,0.,0.));
#479=DIRECTION('center_axis',(1.,0.,0.));
#480=DIRECTION('ref_axis',(0.,-1.,0.));
#481=DIRECTION('center_axis',(1.,0.,0.));
#482=DIRECTION('ref_axis',(0.,0.,-1.));
#483=DIRECTION('center_axis',(0.,0.,-1.));
#484=DIRECTION('ref_axis',(1.,0.,0.));
#485=DIRECTION('center_axis',(-1.,-5.71396307063899E-16,0.));
#486=DIRECTION('ref_axis',(0.,0.707106781186548,-0.707106781186547));
#487=DIRECTION('center_axis',(1.,0.,0.));
#488=DIRECTION('ref_axis',(0.,0.,-1.));
#489=DIRECTION('',(1.,5.71396307063899E-16,0.));
#490=DIRECTION('center_axis',(0.,0.,1.));
#491=DIRECTION('ref_axis',(1.,0.,0.));
#492=DIRECTION('center_axis',(-1.,0.,0.));
#493=DIRECTION('ref_axis',(0.,0.,-1.));
#494=DIRECTION('center_axis',(0.,0.,-1.));
#495=DIRECTION('ref_axis',(-1.,3.49676543189026E-16,0.));
#496=DIRECTION('center_axis',(1.,0.,0.));
#497=DIRECTION('ref_axis',(0.,-0.707106781186548,-0.707106781186547));
#498=DIRECTION('',(-1.,0.,0.));
#499=DIRECTION('center_axis',(0.,-1.,0.));
#500=DIRECTION('ref_axis',(1.,0.,0.));
#501=DIRECTION('',(0.,0.,1.));
#502=DIRECTION('',(0.,0.,1.));
#503=DIRECTION('center_axis',(0.,0.,1.));
#504=DIRECTION('ref_axis',(3.49676543189026E-16,-1.,0.));
#505=DIRECTION('',(0.,0.,1.));
#506=DIRECTION('center_axis',(0.,0.,1.));
#507=DIRECTION('ref_axis',(0.,1.,0.));
#508=DIRECTION('',(0.,0.,1.));
#509=DIRECTION('center_axis',(-5.71396307063899E-16,1.,0.));
#510=DIRECTION('ref_axis',(-1.,-5.71396307063899E-16,0.));
#511=CARTESIAN_POINT('',(0.,0.,0.));
#512=CARTESIAN_POINT('Origin',(17.65,6.35,2.));
#513=CARTESIAN_POINT('',(20.9735,6.35,2.));
#514=CARTESIAN_POINT('Origin',(17.65,6.35,2.));
#515=CARTESIAN_POINT('',(21.9735,6.35,3.));
#516=CARTESIAN_POINT('Origin',(17.65,6.35,3.));
#517=CARTESIAN_POINT('Origin',(-10.9545626019219,6.35,3.));
#518=CARTESIAN_POINT('',(19.43,12.7,3.));
#519=CARTESIAN_POINT('',(-19.43,12.7,3.));
#520=CARTESIAN_POINT('',(19.43,12.7,3.));
#521=CARTESIAN_POINT('',(-19.43,0.,3.));
#522=CARTESIAN_POINT('Origin',(-19.43,6.34999999999999,3.));
#523=CARTESIAN_POINT('',(19.43,0.,3.));
#524=CARTESIAN_POINT('',(-19.43,0.,3.));
#525=CARTESIAN_POINT('Origin',(19.43,6.34999999999999,3.));
#526=CARTESIAN_POINT('',(-13.3265,6.35,3.));
#527=CARTESIAN_POINT('Origin',(-17.65,6.35,3.));
#528=CARTESIAN_POINT('Origin',(17.65,6.35,51.5175730880542));
#529=CARTESIAN_POINT('',(14.3265,6.35,-1.3));
#530=CARTESIAN_POINT('Origin',(17.65,6.35,-1.3));
#531=CARTESIAN_POINT('Origin',(-17.65,6.35,2.));
#532=CARTESIAN_POINT('',(-14.3265,6.35,2.));
#533=CARTESIAN_POINT('Origin',(-17.65,6.35,2.));
#534=CARTESIAN_POINT('Origin',(-17.65,6.35,51.5175730880542));
#535=CARTESIAN_POINT('',(-20.9735,6.35,-1.3));
#536=CARTESIAN_POINT('Origin',(-17.65,6.35,-1.3));
#537=CARTESIAN_POINT('Origin',(17.65,6.35,-0.5));
#538=CARTESIAN_POINT('',(23.,6.35,-0.5));
#539=CARTESIAN_POINT('Origin',(17.65,6.35,-0.5));
#540=CARTESIAN_POINT('',(23.5,6.35,0.));
#541=CARTESIAN_POINT('Origin',(17.65,6.35,0.));
#542=CARTESIAN_POINT('Origin',(17.65,6.35,0.));
#543=CARTESIAN_POINT('',(23.,6.35,-1.3));
#544=CARTESIAN_POINT('Origin',(17.65,6.35,-1.3));
#545=CARTESIAN_POINT('Origin',(-10.9545626019219,6.35,0.));
#546=CARTESIAN_POINT('',(19.43,0.199999999999995,0.));
#547=CARTESIAN_POINT('',(19.43,12.5,0.));
#548=CARTESIAN_POINT('Origin',(19.43,6.34999999999999,0.));
#549=CARTESIAN_POINT('',(-19.43,0.199999999999994,0.));
#550=CARTESIAN_POINT('',(-15.1922813009609,0.2,0.));
#551=CARTESIAN_POINT('',(-19.43,12.5,0.));
#552=CARTESIAN_POINT('Origin',(-19.43,6.34999999999999,0.));
#553=CARTESIAN_POINT('',(-5.47728130096094,12.5,0.));
#554=CARTESIAN_POINT('',(-11.8,6.35,0.));
#555=CARTESIAN_POINT('Origin',(-17.65,6.35,0.));
#556=CARTESIAN_POINT('Origin',(17.65,6.35,-1.3));
#557=CARTESIAN_POINT('',(13.8265,6.35,-1.8));
#558=CARTESIAN_POINT('Origin',(17.65,6.35,-1.8));
#559=CARTESIAN_POINT('Origin',(17.65,6.35,-1.8));
#560=CARTESIAN_POINT('',(22.5,6.35,-1.8));
#561=CARTESIAN_POINT('Origin',(17.65,6.35,-1.8));
#562=CARTESIAN_POINT('Origin',(17.65,6.35,-1.3));
#563=CARTESIAN_POINT('Origin',(-17.65,6.35,-0.5));
#564=CARTESIAN_POINT('',(-12.3,6.35,-0.5));
#565=CARTESIAN_POINT('Origin',(-17.65,6.35,-0.5));
#566=CARTESIAN_POINT('Origin',(-17.65,6.35,0.));
#567=CARTESIAN_POINT('',(-12.3,6.35,-1.3));
#568=CARTESIAN_POINT('Origin',(-17.65,6.35,-1.3));
#569=CARTESIAN_POINT('Origin',(-17.65,6.35,-1.3));
#570=CARTESIAN_POINT('',(-12.8,6.35,-1.8));
#571=CARTESIAN_POINT('Origin',(-17.65,6.35,-1.8));
#572=CARTESIAN_POINT('Origin',(-17.65,6.35,-1.8));
#573=CARTESIAN_POINT('',(-21.4735,6.35,-1.8));
#574=CARTESIAN_POINT('Origin',(-17.65,6.35,-1.8));
#575=CARTESIAN_POINT('Origin',(-17.65,6.35,-1.3));
#576=CARTESIAN_POINT('Origin',(19.43,6.34999999999999,0.2));
#577=CARTESIAN_POINT('',(19.43,0.,0.2));
#578=CARTESIAN_POINT('Origin',(19.43,0.199999999999995,0.2));
#579=CARTESIAN_POINT('',(19.43,12.7,0.2));
#580=CARTESIAN_POINT('Origin',(19.43,12.5,0.2));
#581=CARTESIAN_POINT('Origin',(19.43,6.34999999999999,0.2));
#582=CARTESIAN_POINT('Origin',(-5.47728130096094,12.5,0.2));
#583=CARTESIAN_POINT('',(-19.43,12.7,0.2));
#584=CARTESIAN_POINT('Origin',(-19.43,12.5,0.2));
#585=CARTESIAN_POINT('',(-5.47728130096094,12.7,0.2));
#586=CARTESIAN_POINT('Origin',(-19.43,6.34999999999999,0.2));
#587=CARTESIAN_POINT('',(-19.43,0.,0.2));
#588=CARTESIAN_POINT('Origin',(-19.43,0.199999999999994,0.2));
#589=CARTESIAN_POINT('Origin',(-19.43,6.34999999999999,0.2));
#590=CARTESIAN_POINT('Origin',(-15.1922813009609,0.2,0.2));
#591=CARTESIAN_POINT('',(-15.1922813009609,0.,0.2));
#592=CARTESIAN_POINT('Origin',(-19.43,0.,0.));
#593=CARTESIAN_POINT('',(19.43,0.,0.));
#594=CARTESIAN_POINT('',(-19.43,0.,0.));
#595=CARTESIAN_POINT('Origin',(19.43,6.34999999999999,0.));
#596=CARTESIAN_POINT('',(19.43,12.7,0.));
#597=CARTESIAN_POINT('Origin',(-19.43,6.34999999999999,0.));
#598=CARTESIAN_POINT('',(-19.43,12.7,0.));
#599=CARTESIAN_POINT('Origin',(0.,12.7,0.));
#600=UNCERTAINTY_MEASURE_WITH_UNIT(LENGTH_MEASURE(0.01),#604,
'DISTANCE_ACCURACY_VALUE',
'Maximum model space distance between geometric entities at asserted c
onnectivities');
#601=UNCERTAINTY_MEASURE_WITH_UNIT(LENGTH_MEASURE(0.01),#604,
'DISTANCE_ACCURACY_VALUE',
'Maximum model space distance between geometric entities at asserted c
onnectivities');
#602=(
GEOMETRIC_REPRESENTATION_CONTEXT(3)
GLOBAL_UNCERTAINTY_ASSIGNED_CONTEXT((#600))
GLOBAL_UNIT_ASSIGNED_CONTEXT((#604,#607,#606))
REPRESENTATION_CONTEXT('','3D')
);
#603=(
GEOMETRIC_REPRESENTATION_CONTEXT(3)
GLOBAL_UNCERTAINTY_ASSIGNED_CONTEXT((#601))
GLOBAL_UNIT_ASSIGNED_CONTEXT((#604,#607,#606))
REPRESENTATION_CONTEXT('','3D')
);
#604=(
LENGTH_UNIT()
NAMED_UNIT(*)
SI_UNIT(.MILLI.,.METRE.)
);
#605=(
LENGTH_UNIT()
NAMED_UNIT(*)
SI_UNIT(.CENTI.,.METRE.)
);
#606=(
NAMED_UNIT(*)
SI_UNIT($,.STERADIAN.)
SOLID_ANGLE_UNIT()
);
#607=(
NAMED_UNIT(*)
PLANE_ANGLE_UNIT()
SI_UNIT($,.RADIAN.)
);
#608=SHAPE_DEFINITION_REPRESENTATION(#609,#610);
#609=PRODUCT_DEFINITION_SHAPE('',$,#612);
#610=SHAPE_REPRESENTATION('',(#348),#602);
#611=PRODUCT_DEFINITION_CONTEXT('part definition',#616,'design');
#612=PRODUCT_DEFINITION('PLNUT63','PLNUT63',#613,#611);
#613=PRODUCT_DEFINITION_FORMATION('',$,#618);
#614=PRODUCT_RELATED_PRODUCT_CATEGORY('PLNUT63','PLNUT63',(#618));
#615=APPLICATION_PROTOCOL_DEFINITION('international standard',
'automotive_design',2009,#616);
#616=APPLICATION_CONTEXT(
'Core Data for Automotive Mechanical Design Process');
#617=PRODUCT_CONTEXT('part definition',#616,'mechanical');
#618=PRODUCT('PLNUT63','PLNUT63',$,(#617));
#619=PRESENTATION_STYLE_ASSIGNMENT((#620));
#620=SURFACE_STYLE_USAGE(.BOTH.,#621);
#621=SURFACE_SIDE_STYLE('',(#622));
#622=SURFACE_STYLE_FILL_AREA(#623);
#623=FILL_AREA_STYLE('',(#624));
#624=FILL_AREA_STYLE_COLOUR('',#625);
#625=COLOUR_RGB('',0.745098039215686,0.737254901960784,0.729411764705882);
ENDSEC;
END-ISO-10303-21;
