ISO-10303-21;
HEADER;
/* Generated by software containing ST-Developer
 * from STEP Tools, Inc. (www.steptools.com) 
 */

FILE_DESCRIPTION(
/* description */ (''),
/* implementation_level */ '2;1');

FILE_NAME(
/* name */ 'G:\\Flanges + FITTINGS\\DN200CF\\Step files\\PLNUT200.stp',

/* time_stamp */ '2018-01-12T15:02:19+00:00',
/* author */ ('paul'),
/* organization */ (''),
/* preprocessor_version */ 'ST-DEVELOPER v16.13',
/* originating_system */ 'Autodesk Inventor 2018',
/* authorisation */ '');

FILE_SCHEMA (('AUTOMOTIVE_DESIGN { 1 0 10303 214 3 1 1 }'));
ENDSEC;

DATA;
#10=MECHANICAL_DESIGN_GEOMETRIC_PRESENTATION_REPRESENTATION('',(#13),#619);
#11=SHAPE_REPRESENTATION_RELATIONSHIP('SRR','None',#626,#12);
#12=ADVANCED_BREP_SHAPE_REPRESENTATION('',(#14),#618);
#13=STYLED_ITEM('',(#635),#14);
#14=MANIFOLD_SOLID_BREP('Solid1',#329);
#15=B_SPLINE_CURVE_WITH_KNOTS('',3,(#575,#576,#577,#578,#579,#580,#581,
#582,#583,#584,#585,#586),.UNSPECIFIED.,.F.,.F.,(4,2,2,2,2,4),(-0.000203215786850748,
0.,0.00800265913272528,0.0158470006337651,0.0236423248628859,0.0314131561711902),
 .UNSPECIFIED.);
#16=B_SPLINE_CURVE_WITH_KNOTS('',3,(#594,#595,#596,#597,#598,#599,#600,
#601,#602,#603,#604,#605),.UNSPECIFIED.,.F.,.F.,(4,2,2,2,2,4),(-0.0630295281306552,
-0.0628263123437998,-0.0548236532108908,-0.0469793117096706,-0.0391839874803698,
-0.0314131561718851),.UNSPECIFIED.);
#17=CYLINDRICAL_SURFACE('',#356,3.3235);
#18=CYLINDRICAL_SURFACE('',#360,3.3235);
#19=CYLINDRICAL_SURFACE('',#365,5.35);
#20=CYLINDRICAL_SURFACE('',#378,5.35);
#21=CYLINDRICAL_SURFACE('',#388,0.2);
#22=CYLINDRICAL_SURFACE('',#392,0.2);
#23=CYLINDRICAL_SURFACE('',#394,6.42716535433071);
#24=CYLINDRICAL_SURFACE('',#395,6.42716535433071);
#25=LINE('',#514,#35);
#26=LINE('',#518,#36);
#27=LINE('',#544,#37);
#28=LINE('',#547,#38);
#29=LINE('',#590,#39);
#30=LINE('',#607,#40);
#31=LINE('',#609,#41);
#32=LINE('',#610,#42);
#33=LINE('',#612,#43);
#34=LINE('',#614,#44);
#35=VECTOR('',#407,10.);
#36=VECTOR('',#410,10.);
#37=VECTOR('',#441,10.);
#38=VECTOR('',#444,10.);
#39=VECTOR('',#485,10.);
#40=VECTOR('',#492,10.);
#41=VECTOR('',#495,10.);
#42=VECTOR('',#496,10.);
#43=VECTOR('',#499,10.);
#44=VECTOR('',#502,10.);
#45=PLANE('',#352);
#46=PLANE('',#367);
#47=PLANE('',#373);
#48=PLANE('',#382);
#49=PLANE('',#393);
#50=PLANE('',#396);
#51=FACE_BOUND('',#94,.T.);
#52=FACE_BOUND('',#96,.T.);
#53=FACE_BOUND('',#97,.T.);
#54=FACE_BOUND('',#99,.T.);
#55=FACE_BOUND('',#101,.T.);
#56=FACE_BOUND('',#103,.T.);
#57=FACE_BOUND('',#105,.T.);
#58=FACE_BOUND('',#107,.T.);
#59=FACE_BOUND('',#109,.T.);
#60=FACE_BOUND('',#110,.T.);
#61=FACE_BOUND('',#112,.T.);
#62=FACE_BOUND('',#114,.T.);
#63=FACE_BOUND('',#116,.T.);
#64=FACE_BOUND('',#118,.T.);
#65=FACE_BOUND('',#120,.T.);
#66=FACE_BOUND('',#122,.T.);
#67=FACE_BOUND('',#124,.T.);
#68=FACE_BOUND('',#126,.T.);
#69=FACE_OUTER_BOUND('',#93,.T.);
#70=FACE_OUTER_BOUND('',#95,.T.);
#71=FACE_OUTER_BOUND('',#98,.T.);
#72=FACE_OUTER_BOUND('',#100,.T.);
#73=FACE_OUTER_BOUND('',#102,.T.);
#74=FACE_OUTER_BOUND('',#104,.T.);
#75=FACE_OUTER_BOUND('',#106,.T.);
#76=FACE_OUTER_BOUND('',#108,.T.);
#77=FACE_OUTER_BOUND('',#111,.T.);
#78=FACE_OUTER_BOUND('',#113,.T.);
#79=FACE_OUTER_BOUND('',#115,.T.);
#80=FACE_OUTER_BOUND('',#117,.T.);
#81=FACE_OUTER_BOUND('',#119,.T.);
#82=FACE_OUTER_BOUND('',#121,.T.);
#83=FACE_OUTER_BOUND('',#123,.T.);
#84=FACE_OUTER_BOUND('',#125,.T.);
#85=FACE_OUTER_BOUND('',#127,.T.);
#86=FACE_OUTER_BOUND('',#128,.T.);
#87=FACE_OUTER_BOUND('',#129,.T.);
#88=FACE_OUTER_BOUND('',#130,.T.);
#89=FACE_OUTER_BOUND('',#131,.T.);
#90=FACE_OUTER_BOUND('',#132,.T.);
#91=FACE_OUTER_BOUND('',#133,.T.);
#92=FACE_OUTER_BOUND('',#134,.T.);
#93=EDGE_LOOP('',(#223));
#94=EDGE_LOOP('',(#224));
#95=EDGE_LOOP('',(#225,#226,#227,#228));
#96=EDGE_LOOP('',(#229));
#97=EDGE_LOOP('',(#230));
#98=EDGE_LOOP('',(#231));
#99=EDGE_LOOP('',(#232));
#100=EDGE_LOOP('',(#233));
#101=EDGE_LOOP('',(#234));
#102=EDGE_LOOP('',(#235));
#103=EDGE_LOOP('',(#236));
#104=EDGE_LOOP('',(#237));
#105=EDGE_LOOP('',(#238));
#106=EDGE_LOOP('',(#239));
#107=EDGE_LOOP('',(#240));
#108=EDGE_LOOP('',(#241,#242,#243,#244));
#109=EDGE_LOOP('',(#245));
#110=EDGE_LOOP('',(#246));
#111=EDGE_LOOP('',(#247));
#112=EDGE_LOOP('',(#248));
#113=EDGE_LOOP('',(#249));
#114=EDGE_LOOP('',(#250));
#115=EDGE_LOOP('',(#251));
#116=EDGE_LOOP('',(#252));
#117=EDGE_LOOP('',(#253));
#118=EDGE_LOOP('',(#254));
#119=EDGE_LOOP('',(#255));
#120=EDGE_LOOP('',(#256));
#121=EDGE_LOOP('',(#257));
#122=EDGE_LOOP('',(#258));
#123=EDGE_LOOP('',(#259));
#124=EDGE_LOOP('',(#260));
#125=EDGE_LOOP('',(#261));
#126=EDGE_LOOP('',(#262));
#127=EDGE_LOOP('',(#263,#264,#265,#266));
#128=EDGE_LOOP('',(#267,#268,#269,#270));
#129=EDGE_LOOP('',(#271,#272,#273,#274));
#130=EDGE_LOOP('',(#275,#276,#277,#278));
#131=EDGE_LOOP('',(#279,#280,#281,#282));
#132=EDGE_LOOP('',(#283,#284,#285,#286));
#133=EDGE_LOOP('',(#287,#288,#289,#290));
#134=EDGE_LOOP('',(#291,#292,#293,#294));
#135=CIRCLE('',#350,3.3235);
#136=CIRCLE('',#351,4.3235);
#137=CIRCLE('',#353,6.42716535433071);
#138=CIRCLE('',#354,6.42716535433071);
#139=CIRCLE('',#355,4.3235);
#140=CIRCLE('',#357,3.3235);
#141=CIRCLE('',#359,3.3235);
#142=CIRCLE('',#361,3.3235);
#143=CIRCLE('',#363,5.35);
#144=CIRCLE('',#364,5.85);
#145=CIRCLE('',#366,5.35);
#146=CIRCLE('',#368,6.22716535433071);
#147=CIRCLE('',#369,6.22716535433071);
#148=CIRCLE('',#370,5.85);
#149=CIRCLE('',#372,3.8235);
#150=CIRCLE('',#374,4.85);
#151=CIRCLE('',#377,5.35);
#152=CIRCLE('',#379,5.35);
#153=CIRCLE('',#381,4.85);
#154=CIRCLE('',#383,3.8235);
#155=CIRCLE('',#386,0.2);
#156=CIRCLE('',#387,6.42716535433071);
#157=CIRCLE('',#389,0.2);
#158=CIRCLE('',#391,6.42716535433071);
#159=VERTEX_POINT('',#507);
#160=VERTEX_POINT('',#509);
#161=VERTEX_POINT('',#512);
#162=VERTEX_POINT('',#513);
#163=VERTEX_POINT('',#515);
#164=VERTEX_POINT('',#517);
#165=VERTEX_POINT('',#520);
#166=VERTEX_POINT('',#523);
#167=VERTEX_POINT('',#526);
#168=VERTEX_POINT('',#529);
#169=VERTEX_POINT('',#532);
#170=VERTEX_POINT('',#534);
#171=VERTEX_POINT('',#537);
#172=VERTEX_POINT('',#540);
#173=VERTEX_POINT('',#541);
#174=VERTEX_POINT('',#543);
#175=VERTEX_POINT('',#545);
#176=VERTEX_POINT('',#548);
#177=VERTEX_POINT('',#551);
#178=VERTEX_POINT('',#554);
#179=VERTEX_POINT('',#558);
#180=VERTEX_POINT('',#561);
#181=VERTEX_POINT('',#564);
#182=VERTEX_POINT('',#567);
#183=VERTEX_POINT('',#571);
#184=VERTEX_POINT('',#573);
#185=VERTEX_POINT('',#588);
#186=VERTEX_POINT('',#592);
#187=EDGE_CURVE('',#159,#159,#135,.T.);
#188=EDGE_CURVE('',#160,#160,#136,.T.);
#189=EDGE_CURVE('',#161,#162,#25,.T.);
#190=EDGE_CURVE('',#162,#163,#137,.T.);
#191=EDGE_CURVE('',#163,#164,#26,.T.);
#192=EDGE_CURVE('',#164,#161,#138,.T.);
#193=EDGE_CURVE('',#165,#165,#139,.T.);
#194=EDGE_CURVE('',#166,#166,#140,.T.);
#195=EDGE_CURVE('',#167,#167,#141,.T.);
#196=EDGE_CURVE('',#168,#168,#142,.T.);
#197=EDGE_CURVE('',#169,#169,#143,.T.);
#198=EDGE_CURVE('',#170,#170,#144,.T.);
#199=EDGE_CURVE('',#171,#171,#145,.T.);
#200=EDGE_CURVE('',#172,#173,#146,.T.);
#201=EDGE_CURVE('',#174,#172,#27,.T.);
#202=EDGE_CURVE('',#175,#174,#147,.T.);
#203=EDGE_CURVE('',#173,#175,#28,.T.);
#204=EDGE_CURVE('',#176,#176,#148,.T.);
#205=EDGE_CURVE('',#177,#177,#149,.T.);
#206=EDGE_CURVE('',#178,#178,#150,.T.);
#207=EDGE_CURVE('',#179,#179,#151,.T.);
#208=EDGE_CURVE('',#180,#180,#152,.T.);
#209=EDGE_CURVE('',#181,#181,#153,.T.);
#210=EDGE_CURVE('',#182,#182,#154,.T.);
#211=EDGE_CURVE('',#173,#183,#155,.T.);
#212=EDGE_CURVE('',#183,#184,#156,.T.);
#213=EDGE_CURVE('',#172,#184,#15,.T.);
#214=EDGE_CURVE('',#175,#185,#157,.T.);
#215=EDGE_CURVE('',#185,#183,#29,.T.);
#216=EDGE_CURVE('',#186,#185,#158,.T.);
#217=EDGE_CURVE('',#174,#186,#16,.T.);
#218=EDGE_CURVE('',#184,#186,#30,.T.);
#219=EDGE_CURVE('',#184,#164,#31,.T.);
#220=EDGE_CURVE('',#186,#163,#32,.T.);
#221=EDGE_CURVE('',#183,#161,#33,.T.);
#222=EDGE_CURVE('',#185,#162,#34,.T.);
#223=ORIENTED_EDGE('',*,*,#187,.T.);
#224=ORIENTED_EDGE('',*,*,#188,.T.);
#225=ORIENTED_EDGE('',*,*,#189,.T.);
#226=ORIENTED_EDGE('',*,*,#190,.T.);
#227=ORIENTED_EDGE('',*,*,#191,.T.);
#228=ORIENTED_EDGE('',*,*,#192,.T.);
#229=ORIENTED_EDGE('',*,*,#193,.F.);
#230=ORIENTED_EDGE('',*,*,#188,.F.);
#231=ORIENTED_EDGE('',*,*,#194,.F.);
#232=ORIENTED_EDGE('',*,*,#187,.F.);
#233=ORIENTED_EDGE('',*,*,#195,.T.);
#234=ORIENTED_EDGE('',*,*,#193,.T.);
#235=ORIENTED_EDGE('',*,*,#196,.F.);
#236=ORIENTED_EDGE('',*,*,#195,.F.);
#237=ORIENTED_EDGE('',*,*,#197,.T.);
#238=ORIENTED_EDGE('',*,*,#198,.T.);
#239=ORIENTED_EDGE('',*,*,#199,.F.);
#240=ORIENTED_EDGE('',*,*,#197,.F.);
#241=ORIENTED_EDGE('',*,*,#200,.F.);
#242=ORIENTED_EDGE('',*,*,#201,.F.);
#243=ORIENTED_EDGE('',*,*,#202,.F.);
#244=ORIENTED_EDGE('',*,*,#203,.F.);
#245=ORIENTED_EDGE('',*,*,#204,.F.);
#246=ORIENTED_EDGE('',*,*,#198,.F.);
#247=ORIENTED_EDGE('',*,*,#194,.T.);
#248=ORIENTED_EDGE('',*,*,#205,.T.);
#249=ORIENTED_EDGE('',*,*,#206,.F.);
#250=ORIENTED_EDGE('',*,*,#205,.F.);
#251=ORIENTED_EDGE('',*,*,#199,.T.);
#252=ORIENTED_EDGE('',*,*,#206,.T.);
#253=ORIENTED_EDGE('',*,*,#207,.T.);
#254=ORIENTED_EDGE('',*,*,#204,.T.);
#255=ORIENTED_EDGE('',*,*,#208,.F.);
#256=ORIENTED_EDGE('',*,*,#207,.F.);
#257=ORIENTED_EDGE('',*,*,#208,.T.);
#258=ORIENTED_EDGE('',*,*,#209,.T.);
#259=ORIENTED_EDGE('',*,*,#209,.F.);
#260=ORIENTED_EDGE('',*,*,#210,.F.);
#261=ORIENTED_EDGE('',*,*,#196,.T.);
#262=ORIENTED_EDGE('',*,*,#210,.T.);
#263=ORIENTED_EDGE('',*,*,#200,.T.);
#264=ORIENTED_EDGE('',*,*,#211,.T.);
#265=ORIENTED_EDGE('',*,*,#212,.T.);
#266=ORIENTED_EDGE('',*,*,#213,.F.);
#267=ORIENTED_EDGE('',*,*,#214,.T.);
#268=ORIENTED_EDGE('',*,*,#215,.T.);
#269=ORIENTED_EDGE('',*,*,#211,.F.);
#270=ORIENTED_EDGE('',*,*,#203,.T.);
#271=ORIENTED_EDGE('',*,*,#216,.T.);
#272=ORIENTED_EDGE('',*,*,#214,.F.);
#273=ORIENTED_EDGE('',*,*,#202,.T.);
#274=ORIENTED_EDGE('',*,*,#217,.T.);
#275=ORIENTED_EDGE('',*,*,#218,.T.);
#276=ORIENTED_EDGE('',*,*,#217,.F.);
#277=ORIENTED_EDGE('',*,*,#201,.T.);
#278=ORIENTED_EDGE('',*,*,#213,.T.);
#279=ORIENTED_EDGE('',*,*,#218,.F.);
#280=ORIENTED_EDGE('',*,*,#219,.T.);
#281=ORIENTED_EDGE('',*,*,#191,.F.);
#282=ORIENTED_EDGE('',*,*,#220,.F.);
#283=ORIENTED_EDGE('',*,*,#212,.F.);
#284=ORIENTED_EDGE('',*,*,#221,.T.);
#285=ORIENTED_EDGE('',*,*,#192,.F.);
#286=ORIENTED_EDGE('',*,*,#219,.F.);
#287=ORIENTED_EDGE('',*,*,#216,.F.);
#288=ORIENTED_EDGE('',*,*,#220,.T.);
#289=ORIENTED_EDGE('',*,*,#190,.F.);
#290=ORIENTED_EDGE('',*,*,#222,.F.);
#291=ORIENTED_EDGE('',*,*,#215,.F.);
#292=ORIENTED_EDGE('',*,*,#222,.T.);
#293=ORIENTED_EDGE('',*,*,#189,.F.);
#294=ORIENTED_EDGE('',*,*,#221,.F.);
#295=TOROIDAL_SURFACE('',#349,4.3235,1.);
#296=TOROIDAL_SURFACE('',#358,4.3235,1.);
#297=TOROIDAL_SURFACE('',#362,5.85,0.5);
#298=TOROIDAL_SURFACE('',#371,3.8235,0.5);
#299=TOROIDAL_SURFACE('',#375,4.85,0.5);
#300=TOROIDAL_SURFACE('',#376,5.85,0.5);
#301=TOROIDAL_SURFACE('',#380,4.85,0.5);
#302=TOROIDAL_SURFACE('',#384,3.8235,0.5);
#303=TOROIDAL_SURFACE('',#385,6.22716535433071,0.2);
#304=TOROIDAL_SURFACE('',#390,6.22716535433071,0.2);
#305=ADVANCED_FACE('',(#69,#51),#295,.T.);
#306=ADVANCED_FACE('',(#70,#52,#53),#45,.T.);
#307=ADVANCED_FACE('',(#71,#54),#17,.F.);
#308=ADVANCED_FACE('',(#72,#55),#296,.T.);
#309=ADVANCED_FACE('',(#73,#56),#18,.F.);
#310=ADVANCED_FACE('',(#74,#57),#297,.F.);
#311=ADVANCED_FACE('',(#75,#58),#19,.T.);
#312=ADVANCED_FACE('',(#76,#59,#60),#46,.F.);
#313=ADVANCED_FACE('',(#77,#61),#298,.T.);
#314=ADVANCED_FACE('',(#78,#62),#47,.F.);
#315=ADVANCED_FACE('',(#79,#63),#299,.T.);
#316=ADVANCED_FACE('',(#80,#64),#300,.F.);
#317=ADVANCED_FACE('',(#81,#65),#20,.T.);
#318=ADVANCED_FACE('',(#82,#66),#301,.T.);
#319=ADVANCED_FACE('',(#83,#67),#48,.F.);
#320=ADVANCED_FACE('',(#84,#68),#302,.T.);
#321=ADVANCED_FACE('',(#85),#303,.T.);
#322=ADVANCED_FACE('',(#86),#21,.T.);
#323=ADVANCED_FACE('',(#87),#304,.T.);
#324=ADVANCED_FACE('',(#88),#22,.T.);
#325=ADVANCED_FACE('',(#89),#49,.T.);
#326=ADVANCED_FACE('',(#90),#23,.T.);
#327=ADVANCED_FACE('',(#91),#24,.T.);
#328=ADVANCED_FACE('',(#92),#50,.T.);
#329=CLOSED_SHELL('',(#305,#306,#307,#308,#309,#310,#311,#312,#313,#314,
#315,#316,#317,#318,#319,#320,#321,#322,#323,#324,#325,#326,#327,#328));
#330=DERIVED_UNIT_ELEMENT(#332,0.);
#331=DERIVED_UNIT_ELEMENT(#621,0.);
#332=(
MASS_UNIT()
NAMED_UNIT(*)
SI_UNIT($,.GRAM.)
);
#333=DERIVED_UNIT((#330,#331));
#334=MEASURE_REPRESENTATION_ITEM('density measure',
POSITIVE_RATIO_MEASURE(8.),#333);
#335=PROPERTY_DEFINITION_REPRESENTATION(#340,#337);
#336=PROPERTY_DEFINITION_REPRESENTATION(#341,#338);
#337=REPRESENTATION('material name',(#339),#618);
#338=REPRESENTATION('density',(#334),#618);
#339=DESCRIPTIVE_REPRESENTATION_ITEM('Stainless Steel AISI 304',
'Stainless Steel AISI 304');
#340=PROPERTY_DEFINITION('material property','material name',#628);
#341=PROPERTY_DEFINITION('material property','density of part',#628);
#342=DATE_TIME_ROLE('creation_date');
#343=APPLIED_DATE_AND_TIME_ASSIGNMENT(#344,#342,(#628));
#344=DATE_AND_TIME(#345,#346);
#345=CALENDAR_DATE(2018,11,1);
#346=LOCAL_TIME(16,25,29.,#347);
#347=COORDINATED_UNIVERSAL_TIME_OFFSET(0,0,.BEHIND.);
#348=AXIS2_PLACEMENT_3D('placement',#505,#397,#398);
#349=AXIS2_PLACEMENT_3D('',#506,#399,#400);
#350=AXIS2_PLACEMENT_3D('',#508,#401,#402);
#351=AXIS2_PLACEMENT_3D('',#510,#403,#404);
#352=AXIS2_PLACEMENT_3D('',#511,#405,#406);
#353=AXIS2_PLACEMENT_3D('',#516,#408,#409);
#354=AXIS2_PLACEMENT_3D('',#519,#411,#412);
#355=AXIS2_PLACEMENT_3D('',#521,#413,#414);
#356=AXIS2_PLACEMENT_3D('',#522,#415,#416);
#357=AXIS2_PLACEMENT_3D('',#524,#417,#418);
#358=AXIS2_PLACEMENT_3D('',#525,#419,#420);
#359=AXIS2_PLACEMENT_3D('',#527,#421,#422);
#360=AXIS2_PLACEMENT_3D('',#528,#423,#424);
#361=AXIS2_PLACEMENT_3D('',#530,#425,#426);
#362=AXIS2_PLACEMENT_3D('',#531,#427,#428);
#363=AXIS2_PLACEMENT_3D('',#533,#429,#430);
#364=AXIS2_PLACEMENT_3D('',#535,#431,#432);
#365=AXIS2_PLACEMENT_3D('',#536,#433,#434);
#366=AXIS2_PLACEMENT_3D('',#538,#435,#436);
#367=AXIS2_PLACEMENT_3D('',#539,#437,#438);
#368=AXIS2_PLACEMENT_3D('',#542,#439,#440);
#369=AXIS2_PLACEMENT_3D('',#546,#442,#443);
#370=AXIS2_PLACEMENT_3D('',#549,#445,#446);
#371=AXIS2_PLACEMENT_3D('',#550,#447,#448);
#372=AXIS2_PLACEMENT_3D('',#552,#449,#450);
#373=AXIS2_PLACEMENT_3D('',#553,#451,#452);
#374=AXIS2_PLACEMENT_3D('',#555,#453,#454);
#375=AXIS2_PLACEMENT_3D('',#556,#455,#456);
#376=AXIS2_PLACEMENT_3D('',#557,#457,#458);
#377=AXIS2_PLACEMENT_3D('',#559,#459,#460);
#378=AXIS2_PLACEMENT_3D('',#560,#461,#462);
#379=AXIS2_PLACEMENT_3D('',#562,#463,#464);
#380=AXIS2_PLACEMENT_3D('',#563,#465,#466);
#381=AXIS2_PLACEMENT_3D('',#565,#467,#468);
#382=AXIS2_PLACEMENT_3D('',#566,#469,#470);
#383=AXIS2_PLACEMENT_3D('',#568,#471,#472);
#384=AXIS2_PLACEMENT_3D('',#569,#473,#474);
#385=AXIS2_PLACEMENT_3D('',#570,#475,#476);
#386=AXIS2_PLACEMENT_3D('',#572,#477,#478);
#387=AXIS2_PLACEMENT_3D('',#574,#479,#480);
#388=AXIS2_PLACEMENT_3D('',#587,#481,#482);
#389=AXIS2_PLACEMENT_3D('',#589,#483,#484);
#390=AXIS2_PLACEMENT_3D('',#591,#486,#487);
#391=AXIS2_PLACEMENT_3D('',#593,#488,#489);
#392=AXIS2_PLACEMENT_3D('',#606,#490,#491);
#393=AXIS2_PLACEMENT_3D('',#608,#493,#494);
#394=AXIS2_PLACEMENT_3D('',#611,#497,#498);
#395=AXIS2_PLACEMENT_3D('',#613,#500,#501);
#396=AXIS2_PLACEMENT_3D('',#615,#503,#504);
#397=DIRECTION('axis',(0.,0.,1.));
#398=DIRECTION('refdir',(1.,0.,0.));
#399=DIRECTION('center_axis',(0.,0.,-1.));
#400=DIRECTION('ref_axis',(-1.,0.,0.));
#401=DIRECTION('center_axis',(0.,0.,-1.));
#402=DIRECTION('ref_axis',(-1.,0.,0.));
#403=DIRECTION('center_axis',(0.,0.,1.));
#404=DIRECTION('ref_axis',(-1.,0.,0.));
#405=DIRECTION('center_axis',(0.,0.,1.));
#406=DIRECTION('ref_axis',(1.,0.,0.));
#407=DIRECTION('',(-1.,2.7974123455122E-16,0.));
#408=DIRECTION('center_axis',(0.,0.,1.));
#409=DIRECTION('ref_axis',(-3.45478282701121E-16,1.,0.));
#410=DIRECTION('',(1.,0.,0.));
#411=DIRECTION('center_axis',(0.,0.,1.));
#412=DIRECTION('ref_axis',(-0.217825421133231,-0.975987748851455,0.));
#413=DIRECTION('center_axis',(0.,0.,1.));
#414=DIRECTION('ref_axis',(-1.,0.,0.));
#415=DIRECTION('center_axis',(0.,0.,-1.));
#416=DIRECTION('ref_axis',(-1.,0.,0.));
#417=DIRECTION('center_axis',(0.,0.,1.));
#418=DIRECTION('ref_axis',(1.,0.,0.));
#419=DIRECTION('center_axis',(0.,0.,-1.));
#420=DIRECTION('ref_axis',(-1.,0.,0.));
#421=DIRECTION('center_axis',(0.,0.,-1.));
#422=DIRECTION('ref_axis',(-1.,0.,0.));
#423=DIRECTION('center_axis',(0.,0.,-1.));
#424=DIRECTION('ref_axis',(-1.,0.,0.));
#425=DIRECTION('center_axis',(0.,0.,1.));
#426=DIRECTION('ref_axis',(1.,0.,0.));
#427=DIRECTION('center_axis',(0.,0.,1.));
#428=DIRECTION('ref_axis',(1.,0.,0.));
#429=DIRECTION('center_axis',(0.,0.,1.));
#430=DIRECTION('ref_axis',(-1.,0.,0.));
#431=DIRECTION('center_axis',(0.,0.,-1.));
#432=DIRECTION('ref_axis',(-1.,0.,0.));
#433=DIRECTION('center_axis',(0.,0.,-1.));
#434=DIRECTION('ref_axis',(-1.,0.,0.));
#435=DIRECTION('center_axis',(0.,0.,-1.));
#436=DIRECTION('ref_axis',(-1.,0.,0.));
#437=DIRECTION('center_axis',(0.,0.,1.));
#438=DIRECTION('ref_axis',(1.,0.,0.));
#439=DIRECTION('center_axis',(0.,0.,1.));
#440=DIRECTION('ref_axis',(0.993978809847437,-0.109572467227277,0.));
#441=DIRECTION('',(1.,0.,0.));
#442=DIRECTION('center_axis',(0.,0.,1.));
#443=DIRECTION('ref_axis',(-0.993978809847437,-0.109572467227277,0.));
#444=DIRECTION('',(-1.,-2.7974123455122E-16,0.));
#445=DIRECTION('center_axis',(0.,0.,-1.));
#446=DIRECTION('ref_axis',(-1.,0.,0.));
#447=DIRECTION('center_axis',(0.,0.,1.));
#448=DIRECTION('ref_axis',(1.,0.,0.));
#449=DIRECTION('center_axis',(0.,0.,-1.));
#450=DIRECTION('ref_axis',(1.,0.,0.));
#451=DIRECTION('center_axis',(0.,0.,1.));
#452=DIRECTION('ref_axis',(1.,0.,0.));
#453=DIRECTION('center_axis',(0.,0.,1.));
#454=DIRECTION('ref_axis',(-1.,0.,0.));
#455=DIRECTION('center_axis',(0.,0.,-1.));
#456=DIRECTION('ref_axis',(-1.,0.,0.));
#457=DIRECTION('center_axis',(0.,0.,1.));
#458=DIRECTION('ref_axis',(1.,0.,0.));
#459=DIRECTION('center_axis',(0.,0.,1.));
#460=DIRECTION('ref_axis',(-1.,0.,0.));
#461=DIRECTION('center_axis',(0.,0.,-1.));
#462=DIRECTION('ref_axis',(-1.,0.,0.));
#463=DIRECTION('center_axis',(0.,0.,-1.));
#464=DIRECTION('ref_axis',(-1.,0.,0.));
#465=DIRECTION('center_axis',(0.,0.,-1.));
#466=DIRECTION('ref_axis',(-1.,0.,0.));
#467=DIRECTION('center_axis',(0.,0.,1.));
#468=DIRECTION('ref_axis',(-1.,0.,0.));
#469=DIRECTION('center_axis',(0.,0.,1.));
#470=DIRECTION('ref_axis',(1.,0.,0.));
#471=DIRECTION('center_axis',(0.,0.,-1.));
#472=DIRECTION('ref_axis',(1.,0.,0.));
#473=DIRECTION('center_axis',(0.,0.,1.));
#474=DIRECTION('ref_axis',(1.,0.,0.));
#475=DIRECTION('center_axis',(0.,0.,1.));
#476=DIRECTION('ref_axis',(1.,0.,0.));
#477=DIRECTION('center_axis',(1.,0.,0.));
#478=DIRECTION('ref_axis',(0.,0.,-1.));
#479=DIRECTION('center_axis',(0.,0.,-1.));
#480=DIRECTION('ref_axis',(0.993978809847437,-0.109572467227277,0.));
#481=DIRECTION('center_axis',(-1.,-2.7974123455122E-16,0.));
#482=DIRECTION('ref_axis',(0.,0.70710678118654,-0.707106781186555));
#483=DIRECTION('center_axis',(1.,0.,0.));
#484=DIRECTION('ref_axis',(0.,0.,-1.));
#485=DIRECTION('',(1.,2.7974123455122E-16,0.));
#486=DIRECTION('center_axis',(0.,0.,1.));
#487=DIRECTION('ref_axis',(1.,0.,0.));
#488=DIRECTION('center_axis',(0.,0.,-1.));
#489=DIRECTION('ref_axis',(-0.993978809847437,-0.109572467227277,0.));
#490=DIRECTION('center_axis',(1.,0.,0.));
#491=DIRECTION('ref_axis',(0.,-0.707106781186548,-0.707106781186547));
#492=DIRECTION('',(-1.,0.,0.));
#493=DIRECTION('center_axis',(0.,-1.,0.));
#494=DIRECTION('ref_axis',(1.,0.,0.));
#495=DIRECTION('',(0.,0.,1.));
#496=DIRECTION('',(0.,0.,1.));
#497=DIRECTION('center_axis',(0.,0.,1.));
#498=DIRECTION('ref_axis',(-0.217825421133231,-0.975987748851455,0.));
#499=DIRECTION('',(0.,0.,1.));
#500=DIRECTION('center_axis',(0.,0.,1.));
#501=DIRECTION('ref_axis',(-3.45478282701121E-16,1.,0.));
#502=DIRECTION('',(0.,0.,1.));
#503=DIRECTION('center_axis',(-2.7974123455122E-16,1.,0.));
#504=DIRECTION('ref_axis',(-1.,-2.7974123455122E-16,0.));
#505=CARTESIAN_POINT('',(0.,0.,0.));
#506=CARTESIAN_POINT('Origin',(15.115,6.35,2.));
#507=CARTESIAN_POINT('',(18.4385,6.35,2.));
#508=CARTESIAN_POINT('Origin',(15.115,6.35,2.));
#509=CARTESIAN_POINT('',(19.4385,6.35,3.));
#510=CARTESIAN_POINT('Origin',(15.115,6.35,3.));
#511=CARTESIAN_POINT('Origin',(-9.26883540766303,6.36504135469499,3.));
#512=CARTESIAN_POINT('',(15.875,12.7,3.));
#513=CARTESIAN_POINT('',(-15.875,12.7,3.));
#514=CARTESIAN_POINT('',(15.875,12.7,3.));
#515=CARTESIAN_POINT('',(-14.475,0.,3.));
#516=CARTESIAN_POINT('Origin',(-15.875,6.27283464566929,3.));
#517=CARTESIAN_POINT('',(14.475,0.,3.));
#518=CARTESIAN_POINT('',(-14.475,0.,3.));
#519=CARTESIAN_POINT('Origin',(15.875,6.27283464566929,3.));
#520=CARTESIAN_POINT('',(-10.7915,6.35,3.));
#521=CARTESIAN_POINT('Origin',(-15.115,6.35,3.));
#522=CARTESIAN_POINT('Origin',(15.115,6.35,44.8671205018616));
#523=CARTESIAN_POINT('',(11.7915,6.35,-1.3));
#524=CARTESIAN_POINT('Origin',(15.115,6.35,-1.3));
#525=CARTESIAN_POINT('Origin',(-15.115,6.35,2.));
#526=CARTESIAN_POINT('',(-11.7915,6.35,2.));
#527=CARTESIAN_POINT('Origin',(-15.115,6.35,2.));
#528=CARTESIAN_POINT('Origin',(-15.115,6.35,44.8671205018616));
#529=CARTESIAN_POINT('',(-18.4385,6.35,-1.3));
#530=CARTESIAN_POINT('Origin',(-15.115,6.35,-1.3));
#531=CARTESIAN_POINT('Origin',(15.115,6.35,-0.5));
#532=CARTESIAN_POINT('',(20.465,6.35,-0.5));
#533=CARTESIAN_POINT('Origin',(15.115,6.35,-0.5));
#534=CARTESIAN_POINT('',(20.965,6.35,0.));
#535=CARTESIAN_POINT('Origin',(15.115,6.35,0.));
#536=CARTESIAN_POINT('Origin',(15.115,6.35,0.));
#537=CARTESIAN_POINT('',(20.465,6.35,-1.3));
#538=CARTESIAN_POINT('Origin',(15.115,6.35,-1.3));
#539=CARTESIAN_POINT('Origin',(-9.26883540766303,6.36504135469499,0.));
#540=CARTESIAN_POINT('',(14.4972236333369,0.2,0.));
#541=CARTESIAN_POINT('',(15.875,12.5,0.));
#542=CARTESIAN_POINT('Origin',(15.875,6.27283464566929,0.));
#543=CARTESIAN_POINT('',(-14.4972236333369,0.2,0.));
#544=CARTESIAN_POINT('',(-11.8719177038315,0.2,0.));
#545=CARTESIAN_POINT('',(-15.875,12.5,0.));
#546=CARTESIAN_POINT('Origin',(-15.875,6.27283464566929,0.));
#547=CARTESIAN_POINT('',(-4.63441770383152,12.5,0.));
#548=CARTESIAN_POINT('',(-9.265,6.35,0.));
#549=CARTESIAN_POINT('Origin',(-15.115,6.35,0.));
#550=CARTESIAN_POINT('Origin',(15.115,6.35,-1.3));
#551=CARTESIAN_POINT('',(11.2915,6.35,-1.8));
#552=CARTESIAN_POINT('Origin',(15.115,6.35,-1.8));
#553=CARTESIAN_POINT('Origin',(15.115,6.35,-1.8));
#554=CARTESIAN_POINT('',(19.965,6.35,-1.8));
#555=CARTESIAN_POINT('Origin',(15.115,6.35,-1.8));
#556=CARTESIAN_POINT('Origin',(15.115,6.35,-1.3));
#557=CARTESIAN_POINT('Origin',(-15.115,6.35,-0.5));
#558=CARTESIAN_POINT('',(-9.765,6.35,-0.5));
#559=CARTESIAN_POINT('Origin',(-15.115,6.35,-0.5));
#560=CARTESIAN_POINT('Origin',(-15.115,6.35,0.));
#561=CARTESIAN_POINT('',(-9.765,6.35,-1.3));
#562=CARTESIAN_POINT('Origin',(-15.115,6.35,-1.3));
#563=CARTESIAN_POINT('Origin',(-15.115,6.35,-1.3));
#564=CARTESIAN_POINT('',(-10.265,6.35,-1.8));
#565=CARTESIAN_POINT('Origin',(-15.115,6.35,-1.8));
#566=CARTESIAN_POINT('Origin',(-15.115,6.35,-1.8));
#567=CARTESIAN_POINT('',(-18.9385,6.35,-1.8));
#568=CARTESIAN_POINT('Origin',(-15.115,6.35,-1.8));
#569=CARTESIAN_POINT('Origin',(-15.115,6.35,-1.3));
#570=CARTESIAN_POINT('Origin',(15.875,6.27283464566929,0.2));
#571=CARTESIAN_POINT('',(15.875,12.7,0.2));
#572=CARTESIAN_POINT('Origin',(15.875,12.5,0.2));
#573=CARTESIAN_POINT('',(14.475,0.,0.2));
#574=CARTESIAN_POINT('Origin',(15.875,6.27283464566929,0.2));
#575=CARTESIAN_POINT('Ctrl Pts',(14.4972236333369,0.2,0.));
#576=CARTESIAN_POINT('Ctrl Pts',(14.4971482279857,0.199326824119096,4.12201343906216E-20));
#577=CARTESIAN_POINT('Ctrl Pts',(14.4970728292052,0.198653651630973,3.39874324957145E-6));
#578=CARTESIAN_POINT('Ctrl Pts',(14.4940286000609,0.171472051868187,0.000277877815359436));
#579=CARTESIAN_POINT('Ctrl Pts',(14.4911035886051,0.145266231710095,0.00581354558016619));
#580=CARTESIAN_POINT('Ctrl Pts',(14.4857319700749,0.0970040617809745,0.0265975328316685));
#581=CARTESIAN_POINT('Ctrl Pts',(14.4833266886522,0.0753235444660688,0.0414590669837714));
#582=CARTESIAN_POINT('Ctrl Pts',(14.4793007379911,0.0389669588213798,0.0785943130717258));
#583=CARTESIAN_POINT('Ctrl Pts',(14.4777134014599,0.0245943626921868,0.100468190544752));
#584=CARTESIAN_POINT('Ctrl Pts',(14.475554109498,0.00502933453992643,0.148464271582088));
#585=CARTESIAN_POINT('Ctrl Pts',(14.475,1.38777878078145E-16,0.174103959113292));
#586=CARTESIAN_POINT('Ctrl Pts',(14.475,1.38777878078145E-16,0.2));
#587=CARTESIAN_POINT('Origin',(-4.63441770383152,12.5,0.2));
#588=CARTESIAN_POINT('',(-15.875,12.7,0.2));
#589=CARTESIAN_POINT('Origin',(-15.875,12.5,0.2));
#590=CARTESIAN_POINT('',(-4.63441770383152,12.7,0.2));
#591=CARTESIAN_POINT('Origin',(-15.875,6.27283464566929,0.2));
#592=CARTESIAN_POINT('',(-14.475,0.,0.2));
#593=CARTESIAN_POINT('Origin',(-15.875,6.27283464566929,0.2));
#594=CARTESIAN_POINT('Ctrl Pts',(-14.4972236333369,0.2,0.));
#595=CARTESIAN_POINT('Ctrl Pts',(-14.4971482279857,0.199326824119096,4.12201343906187E-20));
#596=CARTESIAN_POINT('Ctrl Pts',(-14.4970728292052,0.198653651630974,3.39874324957379E-6));
#597=CARTESIAN_POINT('Ctrl Pts',(-14.494028600061,0.171472051868178,0.000277877815359395));
#598=CARTESIAN_POINT('Ctrl Pts',(-14.4911035886051,0.145266231710094,0.00581354558016599));
#599=CARTESIAN_POINT('Ctrl Pts',(-14.4857319700749,0.0970040617809727,0.0265975328316689));
#600=CARTESIAN_POINT('Ctrl Pts',(-14.4833266886522,0.0753235444660688,0.0414590669837716));
#601=CARTESIAN_POINT('Ctrl Pts',(-14.4793007379911,0.038966958821379,0.0785943130717266));
#602=CARTESIAN_POINT('Ctrl Pts',(-14.4777134014599,0.0245943626921865,0.100468190544753));
#603=CARTESIAN_POINT('Ctrl Pts',(-14.475554109498,0.00502933453992555,0.14846427158209));
#604=CARTESIAN_POINT('Ctrl Pts',(-14.475,1.38777878078145E-16,0.174103959113293));
#605=CARTESIAN_POINT('Ctrl Pts',(-14.475,1.38777878078145E-16,0.2));
#606=CARTESIAN_POINT('Origin',(-11.8719177038315,0.2,0.2));
#607=CARTESIAN_POINT('',(-11.8719177038315,0.,0.2));
#608=CARTESIAN_POINT('Origin',(-14.475,0.,0.));
#609=CARTESIAN_POINT('',(14.475,0.,0.));
#610=CARTESIAN_POINT('',(-14.475,0.,0.));
#611=CARTESIAN_POINT('Origin',(15.875,6.27283464566929,0.));
#612=CARTESIAN_POINT('',(15.875,12.7,0.));
#613=CARTESIAN_POINT('Origin',(-15.875,6.27283464566929,0.));
#614=CARTESIAN_POINT('',(-15.875,12.7,0.));
#615=CARTESIAN_POINT('Origin',(0.,12.7,0.));
#616=UNCERTAINTY_MEASURE_WITH_UNIT(LENGTH_MEASURE(0.01),#620,
'DISTANCE_ACCURACY_VALUE',
'Maximum model space distance between geometric entities at asserted c
onnectivities');
#617=UNCERTAINTY_MEASURE_WITH_UNIT(LENGTH_MEASURE(0.01),#620,
'DISTANCE_ACCURACY_VALUE',
'Maximum model space distance between geometric entities at asserted c
onnectivities');
#618=(
GEOMETRIC_REPRESENTATION_CONTEXT(3)
GLOBAL_UNCERTAINTY_ASSIGNED_CONTEXT((#616))
GLOBAL_UNIT_ASSIGNED_CONTEXT((#620,#623,#622))
REPRESENTATION_CONTEXT('','3D')
);
#619=(
GEOMETRIC_REPRESENTATION_CONTEXT(3)
GLOBAL_UNCERTAINTY_ASSIGNED_CONTEXT((#617))
GLOBAL_UNIT_ASSIGNED_CONTEXT((#620,#623,#622))
REPRESENTATION_CONTEXT('','3D')
);
#620=(
LENGTH_UNIT()
NAMED_UNIT(*)
SI_UNIT(.MILLI.,.METRE.)
);
#621=(
LENGTH_UNIT()
NAMED_UNIT(*)
SI_UNIT(.CENTI.,.METRE.)
);
#622=(
NAMED_UNIT(*)
SI_UNIT($,.STERADIAN.)
SOLID_ANGLE_UNIT()
);
#623=(
NAMED_UNIT(*)
PLANE_ANGLE_UNIT()
SI_UNIT($,.RADIAN.)
);
#624=SHAPE_DEFINITION_REPRESENTATION(#625,#626);
#625=PRODUCT_DEFINITION_SHAPE('',$,#628);
#626=SHAPE_REPRESENTATION('',(#348),#618);
#627=PRODUCT_DEFINITION_CONTEXT('part definition',#632,'design');
#628=PRODUCT_DEFINITION('PLNUT200','PLNUT200',#629,#627);
#629=PRODUCT_DEFINITION_FORMATION('',$,#634);
#630=PRODUCT_RELATED_PRODUCT_CATEGORY('PLNUT200','PLNUT200',(#634));
#631=APPLICATION_PROTOCOL_DEFINITION('international standard',
'automotive_design',2009,#632);
#632=APPLICATION_CONTEXT(
'Core Data for Automotive Mechanical Design Process');
#633=PRODUCT_CONTEXT('part definition',#632,'mechanical');
#634=PRODUCT('PLNUT200','PLNUT200',$,(#633));
#635=PRESENTATION_STYLE_ASSIGNMENT((#636));
#636=SURFACE_STYLE_USAGE(.BOTH.,#637);
#637=SURFACE_SIDE_STYLE('',(#638));
#638=SURFACE_STYLE_FILL_AREA(#639);
#639=FILL_AREA_STYLE('',(#640));
#640=FILL_AREA_STYLE_COLOUR('',#641);
#641=COLOUR_RGB('',0.745098039215686,0.737254901960784,0.729411764705882);
ENDSEC;
END-ISO-10303-21;
