ISO-10303-21;
HEADER;
/* Generated by software containing ST-Developer
 * from STEP Tools, Inc. (www.steptools.com) 
 */

FILE_DESCRIPTION(
/* description */ ('Alibre Inc.'),
/* implementation_level */ '2;1');

FILE_NAME(
/* name */ 'export0',
/* time_stamp */ '2012-09-24T13:27:55-07:00',
/* author */ (''),
/* organization */ (''),
/* preprocessor_version */ 'ST-DEVELOPER v14',
/* originating_system */ 'Alibre',
/* authorisation */ '');

FILE_SCHEMA (('CONFIG_CONTROL_DESIGN'));
ENDSEC;

DATA;
#10=MECHANICAL_CONTEXT('detailed design',#18,'mechanical');
#11=PRODUCT_RELATED_PRODUCT_CATEGORY('detail','',(#98));
#12=CC_DESIGN_SECURITY_CLASSIFICATION(#14,(#97));
#13=SECURITY_CLASSIFICATION_LEVEL('unclassified');
#14=SECURITY_CLASSIFICATION('name','Security for version',#13);
#15=SHAPE_DEFINITION_REPRESENTATION(#16,#444);
#16=PRODUCT_DEFINITION_SHAPE('','DefinitionDesc',#96);
#17=APPLICATION_PROTOCOL_DEFINITION('AP definition status',
'config_control_design',1994,#18);
#18=APPLICATION_CONTEXT(
'control the configuration of three dimensional design');
#19=DESIGN_CONTEXT('detailed design',#18,'design');
#20=PERSON_AND_ORGANIZATION_ROLE('creator');
#21=PERSON_AND_ORGANIZATION_ROLE('classification_officer');
#22=PERSON_AND_ORGANIZATION_ROLE('creator');
#23=PERSON_AND_ORGANIZATION_ROLE('design_supplier');
#24=PERSON_AND_ORGANIZATION_ROLE('design_owner');
#25=CC_DESIGN_PERSON_AND_ORGANIZATION_ASSIGNMENT(#57,#20,(#96));
#26=CC_DESIGN_PERSON_AND_ORGANIZATION_ASSIGNMENT(#60,#21,(#14));
#27=CC_DESIGN_PERSON_AND_ORGANIZATION_ASSIGNMENT(#61,#22,(#97));
#28=CC_DESIGN_PERSON_AND_ORGANIZATION_ASSIGNMENT(#62,#23,(#97));
#29=CC_DESIGN_PERSON_AND_ORGANIZATION_ASSIGNMENT(#63,#24,(#98));
#30=DATE_TIME_ROLE('creation_date');
#31=DATE_TIME_ROLE('classification_date');
#32=CC_DESIGN_DATE_AND_TIME_ASSIGNMENT(#86,#30,(#96));
#33=CC_DESIGN_DATE_AND_TIME_ASSIGNMENT(#89,#31,(#14));
#34=CC_DESIGN_APPROVAL(#93,(#96));
#35=CC_DESIGN_APPROVAL(#94,(#97));
#36=CC_DESIGN_APPROVAL(#95,(#14));
#37=APPROVAL_PERSON_ORGANIZATION(#56,#93,#64);
#38=APPROVAL_PERSON_ORGANIZATION(#58,#94,#65);
#39=APPROVAL_PERSON_ORGANIZATION(#59,#95,#66);
#40=ORGANIZATION('DEFINITION_APPROVEDBY_ORG_ID',
'DEFINITION_APPROVEDBY_ORG_NAME','DEFINITION_APPROVEDBY_ORG_DESCR');
#41=ORGANIZATION('DEF_CREATOR_ORG_ID','DEF_CREATOR_ORG_NAME',
'DEF_CREATOR_ORG_DESCR');
#42=ORGANIZATION('APPROVEDBY_ORG_ID','APPROVEDBY_ORG_NAME',
'APPROVEDBY_ORG_DESCR');
#43=ORGANIZATION('SECURITY_APPROVEDBY_ORG_ID',
'SECURITY_APPROVEDBY_ORG_NAME','SECURITY_APPROVEDBY_ORG_DESCR');
#44=ORGANIZATION('CLASSOFFICER_ORG_ID','CLASSOFFICER_ORG_NAME',
'CLASSOFFICER_ORG_DESCR');
#45=ORGANIZATION('CREATOR_ORG_ID','CREATOR_ORG_NAME','CREATOR_ORG_DESCR');
#46=ORGANIZATION('SUPPLIER_ORG_ID','SUPPLIER_ORG_NAME',
'SUPPLIER_ORG_DESCR');
#47=ORGANIZATION('OWNER_ORG_ID','OWNER_ORG_NAME','OWNER_ORG_DESCR');
#48=PERSON('DEFINITION_approverID','DEFINITION_APPROVEDBY_LASTNAME',
'DEFINITION_APPROVEDBY_FIRSTNAME',$,$,$);
#49=PERSON('DEF_createrID','DEF_CREATOR_LASTNAME',
'DEF_CREATOR_FIRSTNAME',$,$,$);
#50=PERSON('approverID','APPROVEDBY_LASTNAME','APPROVEDBY_FIRSTNAME',$,$,
$);
#51=PERSON('SECURITY_approverID','SECURITY_LASTNAME',
'SECURITY_APPROVEDBY_FIRSTNAME',$,$,$);
#52=PERSON('classifierID','CLASSOFFICER_LASTNAME',
'CLASSOFFICER_FIRSTNAME',$,$,$);
#53=PERSON('createrID','CREATOR_LASTNAME','CREATOR_FIRSTNAME',$,$,$);
#54=PERSON('supplierID','SUPPLIER_LASTNAME','SUPPLIER_FIRSTNAME',$,$,$);
#55=PERSON('ownerID','OWNER_LASTNAME','OWNER_FIRSTNAME',$,$,$);
#56=PERSON_AND_ORGANIZATION(#48,#40);
#57=PERSON_AND_ORGANIZATION(#49,#41);
#58=PERSON_AND_ORGANIZATION(#50,#42);
#59=PERSON_AND_ORGANIZATION(#51,#43);
#60=PERSON_AND_ORGANIZATION(#52,#44);
#61=PERSON_AND_ORGANIZATION(#53,#45);
#62=PERSON_AND_ORGANIZATION(#54,#46);
#63=PERSON_AND_ORGANIZATION(#55,#47);
#64=APPROVAL_ROLE('definition_approval');
#65=APPROVAL_ROLE('version_approval');
#66=APPROVAL_ROLE('security_approval');
#67=APPROVAL_DATE_TIME(#85,#93);
#68=APPROVAL_DATE_TIME(#87,#94);
#69=APPROVAL_DATE_TIME(#88,#95);
#70=COORDINATED_UNIVERSAL_TIME_OFFSET(7,0,.BEHIND.);
#71=COORDINATED_UNIVERSAL_TIME_OFFSET(7,0,.BEHIND.);
#72=COORDINATED_UNIVERSAL_TIME_OFFSET(7,0,.BEHIND.);
#73=COORDINATED_UNIVERSAL_TIME_OFFSET(7,0,.BEHIND.);
#74=COORDINATED_UNIVERSAL_TIME_OFFSET(7,0,.BEHIND.);
#75=LOCAL_TIME(9,40,48.,#70);
#76=LOCAL_TIME(9,40,48.,#71);
#77=LOCAL_TIME(9,40,48.,#72);
#78=LOCAL_TIME(9,40,48.,#73);
#79=LOCAL_TIME(9,40,48.,#74);
#80=CALENDAR_DATE(2012,15,5);
#81=CALENDAR_DATE(2012,15,5);
#82=CALENDAR_DATE(2012,15,5);
#83=CALENDAR_DATE(2012,15,5);
#84=CALENDAR_DATE(2012,15,5);
#85=DATE_AND_TIME(#80,#75);
#86=DATE_AND_TIME(#81,#76);
#87=DATE_AND_TIME(#82,#77);
#88=DATE_AND_TIME(#83,#78);
#89=DATE_AND_TIME(#84,#79);
#90=APPROVAL_STATUS('not_yet_approved');
#91=APPROVAL_STATUS('not_yet_approved');
#92=APPROVAL_STATUS('not_yet_approved');
#93=APPROVAL(#90,'defintion approval');
#94=APPROVAL(#91,'version approval');
#95=APPROVAL(#92,'security approval');
#96=PRODUCT_DEFINITION('DefinitionID','DefinitionDesc',#97,#19);
#97=PRODUCT_DEFINITION_FORMATION_WITH_SPECIFIED_SOURCE(
'PRODUCT_VERSION_ID','PRODUCT_VERSION_DESCR',#98,.NOT_KNOWN.);
#98=PRODUCT('S10827','110008 ACCU-GLASS PRODUCTS, INC',
'MALE CONTACT PIN FOR DA HV STYLE CONNECTOR\X\0D\X\0AWRM\X\0D\X\0ADO NO
T MANUFACTURE TO THIS MODEL',(#10));
#99=(
LENGTH_UNIT()
NAMED_UNIT(*)
SI_UNIT(.CENTI.,.METRE.)
);
#100=(
NAMED_UNIT(*)
PLANE_ANGLE_UNIT()
SI_UNIT($,.RADIAN.)
);
#101=(
NAMED_UNIT(*)
SI_UNIT($,.STERADIAN.)
SOLID_ANGLE_UNIT()
);
#102=UNCERTAINTY_MEASURE_WITH_UNIT(LENGTH_MEASURE(1.E-006),#99,
'DISTANCE_ACCURACY_VALUE',
'Maximum model space distance between geometric entities at asserted co
nnectivities');
#103=(
GEOMETRIC_REPRESENTATION_CONTEXT(3)
GLOBAL_UNCERTAINTY_ASSIGNED_CONTEXT((#102))
GLOBAL_UNIT_ASSIGNED_CONTEXT((#101,#100,#99))
REPRESENTATION_CONTEXT('ID1','3D')
);
#104=PLANE('',#271);
#105=PLANE('',#275);
#106=PLANE('',#276);
#107=PLANE('',#281);
#108=PLANE('',#284);
#109=DEGENERATE_TOROIDAL_SURFACE('',#266,0.00254,0.04826,.T.);
#110=B_SPLINE_CURVE_WITH_KNOTS('',3,(#290,#291,#292,#293,#294,#295,#296,
#297,#298,#299,#300,#301,#302,#303,#304,#305,#306,#307,#308,#309,#310,#311,
#312,#313,#314,#315,#316,#317,#318,#319,#320,#321,#322,#323),
 .UNSPECIFIED.,.T.,.U.,(4,2,2,2,2,2,2,2,2,2,2,2,2,2,2,2,4),(0.,0.00723782235231123,
0.0144756447046225,0.0217101101493416,0.0289445755940607,0.0361790410387799,
0.043413506483499,0.0506513288358102,0.0578891511881215,0.0651269735404327,
0.0723647958927439,0.079599261337463,0.0868337267821822,0.0940681922269013,
0.10130265767162,0.108540480023932,0.115778302376243),.UNSPECIFIED.);
#111=B_SPLINE_CURVE_WITH_KNOTS('',3,(#331,#332,#333,#334,#335,#336,#337,
#338,#339,#340,#341,#342,#343,#344,#345,#346,#347,#348,#349,#350,#351,#352,
#353,#354,#355,#356,#357,#358,#359,#360,#361,#362,#363,#364),
 .UNSPECIFIED.,.T.,.U.,(4,2,2,2,2,2,2,2,2,2,2,2,2,2,2,2,4),(0.,0.00720173723119635,
0.0144034744623927,0.0216046095120837,0.0288057445617747,0.0360068796114658,
0.0432080146611568,0.0504097518923531,0.0576114891235495,0.0648132263547458,
0.0720149635859421,0.0792160986356331,0.0864172336853242,0.0936183687350152,
0.100819503784706,0.108021241015903,0.115222978247099),.UNSPECIFIED.);
#112=CYLINDRICAL_SURFACE('',#261,0.05715);
#113=CYLINDRICAL_SURFACE('',#265,0.01905);
#114=CYLINDRICAL_SURFACE('',#269,0.0508);
#115=CYLINDRICAL_SURFACE('',#272,0.0889);
#116=CYLINDRICAL_SURFACE('',#279,0.10414);
#117=CYLINDRICAL_SURFACE('',#282,0.08636);
#118=CIRCLE('',#260,0.05715);
#119=CIRCLE('',#262,0.05715);
#120=CIRCLE('',#264,0.07112);
#121=CIRCLE('',#267,0.00254);
#122=CIRCLE('',#268,0.0508);
#123=CIRCLE('',#270,0.0508);
#124=CIRCLE('',#273,0.0889);
#125=CIRCLE('',#274,0.0889);
#126=CIRCLE('',#277,0.10414);
#127=CIRCLE('',#278,0.08636);
#128=CIRCLE('',#280,0.10414);
#129=CIRCLE('',#283,0.08636);
#130=EDGE_CURVE('',#202,#202,#118,.T.);
#131=EDGE_CURVE('',#203,#203,#110,.T.);
#132=EDGE_CURVE('',#204,#204,#119,.T.);
#133=EDGE_CURVE('',#205,#205,#120,.T.);
#134=EDGE_CURVE('',#206,#206,#111,.T.);
#135=EDGE_CURVE('',#207,#207,#121,.T.);
#136=EDGE_CURVE('',#208,#208,#122,.T.);
#137=EDGE_CURVE('',#209,#209,#123,.T.);
#138=EDGE_CURVE('',#210,#210,#124,.T.);
#139=EDGE_CURVE('',#211,#211,#125,.T.);
#140=EDGE_CURVE('',#212,#212,#126,.T.);
#141=EDGE_CURVE('',#213,#213,#127,.T.);
#142=EDGE_CURVE('',#214,#214,#128,.T.);
#143=EDGE_CURVE('',#215,#215,#129,.T.);
#144=ORIENTED_EDGE('',*,*,#130,.T.);
#145=ORIENTED_EDGE('',*,*,#130,.F.);
#146=ORIENTED_EDGE('',*,*,#131,.F.);
#147=ORIENTED_EDGE('',*,*,#132,.T.);
#148=ORIENTED_EDGE('',*,*,#132,.F.);
#149=ORIENTED_EDGE('',*,*,#133,.F.);
#150=ORIENTED_EDGE('',*,*,#131,.T.);
#151=ORIENTED_EDGE('',*,*,#134,.F.);
#152=ORIENTED_EDGE('',*,*,#135,.T.);
#153=ORIENTED_EDGE('',*,*,#136,.T.);
#154=ORIENTED_EDGE('',*,*,#137,.F.);
#155=ORIENTED_EDGE('',*,*,#136,.F.);
#156=ORIENTED_EDGE('',*,*,#135,.F.);
#157=ORIENTED_EDGE('',*,*,#138,.T.);
#158=ORIENTED_EDGE('',*,*,#139,.F.);
#159=ORIENTED_EDGE('',*,*,#137,.T.);
#160=ORIENTED_EDGE('',*,*,#138,.F.);
#161=ORIENTED_EDGE('',*,*,#140,.F.);
#162=ORIENTED_EDGE('',*,*,#141,.F.);
#163=ORIENTED_EDGE('',*,*,#142,.T.);
#164=ORIENTED_EDGE('',*,*,#140,.T.);
#165=ORIENTED_EDGE('',*,*,#139,.T.);
#166=ORIENTED_EDGE('',*,*,#142,.F.);
#167=ORIENTED_EDGE('',*,*,#134,.T.);
#168=ORIENTED_EDGE('',*,*,#141,.T.);
#169=ORIENTED_EDGE('',*,*,#143,.T.);
#170=ORIENTED_EDGE('',*,*,#133,.T.);
#171=ORIENTED_EDGE('',*,*,#143,.F.);
#172=EDGE_LOOP('',(#144));
#173=EDGE_LOOP('',(#145));
#174=EDGE_LOOP('',(#146));
#175=EDGE_LOOP('',(#147));
#176=EDGE_LOOP('',(#148));
#177=EDGE_LOOP('',(#149));
#178=EDGE_LOOP('',(#150));
#179=EDGE_LOOP('',(#151));
#180=EDGE_LOOP('',(#152));
#181=EDGE_LOOP('',(#153));
#182=EDGE_LOOP('',(#154));
#183=EDGE_LOOP('',(#155));
#184=EDGE_LOOP('',(#156));
#185=EDGE_LOOP('',(#157));
#186=EDGE_LOOP('',(#158));
#187=EDGE_LOOP('',(#159));
#188=EDGE_LOOP('',(#160));
#189=EDGE_LOOP('',(#161));
#190=EDGE_LOOP('',(#162));
#191=EDGE_LOOP('',(#163));
#192=EDGE_LOOP('',(#164));
#193=EDGE_LOOP('',(#165));
#194=EDGE_LOOP('',(#166));
#195=EDGE_LOOP('',(#167));
#196=EDGE_LOOP('',(#168));
#197=EDGE_LOOP('',(#169));
#198=EDGE_LOOP('',(#170));
#199=EDGE_LOOP('',(#171));
#200=VERTEX_LOOP('',#201);
#201=VERTEX_POINT('',#286);
#202=VERTEX_POINT('',#288);
#203=VERTEX_POINT('',#324);
#204=VERTEX_POINT('',#326);
#205=VERTEX_POINT('',#329);
#206=VERTEX_POINT('',#365);
#207=VERTEX_POINT('',#368);
#208=VERTEX_POINT('',#370);
#209=VERTEX_POINT('',#373);
#210=VERTEX_POINT('',#377);
#211=VERTEX_POINT('',#379);
#212=VERTEX_POINT('',#383);
#213=VERTEX_POINT('',#385);
#214=VERTEX_POINT('',#388);
#215=VERTEX_POINT('',#392);
#216=FACE_BOUND('',#200,.T.);
#217=FACE_BOUND('',#172,.T.);
#218=FACE_BOUND('',#173,.T.);
#219=FACE_BOUND('',#174,.T.);
#220=FACE_BOUND('',#175,.T.);
#221=FACE_BOUND('',#176,.T.);
#222=FACE_BOUND('',#177,.T.);
#223=FACE_BOUND('',#178,.T.);
#224=FACE_BOUND('',#179,.T.);
#225=FACE_BOUND('',#180,.T.);
#226=FACE_BOUND('',#181,.T.);
#227=FACE_BOUND('',#182,.T.);
#228=FACE_BOUND('',#183,.T.);
#229=FACE_BOUND('',#184,.T.);
#230=FACE_BOUND('',#185,.T.);
#231=FACE_BOUND('',#186,.T.);
#232=FACE_BOUND('',#187,.T.);
#233=FACE_BOUND('',#188,.T.);
#234=FACE_BOUND('',#189,.T.);
#235=FACE_BOUND('',#190,.T.);
#236=FACE_BOUND('',#191,.T.);
#237=FACE_BOUND('',#192,.T.);
#238=FACE_BOUND('',#193,.T.);
#239=FACE_BOUND('',#194,.T.);
#240=FACE_BOUND('',#195,.T.);
#241=FACE_BOUND('',#196,.T.);
#242=FACE_BOUND('',#197,.T.);
#243=FACE_BOUND('',#198,.T.);
#244=FACE_BOUND('',#199,.T.);
#245=ADVANCED_FACE('',(#216,#217),#440,.F.);
#246=ADVANCED_FACE('',(#218,#219,#220),#112,.F.);
#247=ADVANCED_FACE('',(#221,#222),#441,.F.);
#248=ADVANCED_FACE('',(#223,#224),#113,.F.);
#249=ADVANCED_FACE('',(#225,#226),#109,.T.);
#250=ADVANCED_FACE('',(#227,#228),#114,.T.);
#251=ADVANCED_FACE('',(#229),#104,.T.);
#252=ADVANCED_FACE('',(#230,#231),#115,.T.);
#253=ADVANCED_FACE('',(#232,#233),#105,.T.);
#254=ADVANCED_FACE('',(#234,#235),#106,.F.);
#255=ADVANCED_FACE('',(#236,#237),#116,.T.);
#256=ADVANCED_FACE('',(#238,#239),#107,.T.);
#257=ADVANCED_FACE('',(#240,#241,#242),#117,.T.);
#258=ADVANCED_FACE('',(#243,#244),#108,.F.);
#259=AXIS2_PLACEMENT_3D('',#285,#394,#395);
#260=AXIS2_PLACEMENT_3D('',#287,#396,#397);
#261=AXIS2_PLACEMENT_3D('',#289,#398,#399);
#262=AXIS2_PLACEMENT_3D('',#325,#400,#401);
#263=AXIS2_PLACEMENT_3D('',#327,#402,#403);
#264=AXIS2_PLACEMENT_3D('',#328,#404,#405);
#265=AXIS2_PLACEMENT_3D('',#330,#406,#407);
#266=AXIS2_PLACEMENT_3D('',#366,#408,$);
#267=AXIS2_PLACEMENT_3D('',#367,#409,#410);
#268=AXIS2_PLACEMENT_3D('',#369,#411,#412);
#269=AXIS2_PLACEMENT_3D('',#371,#413,#414);
#270=AXIS2_PLACEMENT_3D('',#372,#415,#416);
#271=AXIS2_PLACEMENT_3D('',#374,#417,$);
#272=AXIS2_PLACEMENT_3D('',#375,#418,#419);
#273=AXIS2_PLACEMENT_3D('',#376,#420,#421);
#274=AXIS2_PLACEMENT_3D('',#378,#422,#423);
#275=AXIS2_PLACEMENT_3D('',#380,#424,$);
#276=AXIS2_PLACEMENT_3D('',#381,#425,$);
#277=AXIS2_PLACEMENT_3D('',#382,#426,#427);
#278=AXIS2_PLACEMENT_3D('',#384,#428,#429);
#279=AXIS2_PLACEMENT_3D('',#386,#430,#431);
#280=AXIS2_PLACEMENT_3D('',#387,#432,#433);
#281=AXIS2_PLACEMENT_3D('',#389,#434,$);
#282=AXIS2_PLACEMENT_3D('',#390,#435,#436);
#283=AXIS2_PLACEMENT_3D('',#391,#437,#438);
#284=AXIS2_PLACEMENT_3D('',#393,#439,$);
#285=CARTESIAN_POINT('',(0.,0.,0.4318));
#286=CARTESIAN_POINT('',(0.,0.,0.466139184377425));
#287=CARTESIAN_POINT('',(0.,0.,0.4318));
#288=CARTESIAN_POINT('',(0.05715,0.,0.4318));
#289=CARTESIAN_POINT('',(0.,0.,0.));
#290=CARTESIAN_POINT('',(-0.01905,0.0538815367264149,0.37592));
#291=CARTESIAN_POINT('',(-0.01905,0.0538815367264149,0.37350739254923));
#292=CARTESIAN_POINT('',(-0.0185636761993865,0.0540621534596007,0.370948272552418));
#293=CARTESIAN_POINT('',(-0.0166148829408449,0.0546897690074926,0.366260287746111));
#294=CARTESIAN_POINT('',(-0.0151518076439943,0.0551320117079998,0.364131039280787));
#295=CARTESIAN_POINT('',(-0.0117897405647124,0.0559474327484875,0.360768972201505));
#296=CARTESIAN_POINT('',(-0.00966013609402085,0.0563784222370833,0.359305291747653));
#297=CARTESIAN_POINT('',(-0.00497110291049332,0.0569812709942547,0.357356065678385));
#298=CARTESIAN_POINT('',(-0.00241148848157304,0.05715,0.35687));
#299=CARTESIAN_POINT('',(0.00241148848157305,0.05715,0.35687));
#300=CARTESIAN_POINT('',(0.00497110291049332,0.0569812709942547,0.357356065678385));
#301=CARTESIAN_POINT('',(0.00966013609402086,0.0563784222370833,0.359305291747653));
#302=CARTESIAN_POINT('',(0.0117897405647124,0.0559474327484875,0.360768972201505));
#303=CARTESIAN_POINT('',(0.0151518076439944,0.0551320117079998,0.364131039280787));
#304=CARTESIAN_POINT('',(0.0166148829408449,0.0546897690074926,0.366260287746111));
#305=CARTESIAN_POINT('',(0.0185636761993865,0.0540621534596007,0.370948272552418));
#306=CARTESIAN_POINT('',(0.01905,0.0538815367264149,0.37350739254923));
#307=CARTESIAN_POINT('',(0.01905,0.0538815367264149,0.37833260745077));
#308=CARTESIAN_POINT('',(0.0185636761993865,0.0540621534596007,0.380891727447582));
#309=CARTESIAN_POINT('',(0.0166148829408449,0.0546897690074926,0.385579712253889));
#310=CARTESIAN_POINT('',(0.0151518076439943,0.0551320117079998,0.387708960719213));
#311=CARTESIAN_POINT('',(0.0117897405647124,0.0559474327484875,0.391071027798495));
#312=CARTESIAN_POINT('',(0.00966013609402086,0.0563784222370833,0.392534708252347));
#313=CARTESIAN_POINT('',(0.00497110291049332,0.0569812709942547,0.394483934321615));
#314=CARTESIAN_POINT('',(0.00241148848157304,0.05715,0.39497));
#315=CARTESIAN_POINT('',(-0.00241148848157305,0.05715,0.39497));
#316=CARTESIAN_POINT('',(-0.00497110291049337,0.0569812709942547,0.394483934321615));
#317=CARTESIAN_POINT('',(-0.0096601360940209,0.0563784222370833,0.392534708252347));
#318=CARTESIAN_POINT('',(-0.0117897405647124,0.0559474327484875,0.391071027798495));
#319=CARTESIAN_POINT('',(-0.0151518076439944,0.0551320117079998,0.387708960719213));
#320=CARTESIAN_POINT('',(-0.0166148829408449,0.0546897690074926,0.385579712253889));
#321=CARTESIAN_POINT('',(-0.0185636761993865,0.0540621534596007,0.380891727447582));
#322=CARTESIAN_POINT('',(-0.01905,0.0538815367264149,0.37833260745077));
#323=CARTESIAN_POINT('',(-0.01905,0.0538815367264149,0.37592));
#324=CARTESIAN_POINT('',(-0.01905,0.0538815367264149,0.37592));
#325=CARTESIAN_POINT('',(0.,0.,0.0241967497817372));
#326=CARTESIAN_POINT('',(0.05715,0.,0.0241967497817372));
#327=CARTESIAN_POINT('',(0.,0.,0.));
#328=CARTESIAN_POINT('',(0.,0.,0.));
#329=CARTESIAN_POINT('',(0.07112,0.,0.));
#330=CARTESIAN_POINT('',(0.,0.,0.37592));
#331=CARTESIAN_POINT('',(-0.01905,0.0842326961458554,0.37592));
#332=CARTESIAN_POINT('',(-0.01905,0.0842326961458554,0.373519420922935));
#333=CARTESIAN_POINT('',(-0.0185684597632258,0.0843468950148965,0.370964594687305));
#334=CARTESIAN_POINT('',(-0.0166222645713286,0.0847502140885298,0.366273250321468));
#335=CARTESIAN_POINT('',(-0.0151573657454738,0.0850365846960374,0.364136597382266));
#336=CARTESIAN_POINT('',(-0.0117835436766288,0.085569352479462,0.360762775313421));
#337=CARTESIAN_POINT('',(-0.00964682416120059,0.0858525915335279,0.359297766212122));
#338=CARTESIAN_POINT('',(-0.00495529101625761,0.0862490644322243,0.357351492936519));
#339=CARTESIAN_POINT('',(-0.002400378349897,0.08636,0.35687));
#340=CARTESIAN_POINT('',(0.00240037834989702,0.08636,0.35687));
#341=CARTESIAN_POINT('',(0.00495529101625763,0.0862490644322243,0.357351492936519));
#342=CARTESIAN_POINT('',(0.00964682416120061,0.0858525915335279,0.359297766212122));
#343=CARTESIAN_POINT('',(0.0117835436766289,0.085569352479462,0.360762775313421));
#344=CARTESIAN_POINT('',(0.0151573657454738,0.0850365846960374,0.364136597382266));
#345=CARTESIAN_POINT('',(0.0166222645713285,0.0847502140885298,0.366273250321468));
#346=CARTESIAN_POINT('',(0.0185684597632258,0.0843468950148965,0.370964594687305));
#347=CARTESIAN_POINT('',(0.01905,0.0842326961458554,0.373519420922935));
#348=CARTESIAN_POINT('',(0.01905,0.0842326961458554,0.378320579077065));
#349=CARTESIAN_POINT('',(0.0185684597632258,0.0843468950148965,0.380875405312695));
#350=CARTESIAN_POINT('',(0.0166222645713286,0.0847502140885298,0.385566749678532));
#351=CARTESIAN_POINT('',(0.0151573657454738,0.0850365846960374,0.387703402617734));
#352=CARTESIAN_POINT('',(0.0117835436766288,0.085569352479462,0.391077224686579));
#353=CARTESIAN_POINT('',(0.0096468241612006,0.0858525915335279,0.392542233787878));
#354=CARTESIAN_POINT('',(0.00495529101625762,0.0862490644322243,0.394488507063481));
#355=CARTESIAN_POINT('',(0.00240037834989701,0.08636,0.39497));
#356=CARTESIAN_POINT('',(-0.00240037834989702,0.08636,0.39497));
#357=CARTESIAN_POINT('',(-0.00495529101625763,0.0862490644322243,0.394488507063481));
#358=CARTESIAN_POINT('',(-0.00964682416120061,0.0858525915335279,0.392542233787878));
#359=CARTESIAN_POINT('',(-0.0117835436766289,0.085569352479462,0.391077224686579));
#360=CARTESIAN_POINT('',(-0.0151573657454738,0.0850365846960374,0.387703402617734));
#361=CARTESIAN_POINT('',(-0.0166222645713286,0.0847502140885298,0.385566749678532));
#362=CARTESIAN_POINT('',(-0.0185684597632258,0.0843468950148965,0.380875405312695));
#363=CARTESIAN_POINT('',(-0.01905,0.0842326961458554,0.378320579077065));
#364=CARTESIAN_POINT('',(-0.01905,0.0842326961458554,0.37592));
#365=CARTESIAN_POINT('',(-0.01905,0.0842326961458554,0.37592));
#366=CARTESIAN_POINT('',(0.,0.,1.32588));
#367=CARTESIAN_POINT('',(0.,0.,1.37414));
#368=CARTESIAN_POINT('',(0.00254,0.,1.37414));
#369=CARTESIAN_POINT('',(0.,0.,1.32588));
#370=CARTESIAN_POINT('',(0.0508,1.24420005548354E-017,1.32588));
#371=CARTESIAN_POINT('',(0.,0.,0.5588));
#372=CARTESIAN_POINT('',(0.,0.,0.5588));
#373=CARTESIAN_POINT('',(0.0508,0.,0.5588));
#374=CARTESIAN_POINT('',(0.,0.,1.37414));
#375=CARTESIAN_POINT('',(0.,0.,0.4826));
#376=CARTESIAN_POINT('',(0.,0.,0.5588));
#377=CARTESIAN_POINT('',(0.0889,0.,0.5588));
#378=CARTESIAN_POINT('',(0.,0.,0.4826));
#379=CARTESIAN_POINT('',(0.0889,0.,0.4826));
#380=CARTESIAN_POINT('',(0.,0.,0.5588));
#381=CARTESIAN_POINT('',(0.,0.,0.4064));
#382=CARTESIAN_POINT('',(0.,0.,0.4064));
#383=CARTESIAN_POINT('',(0.10414,0.,0.4064));
#384=CARTESIAN_POINT('',(0.,0.,0.4064));
#385=CARTESIAN_POINT('',(0.08636,0.,0.4064));
#386=CARTESIAN_POINT('',(0.,0.,0.4064));
#387=CARTESIAN_POINT('',(0.,0.,0.4826));
#388=CARTESIAN_POINT('',(0.10414,0.,0.4826));
#389=CARTESIAN_POINT('',(0.,0.,0.4826));
#390=CARTESIAN_POINT('',(0.,0.,0.));
#391=CARTESIAN_POINT('',(0.,0.,0.));
#392=CARTESIAN_POINT('',(0.08636,0.,0.));
#393=CARTESIAN_POINT('',(0.,0.,0.));
#394=DIRECTION('',(0.,0.,-1.));
#395=DIRECTION('',(0.05715,0.,0.));
#396=DIRECTION('',(0.,0.,-1.));
#397=DIRECTION('',(0.05715,0.,0.));
#398=DIRECTION('',(0.,0.,1.));
#399=DIRECTION('',(0.05715,0.,0.));
#400=DIRECTION('',(0.,0.,-1.));
#401=DIRECTION('',(0.05715,0.,0.));
#402=DIRECTION('',(0.,0.,-1.));
#403=DIRECTION('',(0.07112,0.,0.));
#404=DIRECTION('',(0.,0.,1.));
#405=DIRECTION('',(0.07112,0.,0.));
#406=DIRECTION('',(0.,1.,0.));
#407=DIRECTION('',(0.01905,0.,0.));
#408=DIRECTION('',(0.,0.,-1.));
#409=DIRECTION('',(0.,0.,-1.));
#410=DIRECTION('',(-0.00254,-3.11050013870884E-019,0.));
#411=DIRECTION('',(0.,0.,1.));
#412=DIRECTION('',(-0.0508,-6.22100027741768E-018,0.));
#413=DIRECTION('',(0.,0.,1.));
#414=DIRECTION('',(0.0508,0.,0.));
#415=DIRECTION('',(0.,0.,-1.));
#416=DIRECTION('',(0.0508,0.,0.));
#417=DIRECTION('',(0.,0.,1.));
#418=DIRECTION('',(0.,0.,1.));
#419=DIRECTION('',(0.0889,0.,0.));
#420=DIRECTION('',(0.,0.,-1.));
#421=DIRECTION('',(0.0889,0.,0.));
#422=DIRECTION('',(0.,0.,-1.));
#423=DIRECTION('',(0.0889,0.,0.));
#424=DIRECTION('',(0.,0.,1.));
#425=DIRECTION('',(0.,0.,1.));
#426=DIRECTION('',(0.,0.,1.));
#427=DIRECTION('',(0.10414,0.,0.));
#428=DIRECTION('',(0.,0.,-1.));
#429=DIRECTION('',(0.08636,0.,0.));
#430=DIRECTION('',(0.,0.,1.));
#431=DIRECTION('',(0.10414,0.,0.));
#432=DIRECTION('',(0.,0.,-1.));
#433=DIRECTION('',(0.10414,0.,0.));
#434=DIRECTION('',(0.,0.,1.));
#435=DIRECTION('',(0.,0.,1.));
#436=DIRECTION('',(0.08636,0.,0.));
#437=DIRECTION('',(0.,0.,1.));
#438=DIRECTION('',(0.08636,0.,0.));
#439=DIRECTION('',(0.,0.,1.));
#440=CONICAL_SURFACE('',#259,0.05715,1.02974425867665);
#441=CONICAL_SURFACE('',#263,0.07112,0.523598775598299);
#442=CLOSED_SHELL('',(#245,#246,#247,#248,#249,#250,#251,#252,#253,#254,
#255,#256,#257,#258));
#443=MANIFOLD_SOLID_BREP('',#442);
#444=ADVANCED_BREP_SHAPE_REPRESENTATION('',(#443),#103);
ENDSEC;
END-ISO-10303-21;
